  0
SECTION
  2
HEADER
  9
$ACADVER
  1
AC1015
  9
$ACADMAINTVER
 70
    20
  9
$DWGCODEPAGE
  3
ANSI_1252
  9
$INSBASE
 10
0.0
 20
0.0
 30
0.0
  9
$EXTMIN
 10
5.953658392766771
 20
-2.649999981471474
 30
0.0
  9
$EXTMAX
 10
24.0400000374232
 20
8.514079596501536
 30
7.710285371233901E+99
  9
$LIMMIN
 10
0.0
 20
0.0
  9
$LIMMAX
 10
17.0
 20
11.0
  9
$ORTHOMODE
 70
     1
  9
$REGENMODE
 70
     1
  9
$FILLMODE
 70
     1
  9
$QTEXTMODE
 70
     0
  9
$MIRRTEXT
 70
     1
  9
$LTSCALE
 40
1.0
  9
$ATTMODE
 70
     1
  9
$TEXTSIZE
 40
0.1
  9
$TRACEWID
 40
0.05
  9
$TEXTSTYLE
  7
SIMPLEX
  9
$CLAYER
  8
PART
  9
$CELTYPE
  6
BYLAYER
  9
$CECOLOR
 62
   256
  9
$CELTSCALE
 40
1.0
  9
$DISPSILH
 70
     0
  9
$DIMSCALE
 40
1.0
  9
$DIMASZ
 40
0.12
  9
$DIMEXO
 40
0.05
  9
$DIMDLI
 40
0.38
  9
$DIMRND
 40
0.0
  9
$DIMDLE
 40
0.0
  9
$DIMEXE
 40
0.05
  9
$DIMTP
 40
0.0
  9
$DIMTM
 40
0.0
  9
$DIMTXT
 40
0.1
  9
$DIMCEN
 40
0.09
  9
$DIMTSZ
 40
0.0
  9
$DIMTOL
 70
     0
  9
$DIMLIM
 70
     0
  9
$DIMTIH
 70
     1
  9
$DIMTOH
 70
     1
  9
$DIMSE1
 70
     0
  9
$DIMSE2
 70
     0
  9
$DIMTAD
 70
     0
  9
$DIMZIN
 70
     4
  9
$DIMBLK
  1

  9
$DIMASO
 70
     1
  9
$DIMSHO
 70
     1
  9
$DIMPOST
  1

  9
$DIMAPOST
  1

  9
$DIMALT
 70
     0
  9
$DIMALTD
 70
     2
  9
$DIMALTF
 40
25.4
  9
$DIMLFAC
 40
1.0
  9
$DIMTOFL
 70
     0
  9
$DIMTVP
 40
0.0
  9
$DIMTIX
 70
     0
  9
$DIMSOXD
 70
     0
  9
$DIMSAH
 70
     0
  9
$DIMBLK1
  1

  9
$DIMBLK2
  1

  9
$DIMSTYLE
  2
SIMPLEX
  9
$DIMCLRD
 70
     0
  9
$DIMCLRE
 70
     0
  9
$DIMCLRT
 70
     0
  9
$DIMTFAC
 40
1.0
  9
$DIMGAP
 40
0.04
  9
$DIMJUST
 70
     0
  9
$DIMSD1
 70
     0
  9
$DIMSD2
 70
     0
  9
$DIMTOLJ
 70
     1
  9
$DIMTZIN
 70
     0
  9
$DIMALTZ
 70
     0
  9
$DIMALTTZ
 70
     0
  9
$DIMUPT
 70
     1
  9
$DIMDEC
 70
     3
  9
$DIMTDEC
 70
     3
  9
$DIMALTU
 70
     2
  9
$DIMALTTD
 70
     2
  9
$DIMTXSTY
  7
SIMPLEX
  9
$DIMAUNIT
 70
     0
  9
$DIMADEC
 70
     0
  9
$DIMALTRND
 40
0.0
  9
$DIMAZIN
 70
     0
  9
$DIMDSEP
 70
    46
  9
$DIMATFIT
 70
     3
  9
$DIMFRAC
 70
     0
  9
$DIMLDRBLK
  1

  9
$DIMLUNIT
 70
     2
  9
$DIMLWD
 70
    -2
  9
$DIMLWE
 70
    -2
  9
$DIMTMOVE
 70
     0
  9
$LUNITS
 70
     2
  9
$LUPREC
 70
     3
  9
$SKETCHINC
 40
0.1
  9
$FILLETRAD
 40
0.2
  9
$AUNITS
 70
     0
  9
$AUPREC
 70
     0
  9
$MENU
  1
C:\R13\WIN\SUPPORT\ACADFULL
  9
$ELEVATION
 40
0.0
  9
$PELEVATION
 40
0.0
  9
$THICKNESS
 40
0.0
  9
$LIMCHECK
 70
     0
  9
$CHAMFERA
 40
0.0
  9
$CHAMFERB
 40
0.0
  9
$CHAMFERC
 40
0.0
  9
$CHAMFERD
 40
0.0
  9
$SKPOLY
 70
     0
  9
$TDCREATE
 40
2450037.614102546
  9
$TDUCREATE
 40
2450037.947435880
  9
$TDUPDATE
 40
2454784.463806794
  9
$TDUUPDATE
 40
2454784.797140128
  9
$TDINDWG
 40
4.5303249190
  9
$TDUSRTIMER
 40
4.5303245486
  9
$USRTIMER
 70
     1
  9
$ANGBASE
 50
0.0
  9
$ANGDIR
 70
     0
  9
$PDMODE
 70
     0
  9
$PDSIZE
 40
0.0
  9
$PLINEWID
 40
0.0
  9
$SPLFRAME
 70
     0
  9
$SPLINETYPE
 70
     6
  9
$SPLINESEGS
 70
     8
  9
$HANDSEED
  5
F330
  9
$SURFTAB1
 70
     6
  9
$SURFTAB2
 70
     6
  9
$SURFTYPE
 70
     6
  9
$SURFU
 70
     6
  9
$SURFV
 70
     6
  9
$UCSBASE
  2

  9
$UCSNAME
  2

  9
$UCSORG
 10
0.0
 20
0.0
 30
0.0
  9
$UCSXDIR
 10
1.0
 20
0.0
 30
0.0
  9
$UCSYDIR
 10
0.0
 20
1.0
 30
0.0
  9
$UCSORTHOREF
  2

  9
$UCSORTHOVIEW
 70
     0
  9
$UCSORGTOP
 10
0.0
 20
0.0
 30
0.0
  9
$UCSORGBOTTOM
 10
0.0
 20
0.0
 30
0.0
  9
$UCSORGLEFT
 10
0.0
 20
0.0
 30
0.0
  9
$UCSORGRIGHT
 10
0.0
 20
0.0
 30
0.0
  9
$UCSORGFRONT
 10
0.0
 20
0.0
 30
0.0
  9
$UCSORGBACK
 10
0.0
 20
0.0
 30
0.0
  9
$PUCSBASE
  2

  9
$PUCSNAME
  2

  9
$PUCSORG
 10
0.0
 20
0.0
 30
0.0
  9
$PUCSXDIR
 10
1.0
 20
0.0
 30
0.0
  9
$PUCSYDIR
 10
0.0
 20
1.0
 30
0.0
  9
$PUCSORTHOREF
  2

  9
$PUCSORTHOVIEW
 70
     0
  9
$PUCSORGTOP
 10
0.0
 20
0.0
 30
0.0
  9
$PUCSORGBOTTOM
 10
0.0
 20
0.0
 30
0.0
  9
$PUCSORGLEFT
 10
0.0
 20
0.0
 30
0.0
  9
$PUCSORGRIGHT
 10
0.0
 20
0.0
 30
0.0
  9
$PUCSORGFRONT
 10
0.0
 20
0.0
 30
0.0
  9
$PUCSORGBACK
 10
0.0
 20
0.0
 30
0.0
  9
$USERI1
 70
     0
  9
$USERI2
 70
     0
  9
$USERI3
 70
     0
  9
$USERI4
 70
     0
  9
$USERI5
 70
     0
  9
$USERR1
 40
0.0
  9
$USERR2
 40
0.0
  9
$USERR3
 40
0.0
  9
$USERR4
 40
0.0
  9
$USERR5
 40
0.0
  9
$WORLDVIEW
 70
     1
  9
$SHADEDGE
 70
     3
  9
$SHADEDIF
 70
    70
  9
$TILEMODE
 70
     1
  9
$MAXACTVP
 70
    16
  9
$PINSBASE
 10
0.0
 20
0.0
 30
0.0
  9
$PLIMCHECK
 70
     0
  9
$PEXTMIN
 10
1.000000000000000E+20
 20
1.000000000000000E+20
 30
1.000000000000000E+20
  9
$PEXTMAX
 10
-1.000000000000000E+20
 20
-1.000000000000000E+20
 30
-1.000000000000000E+20
  9
$PLIMMIN
 10
0.0
 20
0.0
  9
$PLIMMAX
 10
12.0
 20
9.0
  9
$UNITMODE
 70
     0
  9
$VISRETAIN
 70
     0
  9
$PLINEGEN
 70
     0
  9
$PSLTSCALE
 70
     1
  9
$TREEDEPTH
 70
  3020
  9
$CMLSTYLE
  2
STANDARD
  9
$CMLJUST
 70
     0
  9
$CMLSCALE
 40
1.0
  9
$PROXYGRAPHICS
 70
     1
  9
$MEASUREMENT
 70
     0
  9
$CELWEIGHT
370
    -1
  9
$ENDCAPS
280
     0
  9
$JOINSTYLE
280
     0
  9
$LWDISPLAY
290
     0
  9
$INSUNITS
 70
     0
  9
$HYPERLINKBASE
  1

  9
$STYLESHEET
  1
MONOCHROME.CTB
  9
$XEDIT
290
     1
  9
$CEPSNTYPE
380
     0
  9
$PSTYLEMODE
290
     1
  9
$FINGERPRINTGUID
  2
{DAFFDB27-95BB-11D3-9A99-00104B62C915}
  9
$VERSIONGUID
  2
{C2F0C1B3-B0A5-4953-A600-B502C9A4117D}
  9
$EXTNAMES
290
     1
  9
$PSVPSCALE
 40
0.0
  9
$OLESTARTUP
290
     0
  0
ENDSEC
  0
SECTION
  2
CLASSES
  0
CLASS
  1
ACDBDICTIONARYWDFLT
  2
AcDbDictionaryWithDefault
  3
ObjectDBX Classes
 90
        0
280
     0
281
     0
  0
CLASS
  1
PLOTSETTINGS
  2
AcDbPlotSettings
  3
ObjectDBX Classes
 90
        0
280
     0
281
     0
  0
CLASS
  1
TABLESTYLE
  2
AcDbTableStyle
  3
ObjectDBX Classes
 90
     4095
280
     0
281
     0
  0
CLASS
  1
DICTIONARYVAR
  2
AcDbDictionaryVar
  3
ObjectDBX Classes
 90
        0
280
     0
281
     0
  0
CLASS
  1
SORTENTSTABLE
  2
AcDbSortentsTable
  3
ObjectDBX Classes
 90
        0
280
     0
281
     0
  0
CLASS
  1
ARCALIGNEDTEXT
  2
AcDbArcAlignedText
  3
ATEXT|AutoCAD Express Tool|expresstools@autodesk.com
 90
    32768
280
     0
281
     1
  0
CLASS
  1
MATERIAL
  2
AcDbMaterial
  3
ObjectDBX Classes
 90
     1024
280
     0
281
     0
  0
CLASS
  1
VISUALSTYLE
  2
AcDbVisualStyle
  3
ObjectDBX Classes
 90
     4095
280
     0
281
     0
  0
CLASS
  1
ACME_DOCUMENT
  2
AcMeDbDoc
  3
AcMeServices
 90
        0
280
     0
281
     0
  0
CLASS
  1
AMGSETTINGSOBJ
  2
AmgSettingsObj
  3
"AcadM|Product Description: AutoCAD Mechanical|Company: Autodesk"
 90
        0
280
     0
281
     0
  0
CLASS
  1
ACMESCOPE
  2
AcMeScope
  3
AcMeServices
 90
        0
280
     0
281
     0
  0
CLASS
  1
ACMECOMMANDHISTORY
  2
AcMeCommandHistory
  3
AcMeServices
 90
        0
280
     0
281
     0
  0
CLASS
  1
ACIMSYSVARMAN
  2
AcImSysVarManager
  3
AcMeServices
 90
        0
280
     0
281
     0
  0
CLASS
  1
ACIMREALSYSVAR
  2
AcImRealSysVar
  3
AcMeServices
 90
        0
280
     0
281
     0
  0
CLASS
  1
ACIMINTSYSVAR
  2
AcImIntSysVar
  3
AcMeServices
 90
        0
280
     0
281
     0
  0
CLASS
  1
ACMEDRAWINGMAN
  2
AcMeDrawingMan
  3
AcMeServices
 90
        0
280
     0
281
     0
  0
CLASS
  1
ACMEVIEW
  2
AcMeView
  3
AcMeServices
 90
        0
280
     0
281
     0
  0
CLASS
  1
ACDBENTITYCACHE
  2
AcMeEntityCache
  3
AcMeServices
 90
        0
280
     0
281
     0
  0
CLASS
  1
GSMANAGER
  2
AcMeGSManager
  3
AcMeServices
 90
        0
280
     0
281
     0
  0
CLASS
  1
AMDTINTERNALREACTOR
  2
AmdtInternalReactor
  3
AcMeServices
 90
        0
280
     0
281
     0
  0
CLASS
  1
ACMESTATEMGR
  2
AcMeStateMgr
  3
AcMeServices
 90
        0
280
     0
281
     0
  0
CLASS
  1
ACGREFMASTER
  2
AcGrefMaster
  3
AcAttribServices
 90
        0
280
     0
281
     0
  0
CLASS
  1
AM_DRAWING_MGR
  2
AcDmDwgMgr
  3
AcMechDwgViewMgmt
 90
        0
280
     0
281
     0
  0
CLASS
  1
AM_DWG_DOCUMENT
  2
AcDmDwgDocument
  3
AcMechDwgViewMgmt
 90
        0
280
     0
281
     0
  0
CLASS
  1
AM_DWG_SHEET
  2
AcDmSheet
  3
AcMechDwgViewMgmt
 90
        0
280
     0
281
     0
  0
CLASS
  1
AM_VIEWDIMPARMAP
  2
AcDmViewDimParMap
  3
AcMechDwgViewMgmt
 90
        0
280
     0
281
     0
  0
CLASS
  1
AM_DWGMGR_NAME
  2
AcDmDwgMgrName
  3
AcMechDwgViewMgmt
 90
        0
280
     0
281
     0
  0
CLASS
  1
ACME_DATABASE
  2
AcMeDbDatabase
  3
AcMeServices
 90
        0
280
     0
281
     0
  0
CLASS
  1
ACRFINSADJUSTERMGR
  2
AcRfInsAdjusterMgr
  3
AcMeServices
 90
        0
280
     0
281
     0
  0
CLASS
  1
ACGREFACADMASTER
  2
AcGrefacadMaster
  3
AcGrefServices
 90
        0
280
     0
281
     0
  0
CLASS
  1
AMDTMENUSTATEMGR
  2
AmdtMenuStateMgr
  3
McadcomServices
 90
        0
280
     0
281
     0
  0
CLASS
  1
AMDTMCOMMENUSTATE
  2
AmdtMcomMenuState
  3
McadcomServices
 90
        0
280
     0
281
     0
  0
CLASS
  1
AMIMASTER
  2
AmiMaster
  3
AmiServices
 90
        0
280
     0
281
     0
  0
CLASS
  1
ASAPP
  2
AcAsAppObject
  3
AutoSurfServices
 90
        0
280
     0
281
     0
  0
CLASS
  1
IM_STATIC_MAN
  2
AcImStaticVarManager
  3
AcMeServices
 90
        0
280
     0
281
     0
  0
CLASS
  1
ACIMSTRSYSVAR
  2
AcImStrSysVar
  3
AcMeServices
 90
        0
280
     0
281
     0
  0
CLASS
  1
ACIMDBLSTATICVAR
  2
AcImDblStaticVar
  3
AcMeServices
 90
        0
280
     0
281
     0
  0
CLASS
  1
ACIMSTRSTATICVAR
  2
AcImStrStaticVar
  3
AcMeServices
 90
        0
280
     0
281
     0
  0
CLASS
  1
ACIMINTSTATICVAR
  2
AcImIntStaticVar
  3
AcMeServices
 90
        0
280
     0
281
     0
  0
CLASS
  1
ACASGREFMASTER
  2
AcAsGrefMaster
  3
AutoSurfResolverServices
 90
        0
280
     0
281
     0
  0
CLASS
  1
ACADGREFMODULE
  2
AcAdGrefModule
  3
AdGrefServices
 90
        0
280
     0
281
     0
  0
CLASS
  1
AMDTMAPISURFMOUDULE
  2
AmdtMApiSurfModule
  3
MApiSurfServices
 90
        0
280
     0
281
     0
  0
CLASS
  1
MAPIAMMOUDLE
  2
MApiAmModule
  3
MApiAmServices
 90
        0
280
     0
281
     0
  0
CLASS
  1
AMDTADMENUSTATE
  2
AmdtAdMenuState
  3
DesignerServices
 90
        0
280
     0
281
     0
  0
CLASS
  1
ADAPPL
  2
AcAdAppl
  3
DesignerServices
 90
        0
280
     0
281
     0
  0
CLASS
  1
DEPMGR
  2
AcAdDepMgr
  3
DesignerServices
 90
        0
280
     0
281
     0
  0
CLASS
  1
PARAMMGR
  2
AcAdParamMgr
  3
DesignerServices
 90
        0
280
     0
281
     0
  0
CLASS
  1
PARAMSCOPE
  2
AcAdParamScope
  3
DesignerServices
 90
        0
280
     0
281
     0
  0
CLASS
  1
NAMEDAPPL
  2
AcAdNamedAppl
  3
DesignerServices
 90
        0
280
     0
281
     0
  0
CLASS
  1
AMDTDMMENUSTATE
  2
AmdtDmMenuState
  3
AcMechDwgViewMgmt
 90
        0
280
     0
281
     0
  0
CLASS
  1
MAPIADMODULE
  2
MApiAdModule
  3
MApiAdServices
 90
        0
280
     0
281
     0
  0
CLASS
  1
AMDTAMMENUSTATE
  2
AmdtAmMenuState
  3
DesignerAssemblies
 90
        0
280
     0
281
     0
  0
CLASS
  1
ACAMPROJECT
  2
AcAmProject
  3
DesignerAssemblies
 90
        0
280
     0
281
     0
  0
CLASS
  1
ACAMGRCOMPDEF
  2
AcAmGrCompDef
  3
DesignerAssemblies
 90
        0
280
     0
281
     0
  0
CLASS
  1
ACCMCONTEXT
  2
AcCmContext
  3
DesignerAssemblies
 90
        0
280
     0
281
     0
  0
CLASS
  1
ACAMCOMPDEF
  2
AcAmCompDef
  3
DesignerAssemblies
 90
        0
280
     0
281
     0
  0
CLASS
  1
ACAMCOMPDEFMGR
  2
AcAmCompDefMgr
  3
DesignerAssemblies
 90
        0
280
     0
281
     0
  0
CLASS
  1
AMCONTEXTMGR
  2
AcAmContextMgr
  3
DesignerAssemblies
 90
        0
280
     0
281
     0
  0
CLASS
  1
ACAMCONTEXTMODELER
  2
AcAmContextModeler
  3
DesignerAssemblies
 90
        0
280
     0
281
     0
  0
CLASS
  1
ACMDATADICTIONARY
  2
AcmDataDictionary
  3
"AcmSymBB|Product Description: AutoCAD Mechanical|Company: Autodesk"
 90
        0
280
     0
281
     0
  0
CLASS
  1
ACMDATAENTRYBLOCK
  2
AcmDataEntryBlock
  3
"AcmSymBB|Product Description: AutoCAD Mechanical|Company: Autodesk"
 90
        0
280
     0
281
     0
  0
CLASS
  1
ACRFATTGENMGR
  2
AcRfAttGeneralMgr
  3
AcAttribServices
 90
        0
280
     0
281
     0
  0
CLASS
  1
ACRFOBJATTMGR
  2
AcRfObjAttGroupMgr
  3
AcAttribServices
 90
        0
280
     0
281
     0
  0
CLASS
  1
ACRFMCADAPIATTHOLDER
  2
AcRfMCADAPIAttHolder
  3
AcAttribServices
 90
        0
280
     0
281
     0
  0
CLASS
  1
AMDTSYSATTR
  2
AmdtSystemAttribute
  3
AcAttribServices
 90
        0
280
     0
281
     0
  0
CLASS
  1
CATALOGSTATE
  2
AcAmCatalogState
  3
DesignerAssemblies
 90
        0
280
     0
281
     0
  0
CLASS
  1
ACAMGRCOMPDEFSET
  2
AcAmGrCompDefSet
  3
DesignerAssemblies
 90
        0
280
     0
281
     0
  0
CLASS
  1
AMDTBROWSERDBTAB
  2
AmdtBrowserDbTab
  3
McadcomServices
 90
        0
280
     0
281
     0
  0
CLASS
  1
CBROWSERAPPOBJECT
  2
CBrowserAppObject
  3
McadcomServices
 90
        0
280
     0
281
     0
  0
CLASS
  1
DM_PLACEHOLDER
  2
AcDmSelsetPlaceholder
  3
AcMechDwgViewMgmt
 90
        0
280
     0
281
     0
  0
CLASS
  1
ACMSTANDARDANSI
  2
AcmStandardANSI
  3
"Amdt_StdImp|Product Description: AutoCAD Mechanical|Company: Autodesk"
 90
        0
280
     0
281
     0
  0
CLASS
  1
AMGOBJPROPCFG
  2
AmgObjPropCfg
  3
"AmgLay|Product Description: AutoCAD Mechanical|Company: Autodesk"
 90
        1
280
     0
281
     0
  0
CLASS
  1
ACMSURFSTANDARDANSI
  2
AcmSurfTextStdANSI
  3
"Amdt_StdImp|Product Description: AutoCAD Mechanical|Company: Autodesk"
 90
        0
280
     0
281
     0
  0
CLASS
  1
ACMFCFSTANDARDANSI
  2
AcmFCFStdANSI
  3
"Amdt_StdImp|Product Description: AutoCAD Mechanical|Company: Autodesk"
 90
        0
280
     0
281
     0
  0
CLASS
  1
ACMWELDSTANDARDANSI
  2
AcmWeldingStdANSI
  3
"Amdt_StdImp|Product Description: AutoCAD Mechanical|Company: Autodesk"
 90
        0
280
     0
281
     0
  0
CLASS
  1
ACMIDSTANDARDANSI
  2
AcmIdStdANSI
  3
"Amdt_StdImp|Product Description: AutoCAD Mechanical|Company: Autodesk"
 90
        0
280
     0
281
     0
  0
CLASS
  1
ACMDATUMSTANDARDANSI
  2
AcmDatumStdANSI
  3
"Amdt_StdImp|Product Description: AutoCAD Mechanical|Company: Autodesk"
 90
        0
280
     0
281
     0
  0
CLASS
  1
ACMBOMSTANDARDANSI
  2
AcmBOMStdANSI
  3
"Amdt_StdImp|Product Description: AutoCAD Mechanical|Company: Autodesk"
 90
        0
280
     0
281
     0
  0
CLASS
  1
ACMDETAILSTANDARDANSI
  2
AmdtDetailSymStdANSI
  3
"Amdt_StdImp|Product Description: AutoCAD Mechanical|Company: Autodesk"
 90
        0
280
     0
281
     0
  0
CLASS
  1
ACMSECTIONSTANDARDANSI
  2
AmdtSectionSymStdANSI
  3
"Amdt_StdImp|Product Description: AutoCAD Mechanical|Company: Autodesk"
 90
        0
280
     0
281
     0
  0
CLASS
  1
ACMCENTERLINESTANDARDANSI
  2
AmdtCenterLineStdANSI
  3
"Amdt_StdImp|Product Description: AutoCAD Mechanical|Company: Autodesk"
 90
        0
280
     0
281
     0
  0
CLASS
  1
ACMTHREADLINESTANDARDANSI
  2
AmdtThreadLineStdANSI
  3
"Amdt_StdImp|Product Description: AutoCAD Mechanical|Company: Autodesk"
 90
        0
280
     0
281
     0
  0
CLASS
  1
ACMNOTESTANDARDANSI
  2
AmdtNoteStdANSI
  3
"Amdt_StdImp|Product Description: AutoCAD Mechanical|Company: Autodesk"
 90
        0
280
     0
281
     0
  0
CLASS
  1
ACMTAPERSTANDARDANSI
  2
AcmTaperStdANSI
  3
"Amdt_StdImp|Product Description: AutoCAD Mechanical|Company: Autodesk"
 90
        0
280
     0
281
     0
  0
CLASS
  1
AMDTNOTETEMPLATEDB
  2
AmdtNoteTemplateDB
  3
AMDT_STDIMP_MODULE_NAME
 90
        0
280
     0
281
     0
  0
CLASS
  1
ACAMGLAYSTD
  2
AcAmgLayStd
  3
"AmgLay|Product Description: AutoCAD Mechanical|Company: Autodesk"
 90
        0
280
     0
281
     0
  0
CLASS
  1
ACAMGDIMSTD
  2
AcAmgDimStd
  3
"AmgDim|Product Description: AutoCAD Mechanical|Company: Autodesk"
 90
        0
280
     0
281
     0
  0
CLASS
  1
ACAMGHOLECHARTSTDANSI
  2
AcAmgHoleChartStdANSI
  3
ACMSYMBB_MODULE_NAME
 90
        0
280
     0
281
     0
  0
CLASS
  1
ACAMGTITLESTD
  2
AcAmgTitleStd
  3
"AmgTitle|Product Description: AutoCAD Mechanical|Company: Autodesk"
 90
        0
280
     0
281
     0
  0
CLASS
  1
ACAMGFILTERDAT
  2
AcAmgFilterDat
  3
"AcadM|Product Description: AutoCAD Mechanical|Company: Autodesk"
 90
        0
280
     0
281
     0
  0
CLASS
  1
LAYER_INDEX
  2
AcDbLayerIndex
  3
ObjectDBX Classes
 90
        0
280
     0
281
     0
  0
CLASS
  1
IDBUFFER
  2
AcDbIdBuffer
  3
ObjectDBX Classes
 90
        0
280
     0
281
     0
  0
CLASS
  1
ACDBPLACEHOLDER
  2
AcDbPlaceHolder
  3
ObjectDBX Classes
 90
        0
280
     0
281
     0
  0
CLASS
  1
LAYOUT
  2
AcDbLayout
  3
ObjectDBX Classes
 90
        0
280
     0
281
     0
  0
ENDSEC
  0
SECTION
  2
TABLES
  0
TABLE
  2
VPORT
  5
8
330
0
100
AcDbSymbolTable
 70
     1
  0
VPORT
  5
EA7F
330
8
100
AcDbSymbolTableRecord
100
AcDbViewportTableRecord
  2
*Active
 70
     0
 10
0.0
 20
0.0
 11
1.0
 21
1.0
 12
-2.059215906695046
 22
0.4986668408466404
 13
0.0
 23
0.0
 14
0.005
 24
0.005
 15
0.01
 25
0.01
 16
0.0
 26
0.0
 36
1.0
 17
17.05604512179003
 27
3.759273852324266
 37
0.0
 40
13.93871740376249
 41
1.8627648839556
 42
50.0
 43
0.0
 44
0.0
 50
0.0
 51
0.0
 71
     0
 72
 20000
 73
     1
 74
     0
 75
     1
 76
     0
 77
     0
 78
     2
281
     0
 65
     0
110
0.0
120
0.0
130
0.0
111
1.0
121
0.0
131
0.0
112
0.0
122
1.0
132
0.0
 79
     0
146
0.0
  0
ENDTAB
  0
TABLE
  2
LTYPE
  5
5
330
0
100
AcDbSymbolTable
 70
    18
  0
LTYPE
  5
14
330
5
100
AcDbSymbolTableRecord
100
AcDbLinetypeTableRecord
  2
BYBLOCK
 70
     0
  3

 72
    65
 73
     0
 40
0.0
  0
LTYPE
  5
15
330
5
100
AcDbSymbolTableRecord
100
AcDbLinetypeTableRecord
  2
BYLAYER
 70
     0
  3

 72
    65
 73
     0
 40
0.0
  0
LTYPE
  5
16
330
5
100
AcDbSymbolTableRecord
100
AcDbLinetypeTableRecord
  2
CONTINUOUS
 70
     0
  3
Solid line
 72
    65
 73
     0
 40
0.0
  0
LTYPE
  5
EADC
330
5
100
AcDbSymbolTableRecord
100
AcDbLinetypeTableRecord
  2
HIDDEN
 70
     0
  3
Hidden __ __ __ __ __ __ __ __ __ __ __ __ __ _
 72
    65
 73
     2
 40
0.375
 49
0.25
 74
     0
 49
-0.125
 74
     0
  0
LTYPE
  5
EADD
330
5
100
AcDbSymbolTableRecord
100
AcDbLinetypeTableRecord
  2
PHANTOM2
 70
     0
  3
Phantom (.5x) ___ _ _ ___ _ _ ___ _ _ ___ _ _
 72
    65
 73
     6
 40
1.25
 49
0.625
 74
     0
 49
-0.125
 74
     0
 49
0.125
 74
     0
 49
-0.125
 74
     0
 49
0.125
 74
     0
 49
-0.125
 74
     0
  0
LTYPE
  5
EADE
330
5
100
AcDbSymbolTableRecord
100
AcDbLinetypeTableRecord
  2
CENTER
 70
     0
  3
Center ____ _ ____ _ ____ _ ____ _ ____ _ ____
 72
    65
 73
     4
 40
2.0
 49
1.25
 74
     0
 49
-0.25
 74
     0
 49
0.25
 74
     0
 49
-0.25
 74
     0
  0
LTYPE
  5
EB2D
330
5
100
AcDbSymbolTableRecord
100
AcDbLinetypeTableRecord
  2
ASULTYPE
 70
     0
  3
Solid line
 72
    65
 73
     2
 40
3.0
 49
2.5
 74
     0
 49
0.5
 74
     0
  0
LTYPE
  5
EB2E
330
5
100
AcDbSymbolTableRecord
100
AcDbLinetypeTableRecord
  2
ASVLTYPE
 70
     0
  3
__ __ __ __ __ __ __ __ __ __ __ __ __ __ __ __ __ __ __ __ __
 72
    65
 73
     2
 40
0.75
 49
0.5
 74
     0
 49
-0.25
 74
     0
  0
LTYPE
  5
EB79
330
5
100
AcDbSymbolTableRecord
100
AcDbLinetypeTableRecord
  2
AM_ISO02W050
 70
     0
  3
__ __ __ __ __ __ __ __ __ __ __ __ __ __ __
 72
    65
 73
     2
 40
7.5
 49
6.0
 74
     0
 49
-1.5
 74
     0
  0
LTYPE
  5
EB7A
330
5
100
AcDbSymbolTableRecord
100
AcDbLinetypeTableRecord
  2
AM_ISO08W050
 70
     0
  3
____ . ____ . ____ . ____ . ____ . ____ . ____
 72
    65
 73
     4
 40
18.0
 49
12.0
 74
     0
 49
-1.5
 74
     0
 49
3.0
 74
     0
 49
-1.5
 74
     0
  0
LTYPE
  5
EB7B
330
5
100
AcDbSymbolTableRecord
100
AcDbLinetypeTableRecord
  2
AM_ISO09W050
 70
     0
  3
_____ . . _____ . . _____ . . ____ .. ____
 72
    65
 73
     6
 40
22.5
 49
12.0
 74
     0
 49
-1.5
 74
     0
 49
3.0
 74
     0
 49
-1.5
 74
     0
 49
3.0
 74
     0
 49
-1.5
 74
     0
  0
LTYPE
  5
EB7C
330
5
100
AcDbSymbolTableRecord
100
AcDbLinetypeTableRecord
  2
Amconstr
 70
     0
  3
_______________________
 72
    65
 73
     2
 40
9999.0
 49
9999.0
 74
     0
 49
0.0
 74
     0
  0
LTYPE
  5
EB7D
330
5
100
AcDbSymbolTableRecord
100
AcDbLinetypeTableRecord
  2
AM_ISO08W050x2
 70
     0
  3
__ . __ . __ . __ . __ . __
 72
    65
 73
     4
 40
9.0
 49
6.0
 74
     0
 49
-0.75
 74
     0
 49
1.5
 74
     0
 49
-0.75
 74
     0
  0
LTYPE
  5
EB7E
330
5
100
AcDbSymbolTableRecord
100
AcDbLinetypeTableRecord
  2
AM_ISO02W050x2
 70
     0
  3
 _ _ _ _ _ _ _ _ _ _ _ _
 72
    65
 73
     2
 40
3.75
 49
3.0
 74
     0
 49
-0.75
 74
     0
  0
LTYPE
  5
EB81
330
5
100
AcDbSymbolTableRecord
100
AcDbLinetypeTableRecord
  2
Amzigzag
 70
     0
  3
/\/-/\/-/\/-/\/-/\/-/\/
 72
    65
 73
     2
 40
11.0001
 49
0.0001
 74
     4
 75
   136
340
EB80
 46
0.04
 50
0.0
 44
0.0
 45
0.0
 49
-11.0
 74
     0
  0
LTYPE
  5
EB82
330
5
100
AcDbSymbolTableRecord
100
AcDbLinetypeTableRecord
  2
CENTER2
 70
     0
  3
Center (.5x) ___ _ ___ _ ___ _ ___ _ ___ _ ___
 72
    65
 73
     4
 40
1.125
 49
0.75
 74
     0
 49
-0.125
 74
     0
 49
0.125
 74
     0
 49
-0.125
 74
     0
  0
LTYPE
  5
EB83
330
5
100
AcDbSymbolTableRecord
100
AcDbLinetypeTableRecord
  2
HIDDEN2
 70
     0
  3
Hidden (.5x) _ _ _ _ _ _ _ _ _ _ _ _ _ _ _ _ _
 72
    65
 73
     2
 40
0.1875
 49
0.125
 74
     0
 49
-0.0625
 74
     0
  0
LTYPE
  5
EB84
330
5
100
AcDbSymbolTableRecord
100
AcDbLinetypeTableRecord
  2
Amzigzag2
 70
     0
  3
/\/-/\/-/\/-/\/-/\/-/\/
 72
    65
 73
     2
 40
0.4401
 49
0.0001
 74
     4
 75
   136
340
EB80
 46
0.0016
 50
0.0
 44
0.0
 45
0.0
 49
-0.4400000000000002
 74
     0
  0
LTYPE
  5
EB93
330
5
100
AcDbSymbolTableRecord
100
AcDbLinetypeTableRecord
  2
ACANSTGB
 70
     0
  3
__ . . __ . .
 72
    65
 73
     6
 40
0.35433070866
 49
0.15748031496
 74
     0
 49
-0.03937007874
 74
     0
 49
0.03937007874
 74
     0
 49
-0.03937007874
 74
     0
 49
0.03937007874
 74
     0
 49
-0.03937007874
 74
     0
  0
LTYPE
  5
EB94
330
5
100
AcDbSymbolTableRecord
100
AcDbLinetypeTableRecord
  2
ACANSTGL
 70
     0
  3
_ _ _ _ _
 72
    65
 73
     2
 40
0.11811023622
 49
0.07874015748
 74
     0
 49
-0.03937007874
 74
     0
  0
ENDTAB
  0
TABLE
  2
LAYER
  5
2
102
{ACAD_XDICTIONARY
360
9494
102
}
330
0
100
AcDbSymbolTable
 70
     6
  0
LAYER
  5
F
330
2
100
AcDbSymbolTableRecord
100
AcDbLayerTableRecord
  2
0
 70
     0
 62
     7
  6
CONTINUOUS
370
    -3
390
6077
  0
LAYER
  5
5A8A
330
2
100
AcDbSymbolTableRecord
100
AcDbLayerTableRecord
  2
TERMINALS
 70
     0
 62
     6
  6
CONTINUOUS
370
    -3
390
6077
  0
LAYER
  5
62AA
330
2
100
AcDbSymbolTableRecord
100
AcDbLayerTableRecord
  2
DIMENSIONS
 70
     0
 62
     4
  6
CONTINUOUS
370
    -3
390
6077
  0
LAYER
  5
6439
330
2
100
AcDbSymbolTableRecord
100
AcDbLayerTableRecord
  2
DEFPOINTS
 70
     0
 62
     7
  6
CONTINUOUS
290
     0
370
    -3
390
6077
  0
LAYER
  5
8108
330
2
100
AcDbSymbolTableRecord
100
AcDbLayerTableRecord
  2
PART
 70
     0
 62
     1
  6
CONTINUOUS
370
    -3
390
6077
  0
LAYER
  5
EBB0
330
2
100
AcDbSymbolTableRecord
100
AcDbLayerTableRecord
  2
NOTES
 70
     0
 62
     3
  6
CONTINUOUS
370
    -3
390
6077
1001
AcAecLayerStandard
1000

1000

  0
ENDTAB
  0
TABLE
  2
STYLE
  5
3
330
0
100
AcDbSymbolTable
 70
     7
  0
STYLE
  5
10
330
3
100
AcDbSymbolTableRecord
100
AcDbTextStyleTableRecord
  2
STANDARD
 70
     0
 40
0.0
 41
1.0
 50
0.0
 71
     0
 42
0.2
  3
txt
  4

  0
STYLE
  5
25FA
330
3
100
AcDbSymbolTableRecord
100
AcDbTextStyleTableRecord
  2
SIMPLEX
 70
     0
 40
0.1
 41
1.0
 50
0.0
 71
     0
 42
0.1
  3
C:\R13\COM\FONTS\SIMPLEX.SHX
  4

  0
STYLE
  5
D909
330
3
100
AcDbSymbolTableRecord
100
AcDbTextStyleTableRecord
  2
style2
 70
     0
 40
0.25
 41
1.0
 50
0.0
 71
     0
 42
0.25
  3
ARIAL.TTF
  4

1001
ACAD
1000
Arial
1071
       34
  0
STYLE
  5
EB80
330
3
100
AcDbSymbolTableRecord
100
AcDbTextStyleTableRecord
  2

 70
     1
 40
0.0
 41
1.0
 50
0.0
 71
     0
 42
0.1
  3
genltshp.shx
  4

  0
STYLE
  5
EB85
330
3
100
AcDbSymbolTableRecord
100
AcDbTextStyleTableRecord
  2
ACANSTS
 70
     0
 40
1.0
 41
1.0
 50
0.0
 71
     0
 42
0.1
  3
romans.shx
  4

  0
STYLE
  5
EB92
330
3
100
AcDbSymbolTableRecord
100
AcDbTextStyleTableRecord
  2
ACANSGDT
 70
     0
 40
0.0
 41
1.0
 50
0.0
 71
     0
 42
0.1
  3
amgdt.shx
  4

  0
STYLE
  5
F2AE
330
3
100
AcDbSymbolTableRecord
100
AcDbTextStyleTableRecord
  2
ADESK1
 70
     0
 40
0.0
 41
1.0
 50
0.0
 71
     0
 42
0.12
  3
romans.shx
  4

  0
ENDTAB
  0
TABLE
  2
VIEW
  5
6
330
0
100
AcDbSymbolTable
 70
     0
  0
ENDTAB
  0
TABLE
  2
UCS
  5
7
330
0
100
AcDbSymbolTable
 70
     0
  0
ENDTAB
  0
TABLE
  2
APPID
  5
9
330
0
100
AcDbSymbolTable
 70
    23
  0
APPID
  5
11
330
9
100
AcDbSymbolTableRecord
100
AcDbRegAppTableRecord
  2
ACAD
 70
     0
  0
APPID
  5
61AC
330
9
100
AcDbSymbolTableRecord
100
AcDbRegAppTableRecord
  2
DCO15
 70
     0
  0
APPID
  5
62AD
330
9
100
AcDbSymbolTableRecord
100
AcDbRegAppTableRecord
  2
ACAD_PSEXT
 70
     0
  0
APPID
  5
6698
330
9
100
AcDbSymbolTableRecord
100
AcDbRegAppTableRecord
  2
ACAD_DSTYLE_DIMTEXT_FILL
 70
     0
  0
APPID
  5
EAA8
330
9
100
AcDbSymbolTableRecord
100
AcDbRegAppTableRecord
  2
GENIUS_GENDIM_13
 70
     0
  0
APPID
  5
EAA9
330
9
100
AcDbSymbolTableRecord
100
AcDbRegAppTableRecord
  2
GENIUS_GENDTOL_13
 70
     0
  0
APPID
  5
EAAA
330
9
100
AcDbSymbolTableRecord
100
AcDbRegAppTableRecord
  2
GENIUS_GE3DTOL_13
 70
     0
  0
APPID
  5
EAAD
330
9
100
AcDbSymbolTableRecord
100
AcDbRegAppTableRecord
  2
MCAD_NO_VIS
 70
     0
  0
APPID
  5
EAAE
330
9
100
AcDbSymbolTableRecord
100
AcDbRegAppTableRecord
  2
ACAD_TEMP_GRAPHIC
 70
     0
  0
APPID
  5
EAE0
330
9
100
AcDbSymbolTableRecord
100
AcDbRegAppTableRecord
  2
AD_DRAW
 70
     0
  0
APPID
  5
EAE3
330
9
100
AcDbSymbolTableRecord
100
AcDbRegAppTableRecord
  2
ACATTRIBSERVICES
 70
     0
  0
APPID
  5
EB2F
330
9
100
AcDbSymbolTableRecord
100
AcDbRegAppTableRecord
  2
ASURF_PCURVE_APPNAME
 70
     0
  0
APPID
  5
EB34
330
9
100
AcDbSymbolTableRecord
100
AcDbRegAppTableRecord
  2
AMG_3D2D_5.0
 70
     0
  0
APPID
  5
EB65
330
9
100
AcDbSymbolTableRecord
100
AcDbRegAppTableRecord
  2
DESIGNERASSEMBLIES
 70
     0
  0
APPID
  5
EB70
330
9
100
AcDbSymbolTableRecord
100
AcDbRegAppTableRecord
  2
ACADM_DIM_EDIT
 70
     0
  0
APPID
  5
EB71
330
9
100
AcDbSymbolTableRecord
100
AcDbRegAppTableRecord
  2
AMDT_DM_ADJ
 70
     0
  0
APPID
  5
EBAB
330
9
100
AcDbSymbolTableRecord
100
AcDbRegAppTableRecord
  2
GENIUS_GENSCREG_15
 70
     0
  0
APPID
  5
EBAC
330
9
100
AcDbSymbolTableRecord
100
AcDbRegAppTableRecord
  2
GENIUS_GENOBJ-N-SDF_13
 70
     0
  0
APPID
  5
EBAD
330
9
100
AcDbSymbolTableRecord
100
AcDbRegAppTableRecord
  2
GENIUS_GENODEF_13
 70
     0
  0
APPID
  5
EBB1
330
9
100
AcDbSymbolTableRecord
100
AcDbRegAppTableRecord
  2
AcAecLayerStandard
 70
     0
  0
APPID
  5
F07A
330
9
100
AcDbSymbolTableRecord
100
AcDbRegAppTableRecord
  2
ACAD_DSTYLE_DIMARC_LENGTH_SYMBOL
 70
     0
  0
APPID
  5
F2A2
330
9
100
AcDbSymbolTableRecord
100
AcDbRegAppTableRecord
  2
ACAD_EXEMPT_FROM_CAD_STANDARDS
 70
     0
  0
APPID
  5
F2B3
330
9
100
AcDbSymbolTableRecord
100
AcDbRegAppTableRecord
  2
ACAD_DSTYLE_DIMJOGGED_JOGANGLE_SYMBOL
 70
     0
  0
ENDTAB
  0
TABLE
  2
DIMSTYLE
  5
A
330
0
100
AcDbSymbolTable
 70
    14
100
AcDbDimStyleTable
 71
     2
340
2F93
340
D90A
  0
DIMSTYLE
105
2F93
330
A
100
AcDbSymbolTableRecord
100
AcDbDimStyleTableRecord
  2
SIMPLEX
 70
     0
 41
0.12
 42
0.05
 44
0.05
 78
     4
140
0.1
147
0.04
271
     3
272
     3
288
     1
340
25FA
  0
DIMSTYLE
105
6F8E
330
A
100
AcDbSymbolTableRecord
100
AcDbDimStyleTableRecord
  2
Standard
 70
     0
340
10
  0
DIMSTYLE
105
D90A
330
A
100
AcDbSymbolTableRecord
100
AcDbDimStyleTableRecord
  2
dual
 70
     0
  3
\X
 41
0.36
170
     1
171
     0
271
     2
272
     2
274
     0
340
10
  0
DIMSTYLE
105
EB9F
330
A
100
AcDbSymbolTableRecord
100
AcDbDimStyleTableRecord
  2
AM_ANSI
 70
     0
  4
mm
 41
0.1
 42
0.05
 43
0.5
 44
0.1
 47
0.1
 48
0.1
 78
     7
 79
     2
140
0.12
141
0.0
146
0.71
147
0.06
176
   256
177
   256
178
     2
274
     4
284
     7
340
10
371
    -1
372
    -1
1001
ACAD_DSTYLE_DIMARC_LENGTH_SYMBOL
1070
   379
1070
     1
  0
DIMSTYLE
105
EBA0
330
A
100
AcDbSymbolTableRecord
100
AcDbDimStyleTableRecord
  2
AM_ANSI$3
 70
     0
  4
mm
 41
0.1
 42
0.05
 43
0.5
 44
0.1
 47
0.1
 48
0.1
 78
     7
 79
     2
140
0.12
141
0.0
146
0.71
147
0.06
176
   256
177
   256
178
     2
274
     4
284
     7
288
     1
289
     0
340
10
371
    -1
372
    -1
1001
ACAD_DSTYLE_DIMARC_LENGTH_SYMBOL
1070
   379
1070
     1
  0
DIMSTYLE
105
EBA1
330
A
100
AcDbSymbolTableRecord
100
AcDbDimStyleTableRecord
  2
AM_ANSI$4
 70
     0
  4
mm
 41
0.1
 42
0.05
 43
0.5
 44
0.1
 47
0.1
 48
0.1
 78
     7
 79
     2
140
0.12
141
0.0
146
0.71
147
0.06
176
   256
177
   256
178
     2
274
     4
284
     7
288
     1
289
     0
340
10
371
    -1
372
    -1
1001
ACAD_DSTYLE_DIMARC_LENGTH_SYMBOL
1070
   379
1070
     1
  0
DIMSTYLE
105
EBA2
330
A
100
AcDbSymbolTableRecord
100
AcDbDimStyleTableRecord
  2
AM_ANSI$7
 70
     0
  4
mm
 41
0.1
 42
0.05
 43
0.5
 44
0.1
 47
0.1
 48
0.1
 78
     7
 79
     2
140
0.24
141
0.0
146
0.71
147
0.06
176
   256
177
   256
178
     2
274
     4
284
     7
340
10
371
    -1
372
    -1
1001
ACAD_DSTYLE_DIMARC_LENGTH_SYMBOL
1070
   379
1070
     1
  0
DIMSTYLE
105
EBA3
330
A
100
AcDbSymbolTableRecord
100
AcDbDimStyleTableRecord
  2
AM_ANSI$SF
 70
     0
  4
mm
 41
0.1
 42
0.05
 43
0.5
 44
0.1
 47
0.1
 48
0.1
 75
     1
 76
     1
 78
     7
 79
     2
140
0.12
141
0.0
146
0.71
147
0.06
176
   256
177
   256
178
     2
274
     4
284
     7
340
10
371
    -1
372
    -1
1001
ACAD_DSTYLE_DIMARC_LENGTH_SYMBOL
1070
   379
1070
     1
  0
DIMSTYLE
105
EBA8
330
A
100
AcDbSymbolTableRecord
100
AcDbDimStyleTableRecord
  2
AM_ANSI$SH
 70
     0
  4
mm
 41
0.1
 42
0.05
 43
0.5
 44
0.1
 47
0.1
 48
0.1
 75
     1
 76
     1
 78
     7
 79
     2
140
0.12
141
0.0
146
0.71
147
0.06
173
     1
176
   256
177
   256
178
     2
274
     4
284
     7
340
10
343
EBA4
371
    -1
372
    -1
1001
ACAD_DSTYLE_DIMARC_LENGTH_SYMBOL
1070
   379
1070
     1
  0
DIMSTYLE
105
F02D
330
A
100
AcDbSymbolTableRecord
100
AcDbDimStyleTableRecord
  2
1XSCALE
 70
     0
 41
0.15
 44
0.0625
 78
     4
170
     1
171
     0
271
     3
272
     3
274
     0
288
     1
340
25FA
  0
DIMSTYLE
105
F2AF
330
A
100
AcDbSymbolTableRecord
100
AcDbDimStyleTableRecord
  2
AM_BSI
 70
     0
  4
mm
 41
0.1574803149606299
 42
0.05
 43
0.5
 44
0.1
 47
0.1
 48
0.1
 73
     0
 74
     0
 77
     1
 78
     7
 79
     2
140
0.12
141
0.0
146
0.71
147
0.06
172
     1
176
   256
177
   256
178
     2
274
     4
283
     0
284
     7
340
10
371
    -1
372
    -1
  0
DIMSTYLE
105
F2B0
330
A
100
AcDbSymbolTableRecord
100
AcDbDimStyleTableRecord
  2
AM_DIN
 70
     0
  4
mm
 41
0.1
 42
0.05
 43
0.5
 44
0.1
 47
0.1
 48
0.1
 73
     0
 74
     0
 77
     1
 78
     7
 79
     2
140
0.12
141
0.0
146
0.71
147
0.06
172
     1
176
   256
177
   256
178
     2
274
     4
283
     0
284
     7
340
10
371
    -1
372
    -1
  0
DIMSTYLE
105
F2B1
330
A
100
AcDbSymbolTableRecord
100
AcDbDimStyleTableRecord
  2
AM_ISO
 70
     0
  4
mm
 41
0.1
 42
0.05
 43
0.5
 44
0.1
 47
0.1
 48
0.1
 73
     0
 74
     0
 77
     1
 78
     7
 79
     2
140
0.12
141
0.0
146
0.71
147
0.06
172
     1
176
   256
177
   256
178
     2
274
     4
283
     0
284
     7
340
10
371
    -1
372
    -1
  0
DIMSTYLE
105
F2B2
330
A
100
AcDbSymbolTableRecord
100
AcDbDimStyleTableRecord
  2
AM_JIS
 70
     0
  4
mm
 41
0.1
 42
0.05
 43
0.5
 44
0.1
 47
0.1
 48
0.1
 73
     0
 74
     0
 77
     3
 78
     7
 79
     2
140
0.12
141
0.0
146
0.71
147
0.06
172
     1
176
   256
177
   256
178
     2
274
     4
283
     0
284
     7
340
10
371
    -1
372
    -1
  0
ENDTAB
  0
TABLE
  2
BLOCK_RECORD
  5
1
330
0
100
AcDbSymbolTable
 70
     7
  0
BLOCK_RECORD
  5
1A
102
{ACAD_XDICTIONARY
360
70D3
102
}
330
1
100
AcDbSymbolTableRecord
100
AcDbBlockTableRecord
  2
*MODEL_SPACE
340
607A
  0
BLOCK_RECORD
  5
17
330
1
100
AcDbSymbolTableRecord
100
AcDbBlockTableRecord
  2
*PAPER_SPACE
340
607B
  0
BLOCK_RECORD
  5
166E
330
1
100
AcDbSymbolTableRecord
100
AcDbBlockTableRecord
  2
M_RES400_16400
340
0
102
{BLKREFS
331
1B8B
102
}
  0
BLOCK_RECORD
  5
9AE9
330
1
100
AcDbSymbolTableRecord
100
AcDbBlockTableRecord
  2
2 PanHdPhlpSide
340
0
102
{BLKREFS
331
D5D3
331
D609
331
E090
102
}
  0
BLOCK_RECORD
  5
B28D
330
1
100
AcDbSymbolTableRecord
100
AcDbBlockTableRecord
  2
2PanHdPhlpTop
340
0
102
{BLKREFS
331
B8E6
331
B8E7
102
}
  0
BLOCK_RECORD
  5
EBA4
330
1
100
AcDbSymbolTableRecord
100
AcDbBlockTableRecord
  2
GENAXEH
340
0
  0
BLOCK_RECORD
  5
F2B4
102
{ACAD_XDICTIONARY
360
F2B9
102
}
330
1
100
AcDbSymbolTableRecord
100
AcDbBlockTableRecord
  2
A$C01DF53DD
340
0
1001
ACAD
1000
DesignCenter Data
1002
{
1070
     1
1070
     1
1002
}
  0
BLOCK_RECORD
  5
F2C0
102
{ACAD_XDICTIONARY
360
F2C5
102
}
330
1
100
AcDbSymbolTableRecord
100
AcDbBlockTableRecord
  2
A$C6C6E4B8E
340
0
1001
ACAD
1000
DesignCenter Data
1002
{
1070
     1
1070
     1
1002
}
  0
ENDTAB
  0
ENDSEC
  0
SECTION
  2
BLOCKS
  0
BLOCK
  5
1B
330
1A
100
AcDbEntity
  8
0
100
AcDbBlockBegin
  2
*MODEL_SPACE
 70
     0
 10
0.0
 20
0.0
 30
0.0
  3
*MODEL_SPACE
  1

  0
ENDBLK
  5
1C
330
1A
100
AcDbEntity
  8
0
100
AcDbBlockEnd
  0
BLOCK
  5
18
330
17
100
AcDbEntity
 67
     1
  8
0
100
AcDbBlockBegin
  2
*PAPER_SPACE
 70
     0
 10
0.0
 20
0.0
 30
0.0
  3
*PAPER_SPACE
  1

  0
ENDBLK
  5
19
330
17
100
AcDbEntity
 67
     1
  8
0
100
AcDbBlockEnd
  0
BLOCK
  5
166F
330
166E
100
AcDbEntity
  8
0
100
AcDbBlockBegin
  2
M_RES400_16400
 70
     0
 10
0.0
 20
0.0
 30
0.0
  3
M_RES400_16400
  1

  0
ENDBLK
  5
1670
330
166E
100
AcDbEntity
  8
0
100
AcDbBlockEnd
  0
BLOCK
  5
9AF2
330
9AE9
100
AcDbEntity
  8
0
100
AcDbBlockBegin
  2
2 PanHdPhlpSide
 70
     0
 10
0.0
 20
0.0
 30
0.0
  3
2 PanHdPhlpSide
  1

  0
LINE
  5
9AEA
330
9AE9
100
AcDbEntity
  8
0
  6
Continuous
100
AcDbLine
 10
0.0833335
 20
0.0
 30
0.0
 11
-0.0833335
 21
0.0
 31
0.0
  0
ARC
  5
9AEB
330
9AE9
100
AcDbEntity
  8
0
  6
Continuous
100
AcDbCircle
 10
-0.0000004999999998
 20
-0.0694440000000001
 30
0.0
 40
0.125
100
AcDbArc
 50
96.37896023338171
 51
131.810364
  0
LINE
  5
9AEC
330
9AE9
100
AcDbEntity
  8
0
  6
Continuous
100
AcDbLine
 10
-0.0833335
 20
0.0
 30
0.0
 11
-0.0833335
 21
0.0237257972038147
 31
0.0
  0
ARC
  5
9AED
330
9AE9
100
AcDbEntity
  8
0
  6
Continuous
100
AcDbCircle
 10
-0.0000004999999998
 20
-0.0694440000000001
 30
0.0
 40
0.125
100
AcDbArc
 50
48.1892751276846
 51
83.62057854465147
  0
LINE
  5
9AEE
330
9AE9
100
AcDbEntity
  8
0
  6
Continuous
100
AcDbLine
 10
-0.0138884999999998
 20
0.0547820981275673
 30
0.0
 11
-0.0138885
 21
0.0416669999999999
 31
0.0
  0
LINE
  5
9AEF
330
9AE9
100
AcDbEntity
  8
0
  6
Continuous
100
AcDbLine
 10
-0.0138885
 20
0.0416669999999999
 30
0.0
 11
0.0138885000000002
 21
0.0416669999999999
 31
0.0
  0
LINE
  5
9AF0
330
9AE9
100
AcDbEntity
  8
0
  6
Continuous
100
AcDbLine
 10
0.0138885000000002
 20
0.0416669999999999
 30
0.0
 11
0.0138885000000002
 21
0.054781986327338
 31
0.0
  0
LINE
  5
9AF1
330
9AE9
100
AcDbEntity
  8
0
  6
Continuous
100
AcDbLine
 10
0.0833335
 20
0.0237249027734041
 30
0.0
 11
0.0833335
 21
0.0
 31
0.0
  0
ENDBLK
  5
9AF3
330
9AE9
100
AcDbEntity
  8
0
100
AcDbBlockEnd
  0
BLOCK
  5
B28E
330
B28D
100
AcDbEntity
  8
0
100
AcDbBlockBegin
  2
2PanHdPhlpTop
 70
     0
 10
0.0
 20
0.0
 30
0.0
  3
2PanHdPhlpTop
  1

  0
CIRCLE
  5
B28F
330
B28D
100
AcDbEntity
  8
0
  6
Continuous
100
AcDbCircle
 10
0.0
 20
0.0
 30
0.0
 40
0.090278
  0
LINE
  5
B290
330
B28D
100
AcDbEntity
  8
0
  6
Continuous
100
AcDbLine
 10
-0.048611
 20
0.006945
 30
0.0
 11
-0.006945
 21
0.006945
 31
0.0
  0
LINE
  5
B291
330
B28D
100
AcDbEntity
  8
0
  6
Continuous
100
AcDbLine
 10
-0.006945
 20
-0.0069440000000001
 30
0.0
 11
-0.048611
 21
-0.0069440000000001
 31
0.0
  0
LINE
  5
B292
330
B28D
100
AcDbEntity
  8
0
  6
Continuous
100
AcDbLine
 10
-0.048611
 20
-0.0069440000000001
 30
0.0
 11
-0.048611
 21
0.006945
 31
0.0
  0
LINE
  5
B293
330
B28D
100
AcDbEntity
  8
0
  6
Continuous
100
AcDbLine
 10
-0.006945
 20
0.006945
 30
0.0
 11
-0.006945
 21
0.048611
 31
0.0
  0
LINE
  5
B294
330
B28D
100
AcDbEntity
  8
0
  6
Continuous
100
AcDbLine
 10
-0.006945
 20
0.048611
 30
0.0
 11
0.0069440000000001
 21
0.048611
 31
0.0
  0
LINE
  5
B295
330
B28D
100
AcDbEntity
  8
0
  6
Continuous
100
AcDbLine
 10
0.0069440000000001
 20
0.048611
 30
0.0
 11
0.0069440000000001
 21
0.006945
 31
0.0
  0
LINE
  5
B296
330
B28D
100
AcDbEntity
  8
0
  6
Continuous
100
AcDbLine
 10
0.0069440000000001
 20
0.006945
 30
0.0
 11
0.048611
 21
0.006945
 31
0.0
  0
LINE
  5
B297
330
B28D
100
AcDbEntity
  8
0
  6
Continuous
100
AcDbLine
 10
0.048611
 20
0.006945
 30
0.0
 11
0.048611
 21
-0.0069440000000001
 31
0.0
  0
LINE
  5
B298
330
B28D
100
AcDbEntity
  8
0
  6
Continuous
100
AcDbLine
 10
0.048611
 20
-0.0069440000000001
 30
0.0
 11
0.0069440000000001
 21
-0.0069440000000001
 31
0.0
  0
LINE
  5
B299
330
B28D
100
AcDbEntity
  8
0
  6
Continuous
100
AcDbLine
 10
0.0069440000000001
 20
-0.0069440000000001
 30
0.0
 11
0.0069440000000001
 21
-0.0486110000000002
 31
0.0
  0
LINE
  5
B29A
330
B28D
100
AcDbEntity
  8
0
  6
Continuous
100
AcDbLine
 10
0.0069440000000001
 20
-0.0486110000000002
 30
0.0
 11
-0.006945
 21
-0.0486110000000002
 31
0.0
  0
LINE
  5
B29B
330
B28D
100
AcDbEntity
  8
0
  6
Continuous
100
AcDbLine
 10
-0.006945
 20
-0.0486110000000002
 30
0.0
 11
-0.006945
 21
-0.0069440000000001
 31
0.0
  0
ENDBLK
  5
B29C
330
B28D
100
AcDbEntity
  8
0
100
AcDbBlockEnd
  0
BLOCK
  5
EBA6
330
EBA4
100
AcDbEntity
  8
0
100
AcDbBlockBegin
  2
GENAXEH
 70
     0
 10
0.0
 20
0.0
 30
0.0
  3
GENAXEH
  1

  0
LINE
  5
EBA5
330
EBA4
100
AcDbEntity
  8
0
100
AcDbLine
 10
-1.0
 20
0.0
 30
0.0
 11
1.0
 21
0.0
 31
0.0
  0
ENDBLK
  5
EBA7
330
EBA4
100
AcDbEntity
  8
0
100
AcDbBlockEnd
  0
BLOCK
  5
F2BB
330
F2B4
100
AcDbEntity
  8
0
100
AcDbBlockBegin
  2
A$C01DF53DD
 70
     0
 10
0.0
 20
0.0
 30
0.0
  3
A$C01DF53DD
  1

  0
MTEXT
  5
F2B5
330
F2B4
100
AcDbEntity
  8
0
100
AcDbMText
 10
0.3171433408724322
 20
-0.4889514448316846
 30
0.0
 40
0.125
 41
0.6342866817448503
 71
     5
 72
     5
  1
2
 73
     1
 44
1.0
1001
ACAD
1000
MTEXTBEGIN
1070
    73
1070
     1
1070
    44
1040
1.0
1070
    74
1070
     0
1000
MTEXTEND
1000
ACAD_MTEXT_DEFINED_HEIGHT_BEGIN
1070
    46
1040
0.2499999999999993
1000
ACAD_MTEXT_DEFINED_HEIGHT_END
  0
MTEXT
  5
F2B6
330
F2B4
100
AcDbEntity
  8
0
100
AcDbMText
 10
2.813794365020966
 20
-0.4860126418230735
 30
0.0
 40
0.125
 41
4.359015366552219
 71
     5
 72
     5
  1
DIMENSIONS REMOVED, TERMINAL \PDESIGNATION CORRECTED
 73
     1
 44
1.0
1001
ACAD
1000
MTEXTBEGIN
1070
    73
1070
     1
1070
    44
1040
1.0
1070
    74
1070
     0
1000
MTEXTEND
1000
ACAD_MTEXT_DEFINED_HEIGHT_BEGIN
1070
    46
1040
0.1292633015006892
1000
ACAD_MTEXT_DEFINED_HEIGHT_END
  0
MTEXT
  5
F2B7
330
F2B4
100
AcDbEntity
  8
0
100
AcDbMText
 10
5.371651024148539
 20
-0.4889514448316846
 30
0.0
 40
0.125
 41
0.7566979517029218
 71
     5
 72
     5
  1
11/08
 73
     1
 44
1.0
1001
ACAD
1000
MTEXTBEGIN
1070
    73
1070
     1
1070
    44
1040
1.0
1070
    74
1070
     0
1000
MTEXTEND
1000
ACAD_MTEXT_DEFINED_HEIGHT_BEGIN
1070
    46
1040
0.25
1000
ACAD_MTEXT_DEFINED_HEIGHT_END
  0
LINE
  5
F2B8
330
F2B4
100
AcDbEntity
  8
0
100
AcDbLine
 10
0.0000000000000089
 20
-0.75
 30
0.0
 11
5.750000000000005
 21
-0.75
 31
0.0
  0
ENDBLK
  5
F2BC
330
F2B4
100
AcDbEntity
  8
0
100
AcDbBlockEnd
  0
BLOCK
  5
F2C7
330
F2C0
100
AcDbEntity
  8
0
100
AcDbBlockBegin
  2
A$C6C6E4B8E
 70
     0
 10
0.0
 20
0.0
 30
0.0
  3
A$C6C6E4B8E
  1

  0
MTEXT
  5
F2C1
330
F2C0
100
AcDbEntity
  8
0
100
AcDbMText
 10
0.3171433408724322
 20
-0.4889514448316846
 30
0.0
 40
0.125
 41
0.6342866817448503
 71
     5
 72
     5
  1
2
 73
     1
 44
1.0
1001
ACAD
1000
MTEXTBEGIN
1070
    73
1070
     1
1070
    44
1040
1.0
1070
    74
1070
     0
1000
MTEXTEND
1000
ACAD_MTEXT_DEFINED_HEIGHT_BEGIN
1070
    46
1040
0.2499999999999993
1000
ACAD_MTEXT_DEFINED_HEIGHT_END
  0
MTEXT
  5
F2C2
330
F2C0
100
AcDbEntity
  8
0
100
AcDbMText
 10
2.813794365020966
 20
-0.4860126418230735
 30
0.0
 40
0.125
 41
4.359015366552219
 71
     5
 72
     5
  1
DIMENSIONS REMOVED, TERMINAL \PDESIGNATION CORRECTED
 73
     1
 44
1.0
1001
ACAD
1000
MTEXTBEGIN
1070
    73
1070
     1
1070
    44
1040
1.0
1070
    74
1070
     0
1000
MTEXTEND
1000
ACAD_MTEXT_DEFINED_HEIGHT_BEGIN
1070
    46
1040
0.1292633015006892
1000
ACAD_MTEXT_DEFINED_HEIGHT_END
  0
MTEXT
  5
F2C3
330
F2C0
100
AcDbEntity
  8
0
100
AcDbMText
 10
5.371651024148539
 20
-0.4889514448316846
 30
0.0
 40
0.125
 41
0.7566979517029218
 71
     5
 72
     5
  1
11/08
 73
     1
 44
1.0
1001
ACAD
1000
MTEXTBEGIN
1070
    73
1070
     1
1070
    44
1040
1.0
1070
    74
1070
     0
1000
MTEXTEND
1000
ACAD_MTEXT_DEFINED_HEIGHT_BEGIN
1070
    46
1040
0.25
1000
ACAD_MTEXT_DEFINED_HEIGHT_END
  0
LINE
  5
F2C4
330
F2C0
100
AcDbEntity
  8
0
100
AcDbLine
 10
0.0000000000000089
 20
-0.75
 30
0.0
 11
5.750000000000005
 21
-0.75
 31
0.0
  0
ENDBLK
  5
F2C8
330
F2C0
100
AcDbEntity
  8
0
100
AcDbBlockEnd
  0
ENDSEC
  0
SECTION
  2
ENTITIES
  0
INSERT
  5
1B8B
330
1A
100
AcDbEntity
  8
0
100
AcDbBlockReference
  2
M_RES400_16400
 10
2.683040594531384
 20
0.7261691572136342
 30
0.0
 41
2.0
 42
2.0
 43
2.0
  0
MTEXT
  5
649A
330
1A
100
AcDbEntity
  8
DIMENSIONS
100
AcDbMText
 10
11.575
 20
3.919999999999998
 30
0.0
 40
0.1
 41
0.0
 71
     4
 72
     1
  1
\A1;
  7
SIMPLEX
 73
     1
 44
1.0
1001
ACAD
1000
MTEXTBEGIN
1070
    73
1070
     1
1070
    44
1040
1.0
1070
    74
1070
     0
1000
MTEXTEND
  0
LINE
  5
B681
330
1A
100
AcDbEntity
  8
PART
100
AcDbLine
 10
11.04333706355613
 20
5.407782235875012
 30
0.0
 11
7.468527705132011
 21
5.40778223587499
 31
0.0
  0
LINE
  5
B686
330
1A
100
AcDbEntity
  8
PART
100
AcDbLine
 10
11.04333706355614
 20
5.392032252501528
 30
0.0
 11
7.468527705132012
 21
5.392032252501528
 31
0.0
  0
LINE
  5
B687
330
1A
100
AcDbEntity
  8
PART
100
AcDbLine
 10
11.04333706355613
 20
8.092817789128067
 30
0.0
 11
7.468527705132011
 21
8.092817789128067
 31
0.0
  0
LINE
  5
B688
330
1A
100
AcDbEntity
  8
PART
100
AcDbLine
 10
11.04333706355613
 20
8.108567772501537
 30
0.0
 11
7.468527705132011
 21
8.108567772501537
 31
0.0
  0
LINE
  5
B689
330
1A
100
AcDbEntity
  8
PART
100
AcDbLine
 10
11.04333706355613
 20
8.458961484501521
 30
0.0
 11
7.468527705132011
 21
8.458961484501521
 31
0.0
  0
LINE
  5
B68A
330
1A
100
AcDbEntity
  8
PART
100
AcDbLine
 10
11.04333706355613
 20
8.281466922402946
 30
0.0
 11
7.468527705132011
 21
8.281466922402946
 31
0.0
  0
LINE
  5
B68B
330
1A
100
AcDbEntity
  8
PART
100
AcDbLine
 10
11.04333706355613
 20
8.342809166797755
 30
0.0
 11
7.468527705132011
 21
8.342809166797755
 31
0.0
  0
LINE
  5
B691
330
1A
100
AcDbEntity
  8
PART
100
AcDbLine
 10
11.04333706355613
 20
5.157790858205281
 30
0.0
 11
7.468527705132011
 21
5.157790858205281
 31
0.0
  0
LINE
  5
B697
330
1A
100
AcDbEntity
  8
PART
100
AcDbLine
 10
11.04333706355614
 20
5.219133102600103
 30
0.0
 11
7.468527705132011
 21
5.219133102600103
 31
0.0
  0
LINE
  5
B69D
330
1A
100
AcDbEntity
  8
PART
100
AcDbLine
 10
11.04333706355614
 20
5.041638540501543
 30
0.0
 11
7.468527705132011
 21
5.041638540501543
 31
0.0
  0
LINE
  5
B69E
330
1A
100
AcDbEntity
  8
PART
100
AcDbLine
 10
15.19967544097974
 20
7.439276412501532
 30
0.0
 11
15.19967544097974
 21
7.537701612501542
 31
0.0
  0
LINE
  5
B69F
330
1A
100
AcDbEntity
  8
PART
100
AcDbLine
 10
15.14455732897974
 20
7.557386652501525
 30
0.0
 11
15.14455732897974
 21
7.500300036501534
 31
0.0
  0
LINE
  5
B6A0
330
1A
100
AcDbEntity
  8
PART
100
AcDbLine
 10
15.17999040097974
 20
7.557386652501525
 30
0.0
 11
15.14455732897974
 21
7.557386652501525
 31
0.0
  0
LINE
  5
B6A1
330
1A
100
AcDbEntity
  8
PART
100
AcDbLine
 10
15.06150742212619
 20
5.910016787755018
 30
0.0
 11
14.63260218074727
 21
5.167131118054136
 31
0.0
  0
LINE
  5
B6A2
330
1A
100
AcDbEntity
  8
PART
100
AcDbLine
 10
15.06188016097974
 20
5.919392800588162
 30
0.0
 11
15.06188016097974
 21
6.043607076501537
 31
0.0
  0
LINE
  5
B6A3
330
1A
100
AcDbEntity
  8
PART
100
AcDbLine
 10
14.94770692897974
 20
6.061323612501531
 30
0.0
 11
14.94770692897974
 21
6.220772436501539
 31
0.0
  0
LINE
  5
B6A4
330
1A
100
AcDbEntity
  8
PART
100
AcDbLine
 10
15.19967544097974
 20
6.279827556501522
 30
0.0
 11
15.19967544097974
 21
6.355315297707512
 31
0.0
  0
LINE
  5
B6A5
330
1A
100
AcDbEntity
  8
PART
100
AcDbLine
 10
15.12880929697975
 20
6.394685377707509
 30
0.0
 11
15.12880929697975
 21
6.437307876501543
 31
0.0
  0
LINE
  5
B6A6
330
1A
100
AcDbEntity
  8
PART
100
AcDbLine
 10
14.84928172897974
 20
6.476677956501538
 30
0.0
 11
14.84928172897974
 21
6.850693716501531
 31
0.0
  0
LINE
  5
B6A7
330
1A
100
AcDbEntity
  8
PART
100
AcDbLine
 10
14.84928172897974
 20
6.850693716501531
 30
0.0
 11
14.90833684897974
 21
6.850693716501531
 31
0.0
  0
LINE
  5
B6A8
330
1A
100
AcDbEntity
  8
PART
100
AcDbLine
 10
14.84928172897974
 20
6.968803956501521
 30
0.0
 11
14.84928172897974
 21
7.360536252501536
 31
0.0
  0
LINE
  5
B6A9
330
1A
100
AcDbEntity
  8
PART
100
AcDbLine
 10
14.88865180897974
 20
7.399906332501536
 30
0.0
 11
14.94770692897974
 21
7.399906332501536
 31
0.0
  0
LINE
  5
B6AA
330
1A
100
AcDbEntity
  8
PART
100
AcDbLine
 10
14.94770692897974
 20
7.439276412501532
 30
0.0
 11
14.98707700897974
 21
7.439276412501532
 31
0.0
  0
LINE
  5
B6AB
330
1A
100
AcDbEntity
  8
PART
100
AcDbLine
 10
14.98707700897974
 20
7.410673408139195
 30
0.0
 11
14.9897521741217
 21
7.399906332501536
 31
0.0
  0
LINE
  5
B6AC
330
1A
100
AcDbEntity
  8
PART
100
AcDbLine
 10
14.9897521741217
 20
7.399906332501536
 30
0.0
 11
15.16030536097974
 21
7.399906332501536
 31
0.0
  0
LINE
  5
B6AD
330
1A
100
AcDbEntity
  8
PART
100
AcDbLine
 10
14.98707700897974
 20
7.439276412501532
 30
0.0
 11
14.98707700897974
 21
7.410673408139195
 31
0.0
  0
LINE
  5
B6AE
330
1A
100
AcDbEntity
  8
PART
100
AcDbLine
 10
14.94770692897974
 20
7.399906332501536
 30
0.0
 11
14.94770692897974
 21
7.439276412501532
 31
0.0
  0
LINE
  5
B6AF
330
1A
100
AcDbEntity
  8
PART
100
AcDbLine
 10
14.90833684897974
 20
6.968803956501521
 30
0.0
 11
14.84928172897974
 21
6.968803956501521
 31
0.0
  0
LINE
  5
B6B0
330
1A
100
AcDbEntity
  8
PART
100
AcDbLine
 10
14.90833684897974
 20
7.010501699370826
 30
0.0
 11
14.90833684897974
 21
6.968803956501521
 31
0.0
  0
LINE
  5
B6B1
330
1A
100
AcDbEntity
  8
PART
100
AcDbLine
 10
15.02805643411044
 20
7.010501699370826
 30
0.0
 11
14.90833684897974
 21
7.010501699370826
 31
0.0
  0
LINE
  5
B6B2
330
1A
100
AcDbEntity
  8
PART
100
AcDbLine
 10
14.90833684897974
 20
6.808995973632226
 30
0.0
 11
15.02805643411044
 21
6.808995973632226
 31
0.0
  0
LINE
  5
B6B3
330
1A
100
AcDbEntity
  8
PART
100
AcDbLine
 10
14.90833684897974
 20
6.850693716501531
 30
0.0
 11
14.90833684897974
 21
6.808995973632226
 31
0.0
  0
LINE
  5
B6B4
330
1A
100
AcDbEntity
  8
PART
100
AcDbLine
 10
15.12880929697975
 20
6.437307876501543
 30
0.0
 11
14.88865180897974
 21
6.437307876501543
 31
0.0
  0
LINE
  5
B6B5
330
1A
100
AcDbEntity
  8
PART
100
AcDbLine
 10
15.17999040097974
 20
6.375000337707496
 30
0.0
 11
15.14849433697975
 21
6.375000337707496
 31
0.0
  0
LINE
  5
B6B6
330
1A
100
AcDbEntity
  8
PART
100
AcDbLine
 10
15.08550220897974
 20
6.319197636501519
 30
0.0
 11
15.14455732897974
 21
6.319197636501519
 31
0.0
  0
LINE
  5
B6B7
330
1A
100
AcDbEntity
  8
PART
100
AcDbLine
 10
15.14455732897974
 20
6.260142516501537
 30
0.0
 11
15.17999040097974
 21
6.260142516501537
 31
0.0
  0
LINE
  5
B6B8
330
1A
100
AcDbEntity
  8
PART
100
AcDbLine
 10
15.14455732897974
 20
6.319197636501519
 30
0.0
 11
15.14455732897974
 21
6.260142516501537
 31
0.0
  0
LINE
  5
B6B9
330
1A
100
AcDbEntity
  8
PART
100
AcDbLine
 10
15.08550220897974
 20
6.260142516501537
 30
0.0
 11
15.08550220897974
 21
6.319197636501519
 31
0.0
  0
LINE
  5
B6BA
330
1A
100
AcDbEntity
  8
PART
100
AcDbLine
 10
14.98707700897974
 20
6.260142516501537
 30
0.0
 11
15.08550220897974
 21
6.260142516501537
 31
0.0
  0
LINE
  5
B6BB
330
1A
100
AcDbEntity
  8
PART
100
AcDbLine
 10
14.94770692897974
 20
6.061323612501531
 30
0.0
 11
14.98707700897974
 21
6.061323612501531
 31
0.0
  0
LINE
  5
B6BC
330
1A
100
AcDbEntity
  8
PART
100
AcDbLine
 10
14.98707700897974
 20
6.082977156501534
 30
0.0
 11
14.98707700897974
 21
6.061323612501531
 31
0.0
  0
LINE
  5
B6BD
330
1A
100
AcDbEntity
  8
PART
100
AcDbLine
 10
15.02251008097974
 20
6.082977156501534
 30
0.0
 11
14.98707700897974
 21
6.082977156501534
 31
0.0
  0
LINE
  5
B6BE
330
1A
100
AcDbEntity
  8
PART
100
AcDbLine
 10
14.98314000097974
 20
8.458961484501521
 30
0.0
 11
14.90046283297975
 21
8.458961484501521
 31
0.0
  0
LINE
  5
B6BF
330
1A
100
AcDbEntity
  8
PART
100
AcDbLine
 10
14.63668329697974
 20
7.769985084501517
 30
0.0
 11
14.95558094497975
 21
7.769985084501517
 31
0.0
  0
LINE
  5
B6C0
330
1A
100
AcDbEntity
  8
PART
100
AcDbLine
 10
14.97526598497975
 20
7.78967012450153
 30
0.0
 11
14.97526598497975
 21
8.281796124501545
 31
0.0
  0
LINE
  5
B6C1
330
1A
100
AcDbEntity
  8
PART
100
AcDbLine
 10
14.97526598497975
 20
7.565260668501514
 30
0.0
 11
14.97526598497975
 21
7.710929964501537
 31
0.0
  0
LINE
  5
B6C2
330
1A
100
AcDbEntity
  8
PART
100
AcDbLine
 10
14.95558094497975
 20
7.730615004501521
 30
0.0
 11
14.63668329697974
 21
7.730615004501521
 31
0.0
  0
LINE
  5
B6C3
330
1A
100
AcDbEntity
  8
PART
100
AcDbLine
 10
14.86977689249362
 20
8.441244948501527
 30
0.0
 11
14.81863365835008
 21
8.352662268501525
 31
0.0
  0
LINE
  5
B6C4
330
1A
100
AcDbEntity
  8
PART
100
AcDbLine
 10
14.61029946338361
 20
8.332977228501512
 30
0.0
 11
14.78453816892105
 21
8.332977228501512
 31
0.0
  0
LINE
  5
B6C5
330
1A
100
AcDbEntity
  8
PART
100
AcDbLine
 10
13.83787134087132
 20
8.340843634103414
 30
0.0
 11
13.83435259833416
 21
8.33881208715244
 31
0.0
  0
LINE
  5
B6C6
330
1A
100
AcDbEntity
  8
PART
100
AcDbLine
 10
13.83435259833416
 20
8.33881208715244
 30
0.0
 11
13.74169666980984
 21
8.256013436508771
 31
0.0
  0
LINE
  5
B6C7
330
1A
100
AcDbEntity
  8
PART
100
AcDbLine
 10
13.71542342497974
 20
8.197300272657891
 30
0.0
 11
13.71542342497974
 21
8.128252812501507
 31
0.0
  0
LINE
  5
B6C8
330
1A
100
AcDbEntity
  8
PART
100
AcDbLine
 10
13.81384862497974
 20
8.128252812501507
 30
0.0
 11
13.84928169697974
 21
8.128252812501536
 31
0.0
  0
LINE
  5
B6C9
330
1A
100
AcDbEntity
  8
PART
100
AcDbLine
 10
13.84928169697974
 20
8.128252812501536
 30
0.0
 11
13.84928169697974
 21
8.115620467991718
 31
0.0
  0
LINE
  5
B6CA
330
1A
100
AcDbEntity
  8
PART
100
AcDbLine
 10
13.76663042355496
 20
6.927465372501536
 30
0.0
 11
13.76663042355496
 21
6.573134652501527
 31
0.0
  0
LINE
  5
B6CB
330
1A
100
AcDbEntity
  8
PART
100
AcDbLine
 10
13.84928169697974
 20
6.553449612501516
 30
0.0
 11
13.84928169697974
 21
5.479096530389077
 31
0.0
  0
LINE
  5
B6CC
330
1A
100
AcDbEntity
  8
PART
100
AcDbLine
 10
13.71542342497974
 20
5.37234721250153
 30
0.0
 11
13.71542342497974
 21
5.303299752345174
 31
0.0
  0
LINE
  5
B6CD
330
1A
100
AcDbEntity
  8
PART
100
AcDbLine
 10
13.74169666980984
 20
5.244586588494293
 30
0.0
 11
13.83132292328634
 21
5.164495298403188
 31
0.0
  0
LINE
  5
B6CE
330
1A
100
AcDbEntity
  8
PART
100
AcDbLine
 10
13.83787134087129
 20
5.159756390899595
 30
0.0
 11
14.12424828714217
 21
4.994416583880457
 31
0.0
  0
LINE
  5
B6CF
330
1A
100
AcDbEntity
  8
PART
100
AcDbLine
 10
14.12424828714217
 20
4.994416583880457
 30
0.0
 11
14.12427345207514
 21
4.994402054899643
 31
0.0
  0
LINE
  5
B6D0
330
1A
100
AcDbEntity
  8
PART
100
AcDbLine
 10
14.12427345207514
 20
4.994402054899643
 30
0.0
 11
14.12878897058484
 21
4.991795019072504
 31
0.0
  0
LINE
  5
B6D1
330
1A
100
AcDbEntity
  8
PART
100
AcDbLine
 10
14.14847401058485
 20
4.986520428501542
 30
0.0
 11
14.25672932459058
 21
4.986520428501542
 31
0.0
  0
LINE
  5
B6D2
330
1A
100
AcDbEntity
  8
PART
100
AcDbLine
 10
14.31059076620796
 20
4.996017653878516
 30
0.0
 11
14.51913647111152
 21
5.071922082947486
 31
0.0
  0
LINE
  5
B6D3
330
1A
100
AcDbEntity
  8
PART
100
AcDbLine
 10
13.76069901697974
 20
5.37234721250153
 30
0.0
 11
13.71542342497974
 21
5.37234721250153
 31
0.0
  0
LINE
  5
B6D4
330
1A
100
AcDbEntity
  8
PART
100
AcDbLine
 10
13.84928169697974
 20
5.37234721250153
 30
0.0
 11
13.81384862497974
 21
5.37234721250153
 31
0.0
  0
LINE
  5
B6D5
330
1A
100
AcDbEntity
  8
PART
100
AcDbLine
 10
13.81384862497974
 20
5.37234721250153
 30
0.0
 11
13.76069901697974
 21
5.37234721250153
 31
0.0
  0
LINE
  5
B6D6
330
1A
100
AcDbEntity
  8
PART
100
AcDbLine
 10
13.83353366497974
 20
6.553449612501516
 30
0.0
 11
13.84928169697974
 21
6.553449612501516
 31
0.0
  0
LINE
  5
B6D7
330
1A
100
AcDbEntity
  8
PART
100
AcDbLine
 10
13.78631546355496
 20
6.553449612501516
 30
0.0
 11
13.82172264097974
 21
6.553449612501516
 31
0.0
  0
LINE
  5
B6D8
330
1A
100
AcDbEntity
  8
PART
100
AcDbLine
 10
13.82172264097974
 20
6.553449612501516
 30
0.0
 11
13.83353366497974
 21
6.553449612501516
 31
0.0
  0
LINE
  5
B6D9
330
1A
100
AcDbEntity
  8
PART
100
AcDbLine
 10
13.83353366497974
 20
6.947150412501519
 30
0.0
 11
13.84928169697974
 21
6.947150412501519
 31
0.0
  0
LINE
  5
B6DA
330
1A
100
AcDbEntity
  8
PART
100
AcDbLine
 10
13.78631546355496
 20
6.947150412501519
 30
0.0
 11
13.82172264097974
 21
6.947150412501519
 31
0.0
  0
LINE
  5
B6DB
330
1A
100
AcDbEntity
  8
PART
100
AcDbLine
 10
13.82172264097974
 20
6.947150412501519
 30
0.0
 11
13.83353366497974
 21
6.947150412501519
 31
0.0
  0
LINE
  5
B6DC
330
1A
100
AcDbEntity
  8
PART
100
AcDbLine
 10
13.76069901697974
 20
8.128252812501507
 30
0.0
 11
13.81384862497974
 21
8.128252812501507
 31
0.0
  0
LINE
  5
B6DD
330
1A
100
AcDbEntity
  8
PART
100
AcDbLine
 10
13.71542342497974
 20
8.128252812501507
 30
0.0
 11
13.76069901697974
 21
8.128252812501507
 31
0.0
  0
LINE
  5
B6DE
330
1A
100
AcDbEntity
  8
PART
100
AcDbLine
 10
14.48353765100146
 20
8.44163485295062
 30
0.0
 11
14.31059076620796
 21
8.504582371124518
 31
0.0
  0
LINE
  5
B6DF
330
1A
100
AcDbEntity
  8
PART
100
AcDbLine
 10
14.1242482871424
 20
8.50618344112275
 30
0.0
 11
13.83787134087132
 21
8.340843634103414
 31
0.0
  0
LINE
  5
B6E0
330
1A
100
AcDbEntity
  8
PART
100
AcDbLine
 10
14.12878897058486
 20
8.508805005930502
 30
0.0
 11
14.1242482871424
 21
8.50618344112275
 31
0.0
  0
LINE
  5
B6E1
330
1A
100
AcDbEntity
  8
PART
100
AcDbLine
 10
14.61699825697974
 20
7.710929964501537
 30
0.0
 11
14.61699825697974
 21
7.565260668501514
 31
0.0
  0
LINE
  5
B6E2
330
1A
100
AcDbEntity
  8
PART
100
AcDbLine
 10
14.61699825697974
 20
7.895969340501527
 30
0.0
 11
14.61699825697974
 21
7.78967012450153
 31
0.0
  0
LINE
  5
B6E3
330
1A
100
AcDbEntity
  8
PART
100
AcDbLine
 10
14.61699825697974
 20
8.281796124501545
 30
0.0
 11
14.61699825697974
 21
7.895969340501527
 31
0.0
  0
LINE
  5
B6E4
330
1A
100
AcDbEntity
  8
PART
100
AcDbLine
 10
14.95558094497975
 20
8.301481164501531
 30
0.0
 11
14.63668329697974
 21
8.301481164501531
 31
0.0
  0
LINE
  5
B6E5
330
1A
100
AcDbEntity
  8
PART
100
AcDbLine
 10
14.63668329697974
 20
7.545575628501529
 30
0.0
 11
14.95558094497975
 21
7.545575628501529
 31
0.0
  0
LINE
  5
B6E6
330
1A
100
AcDbEntity
  8
PART
100
AcDbLine
 10
15.04613212897974
 20
7.586914212501517
 30
0.0
 11
15.02341678964228
 21
7.586914212501517
 31
0.0
  0
LINE
  5
B6E7
330
1A
100
AcDbEntity
  8
PART
100
AcDbLine
 10
15.08550220897974
 20
7.500300036501534
 30
0.0
 11
15.08550220897974
 21
7.54754413250152
 31
0.0
  0
LINE
  5
B6E8
330
1A
100
AcDbEntity
  8
PART
100
AcDbLine
 10
15.14455732897974
 20
7.500300036501534
 30
0.0
 11
15.08550220897974
 21
7.500300036501534
 31
0.0
  0
LINE
  5
B6E9
330
1A
100
AcDbEntity
  8
PART
100
AcDbLine
 10
14.25672932459058
 20
8.514079596501522
 30
0.0
 11
14.14847401058485
 21
8.514079596501522
 31
0.0
  0
LINE
  5
B6EA
330
1A
100
AcDbEntity
  8
PART
100
AcDbLine
 10
15.02251008097975
 20
7.592819724501516
 30
0.0
 11
15.02251008097975
 21
8.419591404501524
 31
0.0
  0
ARC
  5
B6EB
330
1A
100
AcDbEntity
  8
PART
100
AcDbCircle
 10
15.17999040097974
 20
7.537701612501542
 30
0.0
 40
0.01968504
100
AcDbArc
 50
0.0
 51
90.0
  0
ARC
  5
B6EC
330
1A
100
AcDbEntity
  8
PART
100
AcDbCircle
 10
14.44507698888762
 20
5.275398838054123
 30
0.0
 40
0.2165354399999989
100
AcDbArc
 50
290.0000000000016
 51
330.0000000000017
  0
ARC
  5
B6ED
330
1A
100
AcDbEntity
  8
PART
100
AcDbCircle
 10
14.94376992097974
 20
5.919392800588162
 30
0.0
 40
0.1181102399999988
100
AcDbArc
 50
355.4468656304677
 51
0.0
  0
ARC
  5
B6EE
330
1A
100
AcDbEntity
  8
PART
100
AcDbCircle
 10
15.02251008097974
 20
6.043607076501537
 30
0.0
 40
0.03937008
100
AcDbArc
 50
0.0
 51
90.0
  0
ARC
  5
B6EF
330
1A
100
AcDbEntity
  8
PART
100
AcDbCircle
 10
14.98707700897974
 20
6.220772436501539
 30
0.0
 40
0.03937008
100
AcDbArc
 50
90.0
 51
180.0
  0
ARC
  5
B6F0
330
1A
100
AcDbEntity
  8
PART
100
AcDbCircle
 10
15.17999040097974
 20
6.279827556501522
 30
0.0
 40
0.01968504
100
AcDbArc
 50
270.0
 51
0.0
  0
ARC
  5
B6F1
330
1A
100
AcDbEntity
  8
PART
100
AcDbCircle
 10
15.17999040097974
 20
6.355315297707512
 30
0.0
 40
0.01968504
100
AcDbArc
 50
0.0
 51
90.0
  0
ARC
  5
B6F2
330
1A
100
AcDbEntity
  8
PART
100
AcDbCircle
 10
15.14849433697975
 20
6.394685377707509
 30
0.0
 40
0.01968504
100
AcDbArc
 50
180.0
 51
270.0
  0
ARC
  5
B6F3
330
1A
100
AcDbEntity
  8
PART
100
AcDbCircle
 10
14.88865180897974
 20
6.476677956501538
 30
0.0
 40
0.03937008
100
AcDbArc
 50
180.0
 51
270.0
  0
ARC
  5
B6F4
330
1A
100
AcDbEntity
  8
PART
100
AcDbCircle
 10
15.02805643411044
 20
6.909748836501541
 30
0.0
 40
0.100752862869304
100
AcDbArc
 50
270.0
 51
90.0
  0
ARC
  5
B6F5
330
1A
100
AcDbEntity
  8
PART
100
AcDbCircle
 10
14.88865180897974
 20
7.360536252501536
 30
0.0
 40
0.0393700800000002
100
AcDbArc
 50
90.0
 51
180.0
  0
ARC
  5
B6F6
330
1A
100
AcDbEntity
  8
PART
100
AcDbCircle
 10
15.16030536097974
 20
7.439276412501532
 30
0.0
 40
0.03937008
100
AcDbArc
 50
270.0
 51
0.0
  0
ARC
  5
B6F7
330
1A
100
AcDbEntity
  8
PART
100
AcDbCircle
 10
14.95558094497975
 20
7.78967012450153
 30
0.0
 40
0.01968504
100
AcDbArc
 50
270.0
 51
0.0
  0
ARC
  5
B6F8
330
1A
100
AcDbEntity
  8
PART
100
AcDbCircle
 10
14.95558094497975
 20
8.281796124501545
 30
0.0
 40
0.01968504
100
AcDbArc
 50
0.0
 51
90.0
  0
ARC
  5
B6F9
330
1A
100
AcDbEntity
  8
PART
100
AcDbCircle
 10
14.95558094497975
 20
7.565260668501514
 30
0.0
 40
0.01968504
100
AcDbArc
 50
270.0
 51
0.0
  0
ARC
  5
B6FA
330
1A
100
AcDbEntity
  8
PART
100
AcDbCircle
 10
14.95558094497975
 20
7.710929964501537
 30
0.0
 40
0.01968504
100
AcDbArc
 50
0.0
 51
90.0
  0
ARC
  5
B6FB
330
1A
100
AcDbEntity
  8
PART
100
AcDbCircle
 10
14.90046283297975
 20
8.423528412501532
 30
0.0
 40
0.0354330719999993
100
AcDbArc
 50
89.99999999999491
 51
150.0
  0
ARC
  5
B6FC
330
1A
100
AcDbEntity
  8
PART
100
AcDbCircle
 10
14.78453816892105
 20
8.372347308501536
 30
0.0
 40
0.0393700800000069
100
AcDbArc
 50
270.0
 51
329.9999999999981
  0
ARC
  5
B6FD
330
1A
100
AcDbEntity
  8
PART
100
AcDbCircle
 10
14.61029946338361
 20
8.352662268501525
 30
0.0
 40
0.01968504
100
AcDbArc
 50
206.3193840188736
 51
270.0
  0
ARC
  5
B6FE
330
1A
100
AcDbEntity
  8
PART
100
AcDbCircle
 10
14.41621084897974
 20
8.256655984671859
 30
0.0
 40
0.1968503999999986
100
AcDbArc
 50
26.3193840188684
 51
69.99999999999971
  0
ARC
  5
B6FF
330
1A
100
AcDbEntity
  8
PART
100
AcDbCircle
 10
13.79416358497974
 20
8.197300272657891
 30
0.0
 40
0.07874016
100
AcDbArc
 50
131.7844251691364
 51
180.0
  0
ARC
  5
B700
330
1A
100
AcDbEntity
  8
PART
100
AcDbCircle
 10
13.78631546355496
 20
6.927465372501536
 30
0.0
 40
0.01968504
100
AcDbArc
 50
90.0
 51
180.0
  0
ARC
  5
B701
330
1A
100
AcDbEntity
  8
PART
100
AcDbCircle
 10
13.78631546355496
 20
6.573134652501527
 30
0.0
 40
0.01968504
100
AcDbArc
 50
180.0
 51
270.0
  0
ARC
  5
B702
330
1A
100
AcDbEntity
  8
PART
100
AcDbCircle
 10
13.79416358497974
 20
5.303299752345174
 30
0.0
 40
0.0787401600000019
100
AcDbArc
 50
180.0
 51
228.2155748308623
  0
ARC
  5
B703
330
1A
100
AcDbEntity
  8
PART
100
AcDbCircle
 10
13.85755638087129
 20
5.193851880328629
 30
0.0
 40
0.0393700800000044
100
AcDbArc
 50
228.2155748308639
 51
240.0000000000068
  0
ARC
  5
B704
330
1A
100
AcDbEntity
  8
PART
100
AcDbCircle
 10
14.14847401058485
 20
5.025890508501539
 30
0.0
 40
0.03937008
100
AcDbArc
 50
239.9999999999982
 51
270.0
  0
ARC
  5
B705
330
1A
100
AcDbEntity
  8
PART
100
AcDbCircle
 10
14.25672932459058
 20
5.144000748501531
 30
0.0
 40
0.1574803199999967
100
AcDbArc
 50
270.0
 51
290.0000000000019
  0
ARC
  5
B706
330
1A
100
AcDbEntity
  8
PART
100
AcDbCircle
 10
14.63668329697974
 20
7.710929964501537
 30
0.0
 40
0.01968504
100
AcDbArc
 50
90.0
 51
180.0
  0
ARC
  5
B707
330
1A
100
AcDbEntity
  8
PART
100
AcDbCircle
 10
14.63668329697974
 20
7.565260668501514
 30
0.0
 40
0.01968504
100
AcDbArc
 50
180.0
 51
270.0
  0
ARC
  5
B708
330
1A
100
AcDbEntity
  8
PART
100
AcDbCircle
 10
14.63668329697974
 20
8.281796124501545
 30
0.0
 40
0.01968504
100
AcDbArc
 50
90.0
 51
180.0
  0
ARC
  5
B709
330
1A
100
AcDbEntity
  8
PART
100
AcDbCircle
 10
14.63668329697974
 20
7.78967012450153
 30
0.0
 40
0.01968504
100
AcDbArc
 50
180.0
 51
270.0
  0
ARC
  5
B70A
330
1A
100
AcDbEntity
  8
PART
100
AcDbCircle
 10
15.04219512097974
 20
7.592819724501516
 30
0.0
 40
0.0196850400000004
100
AcDbArc
 50
180.0
 51
197.4576031237227
  0
ARC
  5
B70B
330
1A
100
AcDbEntity
  8
PART
100
AcDbCircle
 10
15.04613212897974
 20
7.54754413250152
 30
0.0
 40
0.03937008
100
AcDbArc
 50
0.0
 51
90.0
  0
ARC
  5
B70C
330
1A
100
AcDbEntity
  8
PART
100
AcDbCircle
 10
14.25672932459058
 20
8.356599276501532
 30
0.0
 40
0.15748032
100
AcDbArc
 50
69.99999999999854
 51
90.0
  0
ARC
  5
B70D
330
1A
100
AcDbEntity
  8
PART
100
AcDbCircle
 10
14.14847401058485
 20
8.474709516501526
 30
0.0
 40
0.0393700799999668
100
AcDbArc
 50
90.0
 51
119.9999999999996
  0
ARC
  5
B70E
330
1A
100
AcDbEntity
  8
PART
100
AcDbCircle
 10
14.98314000097974
 20
8.419591404501524
 30
0.0
 40
0.0393700800000034
100
AcDbArc
 50
0.0
 51
90.0
  0
LINE
  5
B712
330
1A
100
AcDbEntity
  8
PART
100
AcDbLine
 10
7.389787545132008
 20
8.376423111930527
 30
0.0
 11
7.389787545132008
 21
8.386126836501539
 31
0.0
  0
LINE
  5
B713
330
1A
100
AcDbEntity
  8
PART
100
AcDbLine
 10
7.389787545132008
 20
8.361659331930518
 30
0.0
 11
7.389787545132008
 21
8.376423111930527
 31
0.0
  0
LINE
  5
B714
330
1A
100
AcDbEntity
  8
PART
100
AcDbLine
 10
7.389787545132008
 20
8.376423111930527
 30
0.0
 11
7.31104738513201
 21
8.376423111930527
 31
0.0
  0
LINE
  5
B715
330
1A
100
AcDbEntity
  8
PART
100
AcDbLine
 10
7.468527705132007
 20
8.361659331930518
 30
0.0
 11
7.389787545132008
 21
8.361659331930518
 31
0.0
  0
LINE
  5
B716
330
1A
100
AcDbEntity
  8
PART
100
AcDbLine
 10
7.271677305132008
 20
4.986520428501523
 30
0.0
 11
7.468527705132011
 21
4.986520428501523
 31
0.0
  0
LINE
  5
B717
330
1A
100
AcDbEntity
  8
PART
100
AcDbLine
 10
7.271677305132008
 20
5.154504466454159
 30
0.0
 11
7.468527705132011
 21
5.154504466454159
 31
0.0
  0
LINE
  5
B718
330
1A
100
AcDbEntity
  8
PART
100
AcDbLine
 10
7.468527705132007
 20
5.138940693072516
 30
0.0
 11
7.389787545132008
 21
5.138940693072516
 31
0.0
  0
LINE
  5
B719
330
1A
100
AcDbEntity
  8
PART
100
AcDbLine
 10
7.389787545132008
 20
5.114473188501523
 30
0.0
 11
7.389787545132008
 21
5.124176913072535
 31
0.0
  0
LINE
  5
B71A
330
1A
100
AcDbEntity
  8
PART
100
AcDbLine
 10
7.389787545132008
 20
5.107178675390019
 30
0.0
 11
7.389787545132008
 21
5.114473188501523
 31
0.0
  0
LINE
  5
B71B
330
1A
100
AcDbEntity
  8
PART
100
AcDbLine
 10
7.389787545132008
 20
5.124176913072535
 30
0.0
 11
7.389787545132008
 21
5.138940693072516
 31
0.0
  0
LINE
  5
B71C
330
1A
100
AcDbEntity
  8
PART
100
AcDbLine
 10
7.31104738513201
 20
5.141314258829441
 30
0.0
 11
7.468527705132011
 21
5.141314258829441
 31
0.0
  0
LINE
  5
B71D
330
1A
100
AcDbEntity
  8
PART
100
AcDbLine
 10
7.389787545132008
 20
5.107178675390019
 30
0.0
 11
7.389787545132008
 21
5.093283304827639
 31
0.0
  0
LINE
  5
B71E
330
1A
100
AcDbEntity
  8
PART
100
AcDbLine
 10
7.31104738513201
 20
4.986520428501523
 30
0.0
 11
7.31104738513201
 21
5.154504466454159
 31
0.0
  0
LINE
  5
B71F
330
1A
100
AcDbEntity
  8
PART
100
AcDbLine
 10
7.311047385132006
 20
5.124176913072535
 30
0.0
 11
7.389787545132008
 21
5.124176913072535
 31
0.0
  0
LINE
  5
B720
330
1A
100
AcDbEntity
  8
PART
100
AcDbLine
 10
7.31104738513201
 20
5.093283304827639
 30
0.0
 11
7.468527705132011
 21
5.093283304827639
 31
0.0
  0
LINE
  5
B721
330
1A
100
AcDbEntity
  8
PART
100
AcDbLine
 10
7.468527705132011
 20
5.372347212501511
 30
0.0
 11
7.389787545132008
 21
5.372347212501541
 31
0.0
  0
LINE
  5
B722
330
1A
100
AcDbEntity
  8
PART
100
AcDbLine
 10
7.389787545132008
 20
5.379699627931575
 30
0.0
 11
7.31104738513201
 21
5.379699627931575
 31
0.0
  0
LINE
  5
B723
330
1A
100
AcDbEntity
  8
PART
100
AcDbLine
 10
7.31104738513201
 20
5.377062332646108
 30
0.0
 11
7.31104738513201
 21
5.379699627931575
 31
0.0
  0
LINE
  5
B724
330
1A
100
AcDbEntity
  8
PART
100
AcDbLine
 10
7.31104738513201
 20
5.372347212501511
 30
0.0
 11
7.31104738513201
 21
5.377062332646108
 31
0.0
  0
LINE
  5
B725
330
1A
100
AcDbEntity
  8
PART
100
AcDbLine
 10
7.389787545132008
 20
5.377062332646108
 30
0.0
 11
7.389787545132008
 21
5.379699627931575
 31
0.0
  0
LINE
  5
B726
330
1A
100
AcDbEntity
  8
PART
100
AcDbLine
 10
7.389787545132008
 20
5.372347212501541
 30
0.0
 11
7.389787545132008
 21
5.377062332646108
 31
0.0
  0
LINE
  5
B727
330
1A
100
AcDbEntity
  8
PART
100
AcDbLine
 10
7.31104738513201
 20
5.379699627931575
 30
0.0
 11
7.31104738513201
 21
5.392032252501525
 31
0.0
  0
LINE
  5
B728
330
1A
100
AcDbEntity
  8
PART
100
AcDbLine
 10
7.389787545132008
 20
5.379699627931575
 30
0.0
 11
7.389787545132008
 21
5.392032252501525
 31
0.0
  0
LINE
  5
B72C
330
1A
100
AcDbEntity
  8
PART
100
AcDbLine
 10
7.31104738513201
 20
6.947150412501533
 30
0.0
 11
7.338606441132007
 21
6.947150412501533
 31
0.0
  0
LINE
  5
B72E
330
1A
100
AcDbEntity
  8
PART
100
AcDbLine
 10
7.31104738513201
 20
6.55344961250153
 30
0.0
 11
7.338606441132007
 21
6.55344961250153
 31
0.0
  0
LINE
  5
B72F
330
1A
100
AcDbEntity
  8
PART
100
AcDbLine
 10
7.389787545132008
 20
8.123537692356952
 30
0.0
 11
7.38978754513201
 21
8.128252812501521
 31
0.0
  0
LINE
  5
B730
330
1A
100
AcDbEntity
  8
PART
100
AcDbLine
 10
7.38978754513201
 20
8.128252812501521
 30
0.0
 11
7.468527705132011
 21
8.128252812501521
 31
0.0
  0
LINE
  5
B731
330
1A
100
AcDbEntity
  8
PART
100
AcDbLine
 10
7.271677305132008
 20
8.128252812501521
 30
0.0
 11
7.31104738513201
 21
8.128252812501521
 31
0.0
  0
LINE
  5
B732
330
1A
100
AcDbEntity
  8
PART
100
AcDbLine
 10
7.31104738513201
 20
8.128252812501521
 30
0.0
 11
7.38978754513201
 21
8.128252812501521
 31
0.0
  0
LINE
  5
B733
330
1A
100
AcDbEntity
  8
PART
100
AcDbLine
 10
7.31104738513201
 20
8.120900397071459
 30
0.0
 11
7.389787545132008
 21
8.120900397071459
 31
0.0
  0
LINE
  5
B734
330
1A
100
AcDbEntity
  8
PART
100
AcDbLine
 10
7.389787545132008
 20
8.108567772501537
 30
0.0
 11
7.389787545132008
 21
8.120900397071459
 31
0.0
  0
LINE
  5
B735
330
1A
100
AcDbEntity
  8
PART
100
AcDbLine
 10
7.38978754513201
 20
8.082977220501526
 30
0.0
 11
7.389787545132008
 21
8.108567772501537
 31
0.0
  0
LINE
  5
B736
330
1A
100
AcDbEntity
  8
PART
100
AcDbLine
 10
7.389787545132008
 20
8.120900397071459
 30
0.0
 11
7.389787545132008
 21
8.123537692356952
 31
0.0
  0
LINE
  5
B737
330
1A
100
AcDbEntity
  8
PART
100
AcDbLine
 10
7.31104738513201
 20
8.120900397071459
 30
0.0
 11
7.31104738513201
 21
8.123537692356952
 31
0.0
  0
LINE
  5
B738
330
1A
100
AcDbEntity
  8
PART
100
AcDbLine
 10
7.350417465132011
 20
6.573134652501515
 30
0.0
 11
7.350417465132011
 21
6.55344961250153
 31
0.0
  0
LINE
  5
B739
330
1A
100
AcDbEntity
  8
PART
100
AcDbLine
 10
7.31104738513201
 20
8.123537692356952
 30
0.0
 11
7.31104738513201
 21
8.128252812501521
 31
0.0
  0
LINE
  5
B73A
330
1A
100
AcDbEntity
  8
PART
100
AcDbLine
 10
7.350417465132011
 20
6.92746537250152
 30
0.0
 11
7.350417465132011
 21
6.573134652501515
 31
0.0
  0
LINE
  5
B73B
330
1A
100
AcDbEntity
  8
PART
100
AcDbLine
 10
7.338606441132007
 20
6.947150412501533
 30
0.0
 11
7.350417465132011
 21
6.947150412501533
 31
0.0
  0
LINE
  5
B73C
330
1A
100
AcDbEntity
  8
PART
100
AcDbLine
 10
7.350417465132011
 20
6.947150412501533
 30
0.0
 11
7.350417465132011
 21
6.92746537250152
 31
0.0
  0
LINE
  5
B73D
330
1A
100
AcDbEntity
  8
PART
100
AcDbLine
 10
7.271677305132008
 20
6.947150412501533
 30
0.0
 11
7.31104738513201
 21
6.947150412501533
 31
0.0
  0
LINE
  5
B73E
330
1A
100
AcDbEntity
  8
PART
100
AcDbLine
 10
7.31104738513201
 20
8.108567772501537
 30
0.0
 11
7.31104738513201
 21
8.120900397071459
 31
0.0
  0
LINE
  5
B73F
330
1A
100
AcDbEntity
  8
PART
100
AcDbLine
 10
7.31104738513201
 20
6.947150412501533
 30
0.0
 11
7.31104738513201
 21
8.108567772501537
 31
0.0
  0
LINE
  5
B740
330
1A
100
AcDbEntity
  8
PART
100
AcDbLine
 10
7.271677305132008
 20
8.338812087152453
 30
0.0
 11
7.468527705132011
 21
8.338812087152453
 31
0.0
  0
LINE
  5
B741
330
1A
100
AcDbEntity
  8
PART
100
AcDbLine
 10
7.271677305132008
 20
8.514079596501536
 30
0.0
 11
7.468527705132007
 21
8.514079596501536
 31
0.0
  0
LINE
  5
B742
330
1A
100
AcDbEntity
  8
PART
100
AcDbLine
 10
7.311047385132006
 20
8.338812087152453
 30
0.0
 11
7.311047385132011
 21
8.514079596501536
 31
0.0
  0
LINE
  5
B743
330
1A
100
AcDbEntity
  8
PART
100
AcDbLine
 10
7.31104738513201
 20
8.407316720175423
 30
0.0
 11
7.468527705132011
 21
8.407316720175423
 31
0.0
  0
LINE
  5
B744
330
1A
100
AcDbEntity
  8
PART
100
AcDbLine
 10
7.389787545132008
 20
8.386126836501539
 30
0.0
 11
7.38978754513201
 21
8.407316720175423
 31
0.0
  0
LINE
  5
B745
330
1A
100
AcDbEntity
  8
PART
100
AcDbLine
 10
7.31104738513201
 20
8.35928576617359
 30
0.0
 11
7.468527705132011
 21
8.35928576617359
 31
0.0
  0
LINE
  5
B746
330
1A
100
AcDbEntity
  8
PART
100
AcDbLine
 10
7.31104738513201
 20
8.346095558548817
 30
0.0
 11
7.468527705132011
 21
8.346095558548817
 31
0.0
  0
LINE
  5
B747
330
1A
100
AcDbEntity
  8
PART
100
AcDbLine
 10
7.468527705132011
 20
8.082977220501526
 30
0.0
 11
7.38978754513201
 21
8.082977220501526
 31
0.0
  0
LINE
  5
B748
330
1A
100
AcDbEntity
  8
PART
100
AcDbLine
 10
7.31104738513201
 20
6.55344961250153
 30
0.0
 11
7.271677305132008
 21
6.55344961250153
 31
0.0
  0
LINE
  5
B749
330
1A
100
AcDbEntity
  8
PART
100
AcDbLine
 10
7.31104738513201
 20
5.392032252501525
 30
0.0
 11
7.31104738513201
 21
6.55344961250153
 31
0.0
  0
LINE
  5
B74A
330
1A
100
AcDbEntity
  8
PART
100
AcDbLine
 10
7.389787545132008
 20
5.417622804501537
 30
0.0
 11
7.468527705132007
 21
5.417622804501537
 31
0.0
  0
LINE
  5
B74B
330
1A
100
AcDbEntity
  8
PART
100
AcDbLine
 10
7.389787545132008
 20
5.392032252501525
 30
0.0
 11
7.389787545132008
 21
5.417622804501537
 31
0.0
  0
LINE
  5
B74C
330
1A
100
AcDbEntity
  8
PART
100
AcDbLine
 10
7.389787545132008
 20
5.372347212501541
 30
0.0
 11
7.31104738513201
 21
5.372347212501511
 31
0.0
  0
LINE
  5
B74D
330
1A
100
AcDbEntity
  8
PART
100
AcDbLine
 10
7.31104738513201
 20
5.372347212501511
 30
0.0
 11
7.271677305132008
 21
5.372347212501511
 31
0.0
  0
LINE
  5
B74E
330
1A
100
AcDbEntity
  8
PART
100
AcDbLine
 10
7.338606441132007
 20
6.55344961250153
 30
0.0
 11
7.350417465132011
 21
6.55344961250153
 31
0.0
  0
LINE
  5
B750
330
1A
100
AcDbEntity
  8
PART
100
AcDbLine
 10
7.271677305132008
 20
4.986520428501523
 30
0.0
 11
7.271677305132008
 21
8.514079596501536
 31
0.0
  0
LINE
  5
B751
330
1A
100
AcDbEntity
  8
PART
100
AcDbLine
 10
7.468527705132011
 20
4.986520428501523
 30
0.0
 11
7.468527705132011
 21
5.417622804501537
 31
0.0
  0
LINE
  5
B752
330
1A
100
AcDbEntity
  8
PART
100
AcDbLine
 10
7.468527705132011
 20
8.082977220501526
 30
0.0
 11
7.468527705132011
 21
8.514079596501536
 31
0.0
  0
LINE
  5
B754
330
1A
100
AcDbEntity
  8
PART
100
AcDbLine
 10
11.12207722355613
 20
8.376423111930527
 30
0.0
 11
11.12207722355613
 21
8.386126836501539
 31
0.0
  0
LINE
  5
B755
330
1A
100
AcDbEntity
  8
PART
100
AcDbLine
 10
11.12207722355613
 20
8.361659331930518
 30
0.0
 11
11.12207722355613
 21
8.376423111930527
 31
0.0
  0
LINE
  5
B756
330
1A
100
AcDbEntity
  8
PART
100
AcDbLine
 10
11.12207722355613
 20
8.376423111930527
 30
0.0
 11
11.20081738355614
 21
8.376423111930527
 31
0.0
  0
LINE
  5
B757
330
1A
100
AcDbEntity
  8
PART
100
AcDbLine
 10
11.04333706355614
 20
8.361659331930518
 30
0.0
 11
11.12207722355613
 21
8.361659331930518
 31
0.0
  0
LINE
  5
B758
330
1A
100
AcDbEntity
  8
PART
100
AcDbLine
 10
11.24018746355613
 20
4.986520428501523
 30
0.0
 11
11.04333706355613
 21
4.986520428501523
 31
0.0
  0
LINE
  5
B759
330
1A
100
AcDbEntity
  8
PART
100
AcDbLine
 10
11.24018746355613
 20
5.154504466454159
 30
0.0
 11
11.04333706355613
 21
5.154504466454159
 31
0.0
  0
LINE
  5
B75A
330
1A
100
AcDbEntity
  8
PART
100
AcDbLine
 10
11.04333706355614
 20
5.138940693072516
 30
0.0
 11
11.12207722355613
 21
5.138940693072516
 31
0.0
  0
LINE
  5
B75B
330
1A
100
AcDbEntity
  8
PART
100
AcDbLine
 10
11.12207722355613
 20
5.114473188501523
 30
0.0
 11
11.12207722355613
 21
5.124176913072535
 31
0.0
  0
LINE
  5
B75C
330
1A
100
AcDbEntity
  8
PART
100
AcDbLine
 10
11.12207722355613
 20
5.107178675390019
 30
0.0
 11
11.12207722355613
 21
5.114473188501523
 31
0.0
  0
LINE
  5
B75D
330
1A
100
AcDbEntity
  8
PART
100
AcDbLine
 10
11.12207722355613
 20
5.124176913072535
 30
0.0
 11
11.12207722355613
 21
5.138940693072516
 31
0.0
  0
LINE
  5
B75E
330
1A
100
AcDbEntity
  8
PART
100
AcDbLine
 10
11.20081738355614
 20
5.141314258829441
 30
0.0
 11
11.04333706355613
 21
5.141314258829441
 31
0.0
  0
LINE
  5
B75F
330
1A
100
AcDbEntity
  8
PART
100
AcDbLine
 10
11.12207722355613
 20
5.107178675390019
 30
0.0
 11
11.12207722355613
 21
5.093283304827639
 31
0.0
  0
LINE
  5
B760
330
1A
100
AcDbEntity
  8
PART
100
AcDbLine
 10
11.20081738355614
 20
4.986520428501523
 30
0.0
 11
11.20081738355614
 21
5.154504466454159
 31
0.0
  0
LINE
  5
B761
330
1A
100
AcDbEntity
  8
PART
100
AcDbLine
 10
11.20081738355614
 20
5.124176913072535
 30
0.0
 11
11.12207722355613
 21
5.124176913072535
 31
0.0
  0
LINE
  5
B762
330
1A
100
AcDbEntity
  8
PART
100
AcDbLine
 10
11.20081738355614
 20
5.093283304827639
 30
0.0
 11
11.04333706355613
 21
5.093283304827639
 31
0.0
  0
LINE
  5
B763
330
1A
100
AcDbEntity
  8
PART
100
AcDbLine
 10
11.04333706355613
 20
5.372347212501511
 30
0.0
 11
11.12207722355613
 21
5.372347212501541
 31
0.0
  0
LINE
  5
B764
330
1A
100
AcDbEntity
  8
PART
100
AcDbLine
 10
11.12207722355613
 20
5.379699627931575
 30
0.0
 11
11.20081738355614
 21
5.379699627931575
 31
0.0
  0
LINE
  5
B765
330
1A
100
AcDbEntity
  8
PART
100
AcDbLine
 10
11.20081738355614
 20
5.377062332646108
 30
0.0
 11
11.20081738355614
 21
5.379699627931575
 31
0.0
  0
LINE
  5
B766
330
1A
100
AcDbEntity
  8
PART
100
AcDbLine
 10
11.20081738355614
 20
5.372347212501511
 30
0.0
 11
11.20081738355614
 21
5.377062332646108
 31
0.0
  0
LINE
  5
B767
330
1A
100
AcDbEntity
  8
PART
100
AcDbLine
 10
11.12207722355613
 20
5.377062332646108
 30
0.0
 11
11.12207722355613
 21
5.379699627931575
 31
0.0
  0
LINE
  5
B768
330
1A
100
AcDbEntity
  8
PART
100
AcDbLine
 10
11.12207722355613
 20
5.372347212501541
 30
0.0
 11
11.12207722355613
 21
5.377062332646108
 31
0.0
  0
LINE
  5
B769
330
1A
100
AcDbEntity
  8
PART
100
AcDbLine
 10
11.20081738355614
 20
5.379699627931575
 30
0.0
 11
11.20081738355614
 21
5.392032252501525
 31
0.0
  0
LINE
  5
B76A
330
1A
100
AcDbEntity
  8
PART
100
AcDbLine
 10
11.12207722355613
 20
5.379699627931575
 30
0.0
 11
11.12207722355613
 21
5.392032252501525
 31
0.0
  0
LINE
  5
B76E
330
1A
100
AcDbEntity
  8
PART
100
AcDbLine
 10
11.20081738355614
 20
6.947150412501533
 30
0.0
 11
11.17325832755613
 21
6.947150412501533
 31
0.0
  0
LINE
  5
B770
330
1A
100
AcDbEntity
  8
PART
100
AcDbLine
 10
11.20081738355614
 20
6.55344961250153
 30
0.0
 11
11.17325832755613
 21
6.55344961250153
 31
0.0
  0
LINE
  5
B771
330
1A
100
AcDbEntity
  8
PART
100
AcDbLine
 10
11.12207722355613
 20
8.123537692356952
 30
0.0
 11
11.12207722355613
 21
8.128252812501521
 31
0.0
  0
LINE
  5
B772
330
1A
100
AcDbEntity
  8
PART
100
AcDbLine
 10
11.12207722355613
 20
8.128252812501521
 30
0.0
 11
11.04333706355613
 21
8.128252812501521
 31
0.0
  0
LINE
  5
B773
330
1A
100
AcDbEntity
  8
PART
100
AcDbLine
 10
11.23593839027936
 20
8.128252812501521
 30
0.0
 11
11.20081738355614
 21
8.128252812501521
 31
0.0
  0
LINE
  5
B774
330
1A
100
AcDbEntity
  8
PART
100
AcDbLine
 10
11.20081738355614
 20
8.128252812501521
 30
0.0
 11
11.12207722355613
 21
8.128252812501521
 31
0.0
  0
LINE
  5
B775
330
1A
100
AcDbEntity
  8
PART
100
AcDbLine
 10
11.20081738355614
 20
8.120900397071459
 30
0.0
 11
11.12207722355613
 21
8.120900397071459
 31
0.0
  0
LINE
  5
B776
330
1A
100
AcDbEntity
  8
PART
100
AcDbLine
 10
11.12207722355613
 20
8.108567772501537
 30
0.0
 11
11.12207722355613
 21
8.120900397071459
 31
0.0
  0
LINE
  5
B777
330
1A
100
AcDbEntity
  8
PART
100
AcDbLine
 10
11.12207722355613
 20
8.082977220501526
 30
0.0
 11
11.12207722355613
 21
8.108567772501537
 31
0.0
  0
LINE
  5
B778
330
1A
100
AcDbEntity
  8
PART
100
AcDbLine
 10
11.12207722355613
 20
8.120900397071459
 30
0.0
 11
11.12207722355613
 21
8.123537692356952
 31
0.0
  0
LINE
  5
B779
330
1A
100
AcDbEntity
  8
PART
100
AcDbLine
 10
11.20081738355614
 20
8.120900397071459
 30
0.0
 11
11.20081738355614
 21
8.123537692356952
 31
0.0
  0
LINE
  5
B77A
330
1A
100
AcDbEntity
  8
PART
100
AcDbLine
 10
11.16144730355613
 20
6.573134652501515
 30
0.0
 11
11.16144730355613
 21
6.55344961250153
 31
0.0
  0
LINE
  5
B77B
330
1A
100
AcDbEntity
  8
PART
100
AcDbLine
 10
11.20081738355614
 20
8.123537692356952
 30
0.0
 11
11.20081738355614
 21
8.128252812501521
 31
0.0
  0
LINE
  5
B77C
330
1A
100
AcDbEntity
  8
PART
100
AcDbLine
 10
11.16144730355613
 20
6.92746537250152
 30
0.0
 11
11.16144730355613
 21
6.573134652501515
 31
0.0
  0
LINE
  5
B77D
330
1A
100
AcDbEntity
  8
PART
100
AcDbLine
 10
11.17325832755613
 20
6.947150412501533
 30
0.0
 11
11.16144730355613
 21
6.947150412501533
 31
0.0
  0
LINE
  5
B77E
330
1A
100
AcDbEntity
  8
PART
100
AcDbLine
 10
11.16144730355613
 20
6.947150412501533
 30
0.0
 11
11.16144730355613
 21
6.92746537250152
 31
0.0
  0
LINE
  5
B77F
330
1A
100
AcDbEntity
  8
PART
100
AcDbLine
 10
11.24018746355613
 20
6.947150412501533
 30
0.0
 11
11.20081738355614
 21
6.947150412501533
 31
0.0
  0
LINE
  5
B780
330
1A
100
AcDbEntity
  8
PART
100
AcDbLine
 10
11.20081738355614
 20
8.108567772501537
 30
0.0
 11
11.20081738355614
 21
8.120900397071459
 31
0.0
  0
LINE
  5
B781
330
1A
100
AcDbEntity
  8
PART
100
AcDbLine
 10
11.20081738355614
 20
6.947150412501533
 30
0.0
 11
11.20081738355614
 21
7.898916795701513
 31
0.0
  0
LINE
  5
B782
330
1A
100
AcDbEntity
  8
PART
100
AcDbLine
 10
11.24018746355613
 20
8.338812087152453
 30
0.0
 11
11.04333706355613
 21
8.338812087152453
 31
0.0
  0
LINE
  5
B783
330
1A
100
AcDbEntity
  8
PART
100
AcDbLine
 10
11.24018746355613
 20
8.514079596501536
 30
0.0
 11
11.04333706355614
 21
8.514079596501536
 31
0.0
  0
LINE
  5
B784
330
1A
100
AcDbEntity
  8
PART
100
AcDbLine
 10
11.20081738355614
 20
8.338812087152453
 30
0.0
 11
11.20081738355613
 21
8.514079596501536
 31
0.0
  0
LINE
  5
B785
330
1A
100
AcDbEntity
  8
PART
100
AcDbLine
 10
11.20081738355614
 20
8.407316720175423
 30
0.0
 11
11.04333706355613
 21
8.407316720175423
 31
0.0
  0
LINE
  5
B786
330
1A
100
AcDbEntity
  8
PART
100
AcDbLine
 10
11.12207722355613
 20
8.386126836501539
 30
0.0
 11
11.12207722355613
 21
8.407316720175423
 31
0.0
  0
LINE
  5
B787
330
1A
100
AcDbEntity
  8
PART
100
AcDbLine
 10
11.20081738355614
 20
8.35928576617359
 30
0.0
 11
11.04333706355613
 21
8.35928576617359
 31
0.0
  0
LINE
  5
B788
330
1A
100
AcDbEntity
  8
PART
100
AcDbLine
 10
11.20081738355614
 20
8.346095558548817
 30
0.0
 11
11.04333706355613
 21
8.346095558548817
 31
0.0
  0
LINE
  5
B789
330
1A
100
AcDbEntity
  8
PART
100
AcDbLine
 10
11.04333706355613
 20
8.082977220501526
 30
0.0
 11
11.12207722355613
 21
8.082977220501526
 31
0.0
  0
LINE
  5
B78A
330
1A
100
AcDbEntity
  8
PART
100
AcDbLine
 10
11.20081738355614
 20
6.55344961250153
 30
0.0
 11
11.24018746355613
 21
6.55344961250153
 31
0.0
  0
LINE
  5
B78B
330
1A
100
AcDbEntity
  8
PART
100
AcDbLine
 10
11.20081738355614
 20
5.392032252501525
 30
0.0
 11
11.20081738355614
 21
5.41639244516377
 31
0.0
  0
LINE
  5
B78C
330
1A
100
AcDbEntity
  8
PART
100
AcDbLine
 10
11.12207722355613
 20
5.417622804501537
 30
0.0
 11
11.04333706355613
 21
5.417622804501537
 31
0.0
  0
LINE
  5
B78D
330
1A
100
AcDbEntity
  8
PART
100
AcDbLine
 10
11.12207722355613
 20
5.392032252501525
 30
0.0
 11
11.12207722355613
 21
5.417622804501537
 31
0.0
  0
LINE
  5
B78E
330
1A
100
AcDbEntity
  8
PART
100
AcDbLine
 10
11.12207722355613
 20
5.372347212501541
 30
0.0
 11
11.20081738355614
 21
5.372347212501511
 31
0.0
  0
LINE
  5
B78F
330
1A
100
AcDbEntity
  8
PART
100
AcDbLine
 10
11.20081738355614
 20
5.372347212501511
 30
0.0
 11
11.23368199989982
 21
5.372347212501511
 31
0.0
  0
LINE
  5
B790
330
1A
100
AcDbEntity
  8
PART
100
AcDbLine
 10
11.17325832755613
 20
6.55344961250153
 30
0.0
 11
11.16144730355613
 21
6.55344961250153
 31
0.0
  0
LINE
  5
B792
330
1A
100
AcDbEntity
  8
PART
100
AcDbLine
 10
11.24018746355613
 20
4.986520428501523
 30
0.0
 11
11.24018746355613
 21
5.336868040105891
 31
0.0
  0
LINE
  5
B793
330
1A
100
AcDbEntity
  8
PART
100
AcDbLine
 10
11.04333706355613
 20
4.986520428501523
 30
0.0
 11
11.04333706355613
 21
5.417622804501537
 31
0.0
  0
LINE
  5
B794
330
1A
100
AcDbEntity
  8
PART
100
AcDbLine
 10
11.04333706355613
 20
8.082977220501526
 30
0.0
 11
11.04333706355613
 21
8.514079596501536
 31
0.0
  0
ARC
  5
B81F
330
1A
100
AcDbEntity
  8
TERMINALS
100
AcDbCircle
 10
13.91518746355613
 20
6.548878858878067
 30
0.0
 40
0.0899999999999999
100
AcDbArc
 50
177.0889155587206
 51
222.9215937507049
  0
ARC
  5
B820
330
1A
100
AcDbEntity
  8
TERMINALS
100
AcDbCircle
 10
13.9165859375444
 20
6.934064998584196
 30
0.0
 40
0.0899999999999999
100
AcDbArc
 50
138.4023132526298
 51
171.6399341360535
  0
CIRCLE
  5
B824
330
1A
100
AcDbEntity
  8
TERMINALS
  6
Continuous
100
AcDbCircle
 10
10.85042085800404
 20
6.746980551404087
 30
0.0
 40
0.125
  0
CIRCLE
  5
B8E5
330
1A
100
AcDbEntity
  8
PART
100
AcDbCircle
 10
15.02805643411044
 20
6.909748836501541
 30
0.0
 40
0.035
  0
INSERT
  5
B8E6
330
1A
100
AcDbEntity
  8
TERMINALS
100
AcDbBlockReference
  2
2PanHdPhlpTop
 10
14.30597462497974
 20
5.181402324501511
 30
0.0
  0
INSERT
  5
B8E7
330
1A
100
AcDbEntity
  8
TERMINALS
100
AcDbBlockReference
  2
2PanHdPhlpTop
 10
14.30597462497974
 20
8.319197700501526
 30
0.0
  0
CIRCLE
  5
CF9E
330
1A
100
AcDbEntity
  8
TERMINALS
  6
Continuous
100
AcDbCircle
 10
9.203864364312169
 20
6.556459342535941
 30
0.0
 40
0.0907361943461522
  0
CIRCLE
  5
CFA3
330
1A
100
AcDbEntity
  8
TERMINALS
  6
Continuous
100
AcDbCircle
 10
9.20570545722202
 20
6.936093717999277
 30
0.0
 40
0.0907361943461522
  0
CIRCLE
  5
CFA8
330
1A
100
AcDbEntity
  8
TERMINALS
  6
Continuous
100
AcDbCircle
 10
9.816980261939461
 20
6.556459342535941
 30
0.0
 40
0.0907361943461522
  0
CIRCLE
  5
CFAD
330
1A
100
AcDbEntity
  8
TERMINALS
  6
Continuous
100
AcDbCircle
 10
9.818821354849312
 20
6.936093717999277
 30
0.0
 40
0.0907361943461522
  0
CIRCLE
  5
CFB2
330
1A
100
AcDbEntity
  8
TERMINALS
  6
Continuous
100
AcDbCircle
 10
10.2218349041873
 20
6.556459342535941
 30
0.0
 40
0.0907361943461522
  0
CIRCLE
  5
CFB7
330
1A
100
AcDbEntity
  8
TERMINALS
  6
Continuous
100
AcDbCircle
 10
10.22367599709715
 20
6.936093717999277
 30
0.0
 40
0.0907361943461522
  0
CIRCLE
  5
CFBC
330
1A
100
AcDbEntity
  8
TERMINALS
  6
Continuous
100
AcDbCircle
 10
10.85042085800404
 20
6.746980551404087
 30
0.0
 40
0.0907361943461522
  0
CIRCLE
  5
CFC9
330
1A
100
AcDbEntity
  8
TERMINALS
  6
Continuous
100
AcDbCircle
 10
8.807522149999149
 20
6.561053834238148
 30
0.0
 40
0.0907361943461522
  0
CIRCLE
  5
CFCE
330
1A
100
AcDbEntity
  8
TERMINALS
  6
Continuous
100
AcDbCircle
 10
8.809363242909004
 20
6.940688209701483
 30
0.0
 40
0.0907361943461522
  0
LINE
  5
D0F1
330
1A
100
AcDbEntity
  8
TERMINALS
  6
Continuous
100
AcDbLine
 10
9.534778048700603
 20
7.570425962913772
 30
0.0
 11
9.534778048700603
 21
7.453634244605092
 31
0.0
  0
LINE
  5
D0F4
330
1A
100
AcDbEntity
  8
TERMINALS
  6
Continuous
100
AcDbLine
 10
9.534778048700603
 20
7.215465393746543
 30
0.0
 11
9.727187463556132
 21
7.215465393746542
 31
0.0
  0
LINE
  5
D0F5
330
1A
100
AcDbEntity
  8
TERMINALS
  6
Continuous
100
AcDbLine
 10
10.51601054942053
 20
7.215465393746542
 30
0.0
 11
10.51601054942053
 21
7.570425962913769
 31
0.0
  0
LINE
  5
D0F6
330
1A
100
AcDbEntity
  8
TERMINALS
  6
Continuous
100
AcDbLine
 10
10.51601054942053
 20
7.570425962913769
 30
0.0
 11
10.31718746355613
 21
7.570425962913772
 31
0.0
  0
CIRCLE
  5
D189
330
1A
100
AcDbEntity
  8
TERMINALS
  6
Continuous
100
AcDbCircle
 10
10.2218349041873
 20
6.556459342535941
 30
0.0
 40
0.125
  0
CIRCLE
  5
D18A
330
1A
100
AcDbEntity
  8
TERMINALS
  6
Continuous
100
AcDbCircle
 10
9.816980261939461
 20
6.556459342535941
 30
0.0
 40
0.125
  0
CIRCLE
  5
D18B
330
1A
100
AcDbEntity
  8
TERMINALS
  6
Continuous
100
AcDbCircle
 10
9.203864364312169
 20
6.556459342535941
 30
0.0
 40
0.125
  0
CIRCLE
  5
D18C
330
1A
100
AcDbEntity
  8
TERMINALS
  6
Continuous
100
AcDbCircle
 10
8.807522149999149
 20
6.561053834238148
 30
0.0
 40
0.125
  0
CIRCLE
  5
D18D
330
1A
100
AcDbEntity
  8
TERMINALS
  6
Continuous
100
AcDbCircle
 10
8.809363242909004
 20
6.940688209701483
 30
0.0
 40
0.125
  0
CIRCLE
  5
D18E
330
1A
100
AcDbEntity
  8
TERMINALS
  6
Continuous
100
AcDbCircle
 10
9.20570545722202
 20
6.936093717999277
 30
0.0
 40
0.125
  0
CIRCLE
  5
D18F
330
1A
100
AcDbEntity
  8
TERMINALS
  6
Continuous
100
AcDbCircle
 10
9.818821354849312
 20
6.936093717999277
 30
0.0
 40
0.125
  0
CIRCLE
  5
D190
330
1A
100
AcDbEntity
  8
TERMINALS
  6
Continuous
100
AcDbCircle
 10
10.22367599709715
 20
6.936093717999277
 30
0.0
 40
0.125
  0
LWPOLYLINE
  5
D1FA
330
1A
100
AcDbEntity
  8
TERMINALS
  6
Continuous
100
AcDbPolyline
 90
        6
 70
     0
 43
0.0
 10
8.114332477629437
 20
7.566333313717566
 10
8.114332477629437
 20
7.766980551404088
 42
0.4142135623730951
 10
8.094332477629437
 20
7.786980551404088
 10
7.734332477629436
 20
7.786980551404091
 42
0.4142135623730951
 10
7.714332477629437
 20
7.766980551404091
 10
7.714332477629437
 20
7.566333313717562
  0
LINE
  5
D342
330
1A
100
AcDbEntity
  8
TERMINALS
100
AcDbLine
 10
11.27018746355613
 20
8.491638540501543
 30
0.0
 11
11.30018746355613
 21
8.491638540501543
 31
0.0
  0
LINE
  5
D343
330
1A
100
AcDbEntity
  8
TERMINALS
100
AcDbLine
 10
11.27018746355613
 20
8.141638540501539
 30
0.0
 11
11.30018746355613
 21
8.141638540501539
 31
0.0
  0
LINE
  5
D344
330
1A
100
AcDbEntity
  8
TERMINALS
100
AcDbLine
 10
11.27018746355613
 20
8.49163854050154
 30
0.0
 11
11.27018746355613
 21
8.141638540501539
 31
0.0
  0
LINE
  5
D345
330
1A
100
AcDbEntity
  8
TERMINALS
100
AcDbLine
 10
11.30018746355613
 20
8.49163854050154
 30
0.0
 11
11.30018746355613
 21
8.141638540501539
 31
0.0
  0
LINE
  5
D346
330
1A
100
AcDbEntity
  8
TERMINALS
100
AcDbLine
 10
11.24018746355613
 20
8.491638540501543
 30
0.0
 11
11.27018746355613
 21
8.491638540501543
 31
0.0
  0
LINE
  5
D3F2
330
1A
100
AcDbEntity
  8
TERMINALS
100
AcDbLine
 10
10.35093270718175
 20
7.334668055374621
 30
0.0
 11
10.45315794868305
 21
7.436893296875926
 31
0.0
  0
CIRCLE
  5
D3F3
330
1A
100
AcDbEntity
  8
TERMINALS
100
AcDbCircle
 10
10.41618746355613
 20
7.371638540501542
 30
0.0
 40
0.075
  0
LINE
  5
D3F4
330
1A
100
AcDbEntity
  8
TERMINALS
100
AcDbLine
 10
10.37921697842921
 20
7.306383784127159
 30
0.0
 11
10.48144221993052
 21
7.408609025628465
 31
0.0
  0
LINE
  5
D3F5
330
1A
100
AcDbEntity
  8
TERMINALS
100
AcDbLine
 10
9.562932707181754
 20
7.334668055374621
 30
0.0
 11
9.665157948683059
 21
7.436893296875926
 31
0.0
  0
LINE
  5
D3F6
330
1A
100
AcDbEntity
  8
TERMINALS
100
AcDbLine
 10
9.591216978429217
 20
7.306383784127159
 30
0.0
 11
9.693442219930519
 21
7.408609025628465
 31
0.0
  0
CIRCLE
  5
D3F7
330
1A
100
AcDbEntity
  8
TERMINALS
100
AcDbCircle
 10
9.628187463556137
 20
7.371638540501542
 30
0.0
 40
0.075
  0
LINE
  5
D404
330
1A
100
AcDbEntity
  8
TERMINALS
100
AcDbLine
 10
9.727187463556132
 20
7.471638540501543
 30
0.0
 11
9.568187463556137
 21
7.471638540501543
 31
0.0
  0
LINE
  5
D405
330
1A
100
AcDbEntity
  8
TERMINALS
100
AcDbLine
 10
9.727187463556132
 20
7.271638540501543
 30
0.0
 11
9.568187463556137
 21
7.271638540501544
 31
0.0
  0
LINE
  5
D407
330
1A
100
AcDbEntity
  8
TERMINALS
100
AcDbLine
 10
9.528187463556136
 20
7.311638540501543
 30
0.0
 11
9.528187463556136
 21
7.431638540501543
 31
0.0
  0
ARC
  5
D408
330
1A
100
AcDbEntity
  8
TERMINALS
100
AcDbCircle
 10
9.568187463556137
 20
7.431638540501543
 30
0.0
 40
0.04
100
AcDbArc
 50
89.99999999999962
 51
180.0000000000005
  0
ARC
  5
D409
330
1A
100
AcDbEntity
  8
TERMINALS
100
AcDbCircle
 10
9.568187463556137
 20
7.311638540501543
 30
0.0
 40
0.04
100
AcDbArc
 50
180.0
 51
269.9999999999998
  0
LINE
  5
D40B
330
1A
100
AcDbEntity
  8
TERMINALS
100
AcDbLine
 10
9.845187463556136
 20
7.596638540501543
 30
0.0
 11
9.845187463556136
 21
7.626638540501542
 31
0.0
  0
LINE
  5
D40C
330
1A
100
AcDbEntity
  8
TERMINALS
100
AcDbLine
 10
9.845187463556136
 20
7.626638540501542
 30
0.0
 11
9.925187463556136
 21
7.626638540501542
 31
0.0
  0
LINE
  5
D40D
330
1A
100
AcDbEntity
  8
TERMINALS
100
AcDbLine
 10
9.925187463556136
 20
7.626638540501542
 30
0.0
 11
9.925187463556136
 21
7.596638540501543
 31
0.0
  0
LINE
  5
D40E
330
1A
100
AcDbEntity
  8
TERMINALS
100
AcDbLine
 10
10.10518746355613
 20
7.596638540501543
 30
0.0
 11
10.10518746355613
 21
7.626638540501542
 31
0.0
  0
LINE
  5
D40F
330
1A
100
AcDbEntity
  8
TERMINALS
100
AcDbLine
 10
10.10518746355613
 20
7.626638540501542
 30
0.0
 11
10.18518746355614
 21
7.626638540501542
 31
0.0
  0
LINE
  5
D410
330
1A
100
AcDbEntity
  8
TERMINALS
100
AcDbLine
 10
10.18518746355614
 20
7.626638540501542
 30
0.0
 11
10.18518746355614
 21
7.596638540501543
 31
0.0
  0
LINE
  5
D411
330
1A
100
AcDbEntity
  8
TERMINALS
100
AcDbLine
 10
10.31818746355613
 20
7.471638540501543
 30
0.0
 11
10.47718746355613
 21
7.471638540501543
 31
0.0
  0
LINE
  5
D412
330
1A
100
AcDbEntity
  8
TERMINALS
100
AcDbLine
 10
10.31818746355613
 20
7.271638540501543
 30
0.0
 11
10.47718746355613
 21
7.271638540501544
 31
0.0
  0
ARC
  5
D413
330
1A
100
AcDbEntity
  8
TERMINALS
100
AcDbCircle
 10
10.47718746355613
 20
7.311638540501543
 30
0.0
 40
0.04
100
AcDbArc
 50
270.0000000000002
 51
0.000000000000007
  0
LINE
  5
D414
330
1A
100
AcDbEntity
  8
TERMINALS
100
AcDbLine
 10
10.51718746355613
 20
7.311638540501543
 30
0.0
 11
10.51718746355613
 21
7.431638540501543
 31
0.0
  0
ARC
  5
D415
330
1A
100
AcDbEntity
  8
TERMINALS
100
AcDbCircle
 10
10.47718746355613
 20
7.431638540501543
 30
0.0
 40
0.04
100
AcDbArc
 50
359.9999999999995
 51
90.00000000000039
  0
LINE
  5
D41D
330
1A
100
AcDbEntity
  8
TERMINALS
100
AcDbLine
 10
13.06518746355614
 20
7.106638540501543
 30
0.0
 11
13.11018746355613
 21
7.106638540501543
 31
0.0
  0
LINE
  5
D41E
330
1A
100
AcDbEntity
  8
TERMINALS
100
AcDbLine
 10
13.05118746355614
 20
7.529638540501544
 30
0.0
 11
13.11018746355613
 21
7.529638540501544
 31
0.0
  0
LINE
  5
D41F
330
1A
100
AcDbEntity
  8
TERMINALS
100
AcDbLine
 10
13.05118746355614
 20
7.529638540501544
 30
0.0
 11
13.05118746355614
 21
7.264638540501544
 31
0.0
  0
LINE
  5
D420
330
1A
100
AcDbEntity
  8
TERMINALS
100
AcDbLine
 10
13.06518746355614
 20
7.106638540501543
 30
0.0
 11
13.06518746355614
 21
7.264638540501544
 31
0.0
  0
LINE
  5
D421
330
1A
100
AcDbEntity
  8
TERMINALS
100
AcDbLine
 10
13.05118746355614
 20
7.264638540501544
 30
0.0
 11
13.06518746355614
 21
7.264638540501544
 31
0.0
  0
LINE
  5
D423
330
1A
100
AcDbEntity
  8
TERMINALS
100
AcDbLine
 10
13.59918746355614
 20
7.136638540501544
 30
0.0
 11
13.11018746355613
 21
7.136638540501543
 31
0.0
  0
LINE
  5
D424
330
1A
100
AcDbEntity
  8
TERMINALS
100
AcDbLine
 10
13.11018746355613
 20
7.106638540501543
 30
0.0
 11
13.11018746355613
 21
7.136638540501543
 31
0.0
  0
LINE
  5
D425
330
1A
100
AcDbEntity
  8
TERMINALS
100
AcDbLine
 10
13.74718746355614
 20
7.106638540501543
 30
0.0
 11
13.74718746355614
 21
7.421638540501543
 31
0.0
  0
LINE
  5
D426
330
1A
100
AcDbEntity
  8
TERMINALS
100
AcDbLine
 10
13.74718746355614
 20
7.106638540501543
 30
0.0
 11
13.59918746355614
 21
7.106638540501543
 31
0.0
  0
LINE
  5
D427
330
1A
100
AcDbEntity
  8
TERMINALS
100
AcDbLine
 10
13.59918746355614
 20
7.106638540501543
 30
0.0
 11
13.59918746355614
 21
7.136638540501544
 31
0.0
  0
LINE
  5
D428
330
1A
100
AcDbEntity
  8
TERMINALS
100
AcDbLine
 10
13.59918746355614
 20
7.574638540501543
 30
0.0
 11
13.28218746355614
 21
7.574638540501543
 31
0.0
  0
LINE
  5
D429
330
1A
100
AcDbEntity
  8
TERMINALS
100
AcDbLine
 10
13.11018746355613
 20
7.481638540501543
 30
0.0
 11
13.28218746355614
 21
7.512638540501543
 31
0.0
  0
LINE
  5
D42A
330
1A
100
AcDbEntity
  8
TERMINALS
100
AcDbLine
 10
13.11018746355613
 20
7.481638540501543
 30
0.0
 11
13.11018746355613
 21
7.529638540501544
 31
0.0
  0
LINE
  5
D42B
330
1A
100
AcDbEntity
  8
TERMINALS
100
AcDbLine
 10
13.28218746355614
 20
7.574638540501543
 30
0.0
 11
13.28218746355614
 21
7.512638540501543
 31
0.0
  0
LINE
  5
D42C
330
1A
100
AcDbEntity
  8
TERMINALS
100
AcDbLine
 10
13.64928169697974
 20
7.604638540501544
 30
0.0
 11
13.59918746355614
 21
7.604638540501544
 31
0.0
  0
LINE
  5
D42D
330
1A
100
AcDbEntity
  8
TERMINALS
100
AcDbLine
 10
13.59918746355614
 20
7.604638540501544
 30
0.0
 11
13.59918746355614
 21
7.574638540501543
 31
0.0
  0
LINE
  5
D42F
330
1A
100
AcDbEntity
  8
TERMINALS
100
AcDbLine
 10
13.74718746355614
 20
7.421638540501543
 30
0.0
 11
13.44718746355614
 21
7.421638540501543
 31
0.0
  0
LINE
  5
D431
330
1A
100
AcDbEntity
  8
TERMINALS
100
AcDbLine
 10
13.74718746355613
 20
7.221638540501543
 30
0.0
 11
13.44718746355614
 21
7.221638540501543
 31
0.0
  0
LINE
  5
D432
330
1A
100
AcDbEntity
  8
TERMINALS
100
AcDbLine
 10
13.44718746355613
 20
7.221638540501543
 30
0.0
 11
13.44718746355614
 21
7.421638540501543
 31
0.0
  0
LINE
  5
D45B
330
1A
100
AcDbEntity
  8
TERMINALS
100
AcDbLine
 10
9.759932707181754
 20
7.334668055374621
 30
0.0
 11
9.86215794868306
 21
7.436893296875926
 31
0.0
  0
LINE
  5
D45C
330
1A
100
AcDbEntity
  8
TERMINALS
100
AcDbLine
 10
9.788216978429217
 20
7.306383784127159
 30
0.0
 11
9.89044221993052
 21
7.408609025628465
 31
0.0
  0
CIRCLE
  5
D45D
330
1A
100
AcDbEntity
  8
TERMINALS
100
AcDbCircle
 10
9.825187463556137
 20
7.371638540501542
 30
0.0
 40
0.075
  0
LINE
  5
D45E
330
1A
100
AcDbEntity
  8
TERMINALS
100
AcDbLine
 10
9.727187463556132
 20
7.576638540501543
 30
0.0
 11
10.31718746355613
 21
7.576638540501543
 31
0.0
  0
LINE
  5
D45F
330
1A
100
AcDbEntity
  8
TERMINALS
100
AcDbLine
 10
9.727187463556132
 20
7.531638540501544
 30
0.0
 11
10.31718746355613
 21
7.531638540501544
 31
0.0
  0
LINE
  5
D460
330
1A
100
AcDbEntity
  8
TERMINALS
100
AcDbLine
 10
9.727187463556132
 20
7.276638540501543
 30
0.0
 11
10.31718746355613
 21
7.276638540501543
 31
0.0
  0
LINE
  5
D461
330
1A
100
AcDbEntity
  8
TERMINALS
100
AcDbLine
 10
10.31718746355613
 20
7.596638540501543
 30
0.0
 11
9.727187463556132
 21
7.596638540501543
 31
0.0
  0
LINE
  5
D462
330
1A
100
AcDbEntity
  8
TERMINALS
100
AcDbLine
 10
9.727187463556132
 20
7.106638540501543
 30
0.0
 11
10.31718746355613
 21
7.106638540501543
 31
0.0
  0
LINE
  5
D463
330
1A
100
AcDbEntity
  8
TERMINALS
100
AcDbLine
 10
9.727187463556132
 20
7.596638540501543
 30
0.0
 11
9.727187463556132
 21
7.106638540501543
 31
0.0
  0
LINE
  5
D464
330
1A
100
AcDbEntity
  8
TERMINALS
100
AcDbLine
 10
10.15393270718175
 20
7.334668055374621
 30
0.0
 11
10.25615794868306
 21
7.436893296875926
 31
0.0
  0
LINE
  5
D465
330
1A
100
AcDbEntity
  8
TERMINALS
100
AcDbLine
 10
9.956932707181751
 20
7.334668055374621
 30
0.0
 11
10.05915794868306
 21
7.436893296875926
 31
0.0
  0
CIRCLE
  5
D466
330
1A
100
AcDbEntity
  8
TERMINALS
100
AcDbCircle
 10
10.21918746355613
 20
7.371638540501542
 30
0.0
 40
0.075
  0
CIRCLE
  5
D467
330
1A
100
AcDbEntity
  8
TERMINALS
100
AcDbCircle
 10
10.02218746355613
 20
7.371638540501542
 30
0.0
 40
0.075
  0
LINE
  5
D468
330
1A
100
AcDbEntity
  8
TERMINALS
100
AcDbLine
 10
10.31718746355613
 20
7.106638540501543
 30
0.0
 11
10.31718746355613
 21
7.596638540501543
 31
0.0
  0
LINE
  5
D469
330
1A
100
AcDbEntity
  8
TERMINALS
100
AcDbLine
 10
10.18221697842921
 20
7.306383784127159
 30
0.0
 11
10.28444221993052
 21
7.408609025628465
 31
0.0
  0
LINE
  5
D46A
330
1A
100
AcDbEntity
  8
TERMINALS
100
AcDbLine
 10
9.985216978429212
 20
7.306383784127159
 30
0.0
 11
10.08744221993052
 21
7.408609025628465
 31
0.0
  0
LINE
  5
D471
330
1A
100
AcDbEntity
  8
TERMINALS
  6
Continuous
100
AcDbLine
 10
9.534778048700603
 20
7.289642836397992
 30
0.0
 11
9.534778048700603
 21
7.215465393746543
 31
0.0
  0
LINE
  5
D472
330
1A
100
AcDbEntity
  8
TERMINALS
  6
Continuous
100
AcDbLine
 10
10.31718746355613
 20
7.215465393746542
 30
0.0
 11
10.51601054942053
 21
7.215465393746542
 31
0.0
  0
LWPOLYLINE
  5
D473
330
1A
100
AcDbEntity
  8
TERMINALS
  6
Continuous
100
AcDbPolyline
 90
        6
 70
     0
 43
0.0
 10
10.31718746355613
 20
7.191980551404087
 10
10.52042085800404
 20
7.191980551404087
 42
0.4142135623730951
 10
10.54042085800404
 20
7.211980551404087
 10
10.54042085800404
 20
7.571980551404086
 42
0.4142135623730951
 10
10.52042085800404
 20
7.591980551404086
 10
10.31718746355613
 20
7.591980551404087
  0
LINE
  5
D474
330
1A
100
AcDbEntity
  8
TERMINALS
  6
Continuous
100
AcDbLine
 10
9.727187463556132
 20
7.570425962913772
 30
0.0
 11
9.534778048700603
 21
7.570425962913772
 31
0.0
  0
LWPOLYLINE
  5
D475
330
1A
100
AcDbEntity
  8
TERMINALS
  6
Continuous
100
AcDbPolyline
 90
        6
 70
     0
 43
0.0
 10
8.718581337971897
 20
7.591980551404089
 10
8.500420858004037
 20
7.591980551404089
 42
0.4142135623730959
 10
8.480420858004036
 20
7.571980551404091
 10
8.480420858004036
 20
7.211980551404087
 42
0.4142135623730951
 10
8.500420858004037
 20
7.191980551404087
 10
8.718581337971901
 20
7.191980551404087
  0
LWPOLYLINE
  5
D478
330
1A
100
AcDbEntity
  8
TERMINALS
  6
Continuous
100
AcDbPolyline
 90
        6
 70
     0
 43
0.0
 10
10.19542085800404
 20
7.596638540501543
 10
10.19542085800404
 20
7.621980551404088
 42
0.4142135623730951
 10
10.17542085800404
 20
7.641980551404087
 10
10.11542085800403
 20
7.641980551404087
 42
0.4142135623730951
 10
10.09542085800403
 20
7.62198055140409
 10
10.09542085800403
 20
7.596638540501543
  0
LWPOLYLINE
  5
D479
330
1A
100
AcDbEntity
  8
TERMINALS
  6
Continuous
100
AcDbPolyline
 90
        6
 70
     0
 43
0.0
 10
9.935420858004036
 20
7.596638540501543
 10
9.935420858004036
 20
7.62198055140409
 42
0.4142135623730951
 10
9.915420858004036
 20
7.641980551404088
 10
9.855420858004032
 20
7.641980551404088
 42
0.4142135623730951
 10
9.835420858004033
 20
7.62198055140409
 10
9.835420858004036
 20
7.596638540501543
  0
LWPOLYLINE
  5
D47A
330
1A
100
AcDbEntity
  8
TERMINALS
  6
Continuous
100
AcDbPolyline
 90
        2
 70
     0
 43
0.0
 10
9.727187463556132
 20
7.591980551404089
 10
9.307729351615826
 20
7.591980551404089
  0
LINE
  5
D486
330
1A
100
AcDbEntity
  8
TERMINALS
  6
Continuous
100
AcDbLine
 10
9.53296551225674
 20
5.924489658590855
 30
0.0
 11
9.53296551225674
 21
6.041281376899535
 31
0.0
  0
LINE
  5
D487
330
1A
100
AcDbEntity
  8
TERMINALS
  6
Continuous
100
AcDbLine
 10
9.53296551225674
 20
6.205272785106636
 30
0.0
 11
9.53296551225674
 21
6.279450227758084
 31
0.0
  0
LINE
  5
D488
330
1A
100
AcDbEntity
  8
TERMINALS
  6
Continuous
100
AcDbLine
 10
9.53296551225674
 20
6.279450227758084
 30
0.0
 11
9.72537492711227
 21
6.279450227758084
 31
0.0
  0
LINE
  5
D489
330
1A
100
AcDbEntity
  8
TERMINALS
  6
Continuous
100
AcDbLine
 10
10.31537492711227
 20
6.279450227758085
 30
0.0
 11
10.51419801297666
 21
6.279450227758085
 31
0.0
  0
LINE
  5
D48A
330
1A
100
AcDbEntity
  8
TERMINALS
  6
Continuous
100
AcDbLine
 10
10.51419801297666
 20
6.279450227758085
 30
0.0
 11
10.51419801297666
 21
5.924489658590857
 31
0.0
  0
LINE
  5
D48B
330
1A
100
AcDbEntity
  8
TERMINALS
  6
Continuous
100
AcDbLine
 10
10.51419801297666
 20
5.924489658590857
 30
0.0
 11
10.31537492711227
 21
5.924489658590857
 31
0.0
  0
LINE
  5
D48C
330
1A
100
AcDbEntity
  8
TERMINALS
  6
Continuous
100
AcDbLine
 10
9.72537492711227
 20
5.924489658590855
 30
0.0
 11
9.53296551225674
 21
5.924489658590855
 31
0.0
  0
LINE
  5
D48D
330
1A
100
AcDbEntity
  8
TERMINALS
100
AcDbLine
 10
9.758120170737885
 20
6.160247566130007
 30
0.0
 11
9.860345412239194
 21
6.058022324628702
 31
0.0
  0
LINE
  5
D48E
330
1A
100
AcDbEntity
  8
TERMINALS
100
AcDbLine
 10
9.786404441985348
 20
6.188531837377468
 30
0.0
 11
9.888629683486655
 21
6.086306595876162
 31
0.0
  0
CIRCLE
  5
D48F
330
1A
100
AcDbEntity
  8
TERMINALS
100
AcDbCircle
 10
9.823374927112272
 20
6.123277081003084
 30
0.0
 40
0.075
  0
LINE
  5
D490
330
1A
100
AcDbEntity
  8
TERMINALS
100
AcDbLine
 10
9.72537492711227
 20
5.918277081003087
 30
0.0
 11
10.31537492711227
 21
5.918277081003085
 31
0.0
  0
LINE
  5
D491
330
1A
100
AcDbEntity
  8
TERMINALS
100
AcDbLine
 10
9.72537492711227
 20
5.963277081003085
 30
0.0
 11
10.31537492711227
 21
5.963277081003085
 31
0.0
  0
LINE
  5
D492
330
1A
100
AcDbEntity
  8
TERMINALS
100
AcDbLine
 10
9.72537492711227
 20
6.218277081003085
 30
0.0
 11
10.31537492711227
 21
6.218277081003085
 31
0.0
  0
LINE
  5
D493
330
1A
100
AcDbEntity
  8
TERMINALS
100
AcDbLine
 10
10.31537492711227
 20
5.898277081003085
 30
0.0
 11
9.72537492711227
 21
5.898277081003085
 31
0.0
  0
LINE
  5
D494
330
1A
100
AcDbEntity
  8
TERMINALS
100
AcDbLine
 10
9.72537492711227
 20
6.388277081003085
 30
0.0
 11
10.31537492711227
 21
6.388277081003085
 31
0.0
  0
LINE
  5
D495
330
1A
100
AcDbEntity
  8
TERMINALS
100
AcDbLine
 10
9.72537492711227
 20
5.898277081003085
 30
0.0
 11
9.72537492711227
 21
6.388277081003085
 31
0.0
  0
LINE
  5
D496
330
1A
100
AcDbEntity
  8
TERMINALS
100
AcDbLine
 10
10.15212017073789
 20
6.160247566130007
 30
0.0
 11
10.25434541223919
 21
6.058022324628702
 31
0.0
  0
LINE
  5
D497
330
1A
100
AcDbEntity
  8
TERMINALS
100
AcDbLine
 10
9.955120170737886
 20
6.160247566130007
 30
0.0
 11
10.05734541223919
 21
6.058022324628702
 31
0.0
  0
CIRCLE
  5
D498
330
1A
100
AcDbEntity
  8
TERMINALS
100
AcDbCircle
 10
10.21737492711227
 20
6.123277081003084
 30
0.0
 40
0.075
  0
CIRCLE
  5
D499
330
1A
100
AcDbEntity
  8
TERMINALS
100
AcDbCircle
 10
10.02037492711227
 20
6.123277081003084
 30
0.0
 40
0.075
  0
LINE
  5
D49A
330
1A
100
AcDbEntity
  8
TERMINALS
100
AcDbLine
 10
10.31537492711227
 20
6.388277081003085
 30
0.0
 11
10.31537492711227
 21
5.898277081003085
 31
0.0
  0
LINE
  5
D49B
330
1A
100
AcDbEntity
  8
TERMINALS
100
AcDbLine
 10
10.18040444198535
 20
6.188531837377468
 30
0.0
 11
10.28262968348665
 21
6.086306595876162
 31
0.0
  0
LINE
  5
D49C
330
1A
100
AcDbEntity
  8
TERMINALS
100
AcDbLine
 10
9.983404441985348
 20
6.188531837377468
 30
0.0
 11
10.08562968348665
 21
6.086306595876162
 31
0.0
  0
LINE
  5
D49D
330
1A
100
AcDbEntity
  8
TERMINALS
100
AcDbLine
 10
10.34912017073788
 20
6.160247566130007
 30
0.0
 11
10.45134541223919
 21
6.058022324628702
 31
0.0
  0
CIRCLE
  5
D49E
330
1A
100
AcDbEntity
  8
TERMINALS
100
AcDbCircle
 10
10.41437492711227
 20
6.123277081003084
 30
0.0
 40
0.075
  0
LINE
  5
D49F
330
1A
100
AcDbEntity
  8
TERMINALS
100
AcDbLine
 10
10.37740444198535
 20
6.188531837377468
 30
0.0
 11
10.47962968348665
 21
6.086306595876162
 31
0.0
  0
LINE
  5
D4A0
330
1A
100
AcDbEntity
  8
TERMINALS
100
AcDbLine
 10
9.56112017073789
 20
6.160247566130007
 30
0.0
 11
9.663345412239195
 21
6.058022324628702
 31
0.0
  0
LINE
  5
D4A1
330
1A
100
AcDbEntity
  8
TERMINALS
100
AcDbLine
 10
9.589404441985351
 20
6.188531837377468
 30
0.0
 11
9.691629683486656
 21
6.086306595876162
 31
0.0
  0
CIRCLE
  5
D4A2
330
1A
100
AcDbEntity
  8
TERMINALS
100
AcDbCircle
 10
9.626374927112273
 20
6.123277081003084
 30
0.0
 40
0.075
  0
LINE
  5
D4A3
330
1A
100
AcDbEntity
  8
TERMINALS
100
AcDbLine
 10
9.72537492711227
 20
6.023277081003088
 30
0.0
 11
9.566374927112272
 21
6.023277081003085
 31
0.0
  0
LINE
  5
D4A4
330
1A
100
AcDbEntity
  8
TERMINALS
100
AcDbLine
 10
9.72537492711227
 20
6.223277081003085
 30
0.0
 11
9.566374927112272
 21
6.223277081003085
 31
0.0
  0
ARC
  5
D4A5
330
1A
100
AcDbEntity
  8
TERMINALS
100
AcDbCircle
 10
9.566374927112272
 20
6.183277081003085
 30
0.0
 40
0.04
100
AcDbArc
 50
90.00000000000026
 51
180.0
  0
LINE
  5
D4A6
330
1A
100
AcDbEntity
  8
TERMINALS
100
AcDbLine
 10
9.526374927112273
 20
6.183277081003085
 30
0.0
 11
9.526374927112273
 21
6.063277081003085
 31
0.0
  0
ARC
  5
D4A7
330
1A
100
AcDbEntity
  8
TERMINALS
100
AcDbCircle
 10
9.566374927112272
 20
6.063277081003085
 30
0.0
 40
0.04
100
AcDbArc
 50
179.9999999999995
 51
270.0000000000004
  0
LINE
  5
D4A8
330
1A
100
AcDbEntity
  8
TERMINALS
100
AcDbLine
 10
9.843374927112272
 20
5.898277081003085
 30
0.0
 11
9.843374927112272
 21
5.868277081003085
 31
0.0
  0
LINE
  5
D4A9
330
1A
100
AcDbEntity
  8
TERMINALS
100
AcDbLine
 10
9.843374927112272
 20
5.868277081003085
 30
0.0
 11
9.923374927112268
 21
5.868277081003085
 31
0.0
  0
LINE
  5
D4AA
330
1A
100
AcDbEntity
  8
TERMINALS
100
AcDbLine
 10
9.923374927112268
 20
5.868277081003085
 30
0.0
 11
9.923374927112268
 21
5.898277081003085
 31
0.0
  0
LINE
  5
D4AB
330
1A
100
AcDbEntity
  8
TERMINALS
100
AcDbLine
 10
10.10337492711227
 20
5.898277081003085
 30
0.0
 11
10.10337492711227
 21
5.868277081003085
 31
0.0
  0
LINE
  5
D4AC
330
1A
100
AcDbEntity
  8
TERMINALS
100
AcDbLine
 10
10.10337492711227
 20
5.868277081003085
 30
0.0
 11
10.18337492711227
 21
5.868277081003085
 31
0.0
  0
LINE
  5
D4AD
330
1A
100
AcDbEntity
  8
TERMINALS
100
AcDbLine
 10
10.18337492711227
 20
5.868277081003085
 30
0.0
 11
10.18337492711227
 21
5.898277081003085
 31
0.0
  0
LINE
  5
D4AE
330
1A
100
AcDbEntity
  8
TERMINALS
100
AcDbLine
 10
10.31637492711227
 20
6.023277081003088
 30
0.0
 11
10.47537492711227
 21
6.023277081003085
 31
0.0
  0
LINE
  5
D4AF
330
1A
100
AcDbEntity
  8
TERMINALS
100
AcDbLine
 10
10.31637492711227
 20
6.223277081003085
 30
0.0
 11
10.47537492711227
 21
6.223277081003085
 31
0.0
  0
ARC
  5
D4B0
330
1A
100
AcDbEntity
  8
TERMINALS
100
AcDbCircle
 10
10.47537492711227
 20
6.183277081003085
 30
0.0
 40
0.04
100
AcDbArc
 50
0.0
 51
89.99999999999976
  0
LINE
  5
D4B1
330
1A
100
AcDbEntity
  8
TERMINALS
100
AcDbLine
 10
10.51537492711227
 20
6.183277081003085
 30
0.0
 11
10.51537492711227
 21
6.063277081003085
 31
0.0
  0
ARC
  5
D4B2
330
1A
100
AcDbEntity
  8
TERMINALS
100
AcDbCircle
 10
10.47537492711227
 20
6.063277081003085
 30
0.0
 40
0.04
100
AcDbArc
 50
269.9999999999997
 51
0.0000000000005229
  0
LINE
  5
D533
330
1A
100
AcDbEntity
  8
TERMINALS
  6
Continuous
100
AcDbLine
 10
7.735628467651012
 20
5.754485224187321
 30
0.0
 11
8.09058903681824
 21
5.754485224187321
 31
0.0
  0
LINE
  5
D534
330
1A
100
AcDbEntity
  8
TERMINALS
  6
Continuous
100
AcDbLine
 10
8.09058903681824
 20
5.754485224187321
 30
0.0
 11
8.09058903681824
 21
5.958288513458612
 31
0.0
  0
LINE
  5
D535
330
1A
100
AcDbEntity
  8
TERMINALS
  6
Continuous
100
AcDbLine
 10
8.09058903681824
 20
6.548288513458612
 30
0.0
 11
8.09058903681824
 21
6.735717724907241
 31
0.0
  0
LINE
  5
D536
330
1A
100
AcDbEntity
  8
TERMINALS
  6
Continuous
100
AcDbLine
 10
8.09058903681824
 20
6.735717724907241
 30
0.0
 11
8.023530119561996
 21
6.735717724907241
 31
0.0
  0
LINE
  5
D537
330
1A
100
AcDbEntity
  8
TERMINALS
  6
Continuous
100
AcDbLine
 10
7.845301660564483
 20
6.735717724907241
 30
0.0
 11
7.735628467651013
 21
6.735717724907241
 31
0.0
  0
LINE
  5
D538
330
1A
100
AcDbEntity
  8
TERMINALS
  6
Continuous
100
AcDbLine
 10
7.735628467651013
 20
6.735717724907241
 30
0.0
 11
7.735628467651013
 21
6.548288513458612
 31
0.0
  0
LINE
  5
D539
330
1A
100
AcDbEntity
  8
TERMINALS
  6
Continuous
100
AcDbLine
 10
7.735628467651012
 20
5.958288513458612
 30
0.0
 11
7.735628467651012
 21
5.754485224187321
 31
0.0
  0
LINE
  5
D53A
330
1A
100
AcDbEntity
  8
TERMINALS
  6
Continuous
100
AcDbLine
 10
7.735628467651012
 20
6.783923898862031
 30
0.0
 11
7.85242018595969
 21
6.783923898862031
 31
0.0
  0
LINE
  5
D53B
330
1A
100
AcDbEntity
  8
TERMINALS
  6
Continuous
100
AcDbLine
 10
8.01641159416679
 20
6.783923898862031
 30
0.0
 11
8.09058903681824
 21
6.783923898862031
 31
0.0
  0
LINE
  5
D53C
330
1A
100
AcDbEntity
  8
TERMINALS
  6
Continuous
100
AcDbLine
 10
8.09058903681824
 20
6.783923898862031
 30
0.0
 11
8.09058903681824
 21
6.976333313717561
 31
0.0
  0
LINE
  5
D53D
330
1A
100
AcDbEntity
  8
TERMINALS
  6
Continuous
100
AcDbLine
 10
8.09058903681824
 20
7.566333313717562
 30
0.0
 11
8.09058903681824
 21
7.765156399581955
 31
0.0
  0
LINE
  5
D53E
330
1A
100
AcDbEntity
  8
TERMINALS
  6
Continuous
100
AcDbLine
 10
8.09058903681824
 20
7.765156399581955
 30
0.0
 11
7.735628467651013
 21
7.765156399581955
 31
0.0
  0
LINE
  5
D53F
330
1A
100
AcDbEntity
  8
TERMINALS
  6
Continuous
100
AcDbLine
 10
7.735628467651013
 20
7.765156399581955
 30
0.0
 11
7.735628467651013
 21
7.566333313717562
 31
0.0
  0
LINE
  5
D540
330
1A
100
AcDbEntity
  8
TERMINALS
  6
Continuous
100
AcDbLine
 10
7.735628467651012
 20
6.976333313717561
 30
0.0
 11
7.735628467651012
 21
6.783923898862031
 31
0.0
  0
LINE
  5
D541
330
1A
100
AcDbEntity
  8
TERMINALS
100
AcDbLine
 10
7.97138637519016
 20
7.009078557343181
 30
0.0
 11
7.869161133688855
 21
7.111303798844486
 31
0.0
  0
LINE
  5
D542
330
1A
100
AcDbEntity
  8
TERMINALS
100
AcDbLine
 10
7.99967064643762
 20
7.037362828590642
 30
0.0
 11
7.897445404936315
 21
7.139588070091947
 31
0.0
  0
CIRCLE
  5
D543
330
1A
100
AcDbEntity
  8
TERMINALS
100
AcDbCircle
 10
7.934415890063236
 20
7.074333313717562
 30
0.0
 40
0.075
  0
LINE
  5
D544
330
1A
100
AcDbEntity
  8
TERMINALS
100
AcDbLine
 10
7.729415890063242
 20
6.976333313717561
 30
0.0
 11
7.72941589006324
 21
7.566333313717562
 31
0.0
  0
LINE
  5
D545
330
1A
100
AcDbEntity
  8
TERMINALS
100
AcDbLine
 10
7.774415890063236
 20
6.976333313717561
 30
0.0
 11
7.774415890063236
 21
7.566333313717562
 31
0.0
  0
LINE
  5
D546
330
1A
100
AcDbEntity
  8
TERMINALS
100
AcDbLine
 10
8.029415890063241
 20
6.976333313717561
 30
0.0
 11
8.029415890063241
 21
7.566333313717562
 31
0.0
  0
LINE
  5
D547
330
1A
100
AcDbEntity
  8
TERMINALS
100
AcDbLine
 10
7.70941589006324
 20
7.566333313717562
 30
0.0
 11
7.70941589006324
 21
6.976333313717561
 31
0.0
  0
LINE
  5
D548
330
1A
100
AcDbEntity
  8
TERMINALS
100
AcDbLine
 10
8.199415890063237
 20
6.976333313717561
 30
0.0
 11
8.199415890063237
 21
7.566333313717562
 31
0.0
  0
LINE
  5
D549
330
1A
100
AcDbEntity
  8
TERMINALS
100
AcDbLine
 10
7.70941589006324
 20
6.976333313717561
 30
0.0
 11
8.199415890063237
 21
6.976333313717561
 31
0.0
  0
LINE
  5
D54A
330
1A
100
AcDbEntity
  8
TERMINALS
100
AcDbLine
 10
7.97138637519016
 20
7.403078557343178
 30
0.0
 11
7.869161133688855
 21
7.505303798844482
 31
0.0
  0
LINE
  5
D54B
330
1A
100
AcDbEntity
  8
TERMINALS
100
AcDbLine
 10
7.97138637519016
 20
7.20607855734318
 30
0.0
 11
7.869161133688855
 21
7.308303798844485
 31
0.0
  0
CIRCLE
  5
D54C
330
1A
100
AcDbEntity
  8
TERMINALS
100
AcDbCircle
 10
7.934415890063236
 20
7.468333313717561
 30
0.0
 40
0.075
  0
CIRCLE
  5
D54D
330
1A
100
AcDbEntity
  8
TERMINALS
100
AcDbCircle
 10
7.934415890063236
 20
7.271333313717561
 30
0.0
 40
0.075
  0
LINE
  5
D54E
330
1A
100
AcDbEntity
  8
TERMINALS
100
AcDbLine
 10
8.199415890063237
 20
7.566333313717562
 30
0.0
 11
7.70941589006324
 21
7.566333313717562
 31
0.0
  0
LINE
  5
D54F
330
1A
100
AcDbEntity
  8
TERMINALS
100
AcDbLine
 10
7.99967064643762
 20
7.431362828590639
 30
0.0
 11
7.897445404936315
 21
7.533588070091944
 31
0.0
  0
LINE
  5
D550
330
1A
100
AcDbEntity
  8
TERMINALS
100
AcDbLine
 10
7.99967064643762
 20
7.234362828590641
 30
0.0
 11
7.897445404936315
 21
7.336588070091946
 31
0.0
  0
LINE
  5
D551
330
1A
100
AcDbEntity
  8
TERMINALS
100
AcDbLine
 10
7.97138637519016
 20
7.600078557343177
 30
0.0
 11
7.869161133688855
 21
7.702303798844482
 31
0.0
  0
CIRCLE
  5
D552
330
1A
100
AcDbEntity
  8
TERMINALS
100
AcDbCircle
 10
7.934415890063236
 20
7.665333313717559
 30
0.0
 40
0.075
  0
LINE
  5
D553
330
1A
100
AcDbEntity
  8
TERMINALS
100
AcDbLine
 10
7.99967064643762
 20
7.628362828590638
 30
0.0
 11
7.897445404936315
 21
7.730588070091943
 31
0.0
  0
LINE
  5
D554
330
1A
100
AcDbEntity
  8
TERMINALS
100
AcDbLine
 10
7.97138637519016
 20
6.812078557343181
 30
0.0
 11
7.869161133688855
 21
6.914303798844486
 31
0.0
  0
LINE
  5
D555
330
1A
100
AcDbEntity
  8
TERMINALS
100
AcDbLine
 10
7.99967064643762
 20
6.840362828590642
 30
0.0
 11
7.897445404936315
 21
6.942588070091947
 31
0.0
  0
CIRCLE
  5
D556
330
1A
100
AcDbEntity
  8
TERMINALS
100
AcDbCircle
 10
7.934415890063236
 20
6.877333313717563
 30
0.0
 40
0.075
  0
LINE
  5
D557
330
1A
100
AcDbEntity
  8
TERMINALS
100
AcDbLine
 10
7.83441589006324
 20
6.976333313717561
 30
0.0
 11
7.83441589006324
 21
6.817333313717563
 31
0.0
  0
LINE
  5
D558
330
1A
100
AcDbEntity
  8
TERMINALS
100
AcDbLine
 10
8.03441589006324
 20
6.976333313717561
 30
0.0
 11
8.03441589006324
 21
6.817333313717563
 31
0.0
  0
ARC
  5
D559
330
1A
100
AcDbEntity
  8
TERMINALS
100
AcDbCircle
 10
7.994415890063237
 20
6.817333313717561
 30
0.0
 40
0.04
100
AcDbArc
 50
270.0
 51
359.9999999999997
  0
LINE
  5
D55A
330
1A
100
AcDbEntity
  8
TERMINALS
100
AcDbLine
 10
7.99441589006324
 20
6.777333313717565
 30
0.0
 11
7.874415890063238
 21
6.777333313717565
 31
0.0
  0
ARC
  5
D55B
330
1A
100
AcDbEntity
  8
TERMINALS
100
AcDbCircle
 10
7.874415890063238
 20
6.817333313717561
 30
0.0
 40
0.04
100
AcDbArc
 50
179.9999999999996
 51
270.0000000000005
  0
LINE
  5
D55C
330
1A
100
AcDbEntity
  8
TERMINALS
100
AcDbLine
 10
7.70941589006324
 20
7.094333313717561
 30
0.0
 11
7.679415890063241
 21
7.094333313717561
 31
0.0
  0
LINE
  5
D55D
330
1A
100
AcDbEntity
  8
TERMINALS
100
AcDbLine
 10
7.679415890063241
 20
7.094333313717561
 30
0.0
 11
7.679415890063241
 21
7.174333313717561
 31
0.0
  0
LINE
  5
D55E
330
1A
100
AcDbEntity
  8
TERMINALS
100
AcDbLine
 10
7.679415890063241
 20
7.174333313717561
 30
0.0
 11
7.70941589006324
 21
7.174333313717561
 31
0.0
  0
LINE
  5
D55F
330
1A
100
AcDbEntity
  8
TERMINALS
100
AcDbLine
 10
7.70941589006324
 20
7.354333313717561
 30
0.0
 11
7.679415890063241
 21
7.354333313717561
 31
0.0
  0
LINE
  5
D560
330
1A
100
AcDbEntity
  8
TERMINALS
100
AcDbLine
 10
7.679415890063241
 20
7.354333313717561
 30
0.0
 11
7.679415890063241
 21
7.434333313717561
 31
0.0
  0
LINE
  5
D561
330
1A
100
AcDbEntity
  8
TERMINALS
100
AcDbLine
 10
7.679415890063241
 20
7.434333313717561
 30
0.0
 11
7.70941589006324
 21
7.434333313717561
 31
0.0
  0
LINE
  5
D562
330
1A
100
AcDbEntity
  8
TERMINALS
100
AcDbLine
 10
7.83441589006324
 20
7.567333313717561
 30
0.0
 11
7.83441589006324
 21
7.726333313717561
 31
0.0
  0
LINE
  5
D563
330
1A
100
AcDbEntity
  8
TERMINALS
100
AcDbLine
 10
8.03441589006324
 20
7.567333313717561
 30
0.0
 11
8.03441589006324
 21
7.726333313717561
 31
0.0
  0
ARC
  5
D564
330
1A
100
AcDbEntity
  8
TERMINALS
100
AcDbCircle
 10
7.994415890063237
 20
7.726333313717559
 30
0.0
 40
0.04
100
AcDbArc
 50
0.0000000000002398
 51
90.00000000000005
  0
LINE
  5
D565
330
1A
100
AcDbEntity
  8
TERMINALS
100
AcDbLine
 10
7.99441589006324
 20
7.766333313717559
 30
0.0
 11
7.874415890063238
 21
7.766333313717559
 31
0.0
  0
ARC
  5
D566
330
1A
100
AcDbEntity
  8
TERMINALS
100
AcDbCircle
 10
7.874415890063238
 20
7.726333313717559
 30
0.0
 40
0.04
100
AcDbArc
 50
89.99999999999952
 51
180.0000000000004
  0
LINE
  5
D567
330
1A
100
AcDbEntity
  8
TERMINALS
100
AcDbLine
 10
7.97138637519016
 20
6.582033757084229
 30
0.0
 11
7.869161133688855
 21
6.684258998585534
 31
0.0
  0
CIRCLE
  5
D568
330
1A
100
AcDbEntity
  8
TERMINALS
100
AcDbCircle
 10
7.934415890063236
 20
6.647288513458612
 30
0.0
 40
0.075
  0
LINE
  5
D569
330
1A
100
AcDbEntity
  8
TERMINALS
100
AcDbLine
 10
7.99967064643762
 20
6.610318028331691
 30
0.0
 11
7.897445404936315
 21
6.712543269832996
 31
0.0
  0
LINE
  5
D56A
330
1A
100
AcDbEntity
  8
TERMINALS
100
AcDbLine
 10
7.97138637519016
 20
5.794033757084232
 30
0.0
 11
7.869161133688855
 21
5.896258998585537
 31
0.0
  0
LINE
  5
D56B
330
1A
100
AcDbEntity
  8
TERMINALS
100
AcDbLine
 10
7.99967064643762
 20
5.822318028331693
 30
0.0
 11
7.897445404936315
 21
5.924543269832998
 31
0.0
  0
CIRCLE
  5
D56C
330
1A
100
AcDbEntity
  8
TERMINALS
100
AcDbCircle
 10
7.934415890063236
 20
5.859288513458615
 30
0.0
 40
0.075
  0
LINE
  5
D56D
330
1A
100
AcDbEntity
  8
TERMINALS
100
AcDbLine
 10
7.83441589006324
 20
5.958288513458612
 30
0.0
 11
7.83441589006324
 21
5.799288513458615
 31
0.0
  0
LINE
  5
D56E
330
1A
100
AcDbEntity
  8
TERMINALS
100
AcDbLine
 10
8.03441589006324
 20
5.958288513458612
 30
0.0
 11
8.03441589006324
 21
5.799288513458615
 31
0.0
  0
ARC
  5
D56F
330
1A
100
AcDbEntity
  8
TERMINALS
100
AcDbCircle
 10
7.994415890063237
 20
5.799288513458613
 30
0.0
 40
0.04
100
AcDbArc
 50
270.0
 51
359.9999999999997
  0
LINE
  5
D570
330
1A
100
AcDbEntity
  8
TERMINALS
100
AcDbLine
 10
7.99441589006324
 20
5.759288513458616
 30
0.0
 11
7.874415890063238
 21
5.759288513458616
 31
0.0
  0
ARC
  5
D571
330
1A
100
AcDbEntity
  8
TERMINALS
100
AcDbCircle
 10
7.874415890063238
 20
5.799288513458613
 30
0.0
 40
0.04
100
AcDbArc
 50
179.9999999999996
 51
270.0000000000005
  0
LINE
  5
D572
330
1A
100
AcDbEntity
  8
TERMINALS
100
AcDbLine
 10
7.70941589006324
 20
6.076288513458615
 30
0.0
 11
7.679415890063241
 21
6.076288513458615
 31
0.0
  0
LINE
  5
D573
330
1A
100
AcDbEntity
  8
TERMINALS
100
AcDbLine
 10
7.679415890063241
 20
6.076288513458615
 30
0.0
 11
7.679415890063241
 21
6.156288513458615
 31
0.0
  0
LINE
  5
D574
330
1A
100
AcDbEntity
  8
TERMINALS
100
AcDbLine
 10
7.679415890063241
 20
6.156288513458615
 30
0.0
 11
7.70941589006324
 21
6.156288513458615
 31
0.0
  0
LINE
  5
D575
330
1A
100
AcDbEntity
  8
TERMINALS
100
AcDbLine
 10
7.70941589006324
 20
6.336288513458613
 30
0.0
 11
7.679415890063241
 21
6.336288513458613
 31
0.0
  0
LINE
  5
D576
330
1A
100
AcDbEntity
  8
TERMINALS
100
AcDbLine
 10
7.679415890063241
 20
6.336288513458613
 30
0.0
 11
7.679415890063241
 21
6.416288513458613
 31
0.0
  0
LINE
  5
D577
330
1A
100
AcDbEntity
  8
TERMINALS
100
AcDbLine
 10
7.679415890063241
 20
6.416288513458613
 30
0.0
 11
7.70941589006324
 21
6.416288513458613
 31
0.0
  0
LINE
  5
D578
330
1A
100
AcDbEntity
  8
TERMINALS
100
AcDbLine
 10
7.83441589006324
 20
6.549288513458613
 30
0.0
 11
7.83441589006324
 21
6.708288513458612
 31
0.0
  0
LINE
  5
D579
330
1A
100
AcDbEntity
  8
TERMINALS
100
AcDbLine
 10
8.03441589006324
 20
6.549288513458613
 30
0.0
 11
8.03441589006324
 21
6.708288513458612
 31
0.0
  0
ARC
  5
D57A
330
1A
100
AcDbEntity
  8
TERMINALS
100
AcDbCircle
 10
7.994415890063237
 20
6.708288513458612
 30
0.0
 40
0.04
100
AcDbArc
 50
0.0000000000002398
 51
90.00000000000005
  0
LINE
  5
D57B
330
1A
100
AcDbEntity
  8
TERMINALS
100
AcDbLine
 10
7.99441589006324
 20
6.748288513458612
 30
0.0
 11
7.874415890063238
 21
6.748288513458612
 31
0.0
  0
ARC
  5
D57C
330
1A
100
AcDbEntity
  8
TERMINALS
100
AcDbCircle
 10
7.874415890063238
 20
6.708288513458612
 30
0.0
 40
0.04
100
AcDbArc
 50
89.99999999999952
 51
180.0000000000004
  0
LINE
  5
D57D
330
1A
100
AcDbEntity
  8
TERMINALS
100
AcDbLine
 10
7.97138637519016
 20
5.991033757084232
 30
0.0
 11
7.869161133688855
 21
6.093258998585537
 31
0.0
  0
LINE
  5
D57E
330
1A
100
AcDbEntity
  8
TERMINALS
100
AcDbLine
 10
7.99967064643762
 20
6.019318028331691
 30
0.0
 11
7.897445404936315
 21
6.121543269832997
 31
0.0
  0
CIRCLE
  5
D57F
330
1A
100
AcDbEntity
  8
TERMINALS
100
AcDbCircle
 10
7.934415890063236
 20
6.056288513458612
 30
0.0
 40
0.075
  0
LINE
  5
D580
330
1A
100
AcDbEntity
  8
TERMINALS
100
AcDbLine
 10
7.729415890063242
 20
5.958288513458612
 30
0.0
 11
7.72941589006324
 21
6.548288513458612
 31
0.0
  0
LINE
  5
D581
330
1A
100
AcDbEntity
  8
TERMINALS
100
AcDbLine
 10
7.774415890063236
 20
5.958288513458612
 30
0.0
 11
7.774415890063236
 21
6.548288513458612
 31
0.0
  0
LINE
  5
D582
330
1A
100
AcDbEntity
  8
TERMINALS
100
AcDbLine
 10
8.029415890063241
 20
5.958288513458612
 30
0.0
 11
8.029415890063241
 21
6.548288513458612
 31
0.0
  0
LINE
  5
D583
330
1A
100
AcDbEntity
  8
TERMINALS
100
AcDbLine
 10
7.70941589006324
 20
6.548288513458612
 30
0.0
 11
7.70941589006324
 21
5.958288513458612
 31
0.0
  0
LINE
  5
D584
330
1A
100
AcDbEntity
  8
TERMINALS
100
AcDbLine
 10
8.199415890063237
 20
5.958288513458612
 30
0.0
 11
8.199844710264576
 21
6.548288513458615
 31
0.0
  0
LINE
  5
D585
330
1A
100
AcDbEntity
  8
TERMINALS
100
AcDbLine
 10
7.70941589006324
 20
5.958288513458612
 30
0.0
 11
8.199415890063237
 21
5.958288513458612
 31
0.0
  0
LINE
  5
D586
330
1A
100
AcDbEntity
  8
TERMINALS
100
AcDbLine
 10
7.97138637519016
 20
6.385033757084229
 30
0.0
 11
7.869161133688855
 21
6.487258998585534
 31
0.0
  0
LINE
  5
D587
330
1A
100
AcDbEntity
  8
TERMINALS
100
AcDbLine
 10
7.97138637519016
 20
6.188033757084231
 30
0.0
 11
7.869161133688855
 21
6.290258998585536
 31
0.0
  0
CIRCLE
  5
D588
330
1A
100
AcDbEntity
  8
TERMINALS
100
AcDbCircle
 10
7.934415890063236
 20
6.450288513458612
 30
0.0
 40
0.075
  0
CIRCLE
  5
D589
330
1A
100
AcDbEntity
  8
TERMINALS
100
AcDbCircle
 10
7.934415890063236
 20
6.253288513458612
 30
0.0
 40
0.075
  0
LINE
  5
D58A
330
1A
100
AcDbEntity
  8
TERMINALS
100
AcDbLine
 10
8.199844710264576
 20
6.548288513458615
 30
0.0
 11
7.70941589006324
 21
6.548288513458612
 31
0.0
  0
LINE
  5
D58B
330
1A
100
AcDbEntity
  8
TERMINALS
100
AcDbLine
 10
7.99967064643762
 20
6.413318028331691
 30
0.0
 11
7.897445404936315
 21
6.515543269832996
 31
0.0
  0
LINE
  5
D58C
330
1A
100
AcDbEntity
  8
TERMINALS
100
AcDbLine
 10
7.99967064643762
 20
6.216318028331691
 30
0.0
 11
7.897445404936315
 21
6.318543269832997
 31
0.0
  0
LWPOLYLINE
  5
D58D
330
1A
100
AcDbEntity
  8
TERMINALS
  6
Continuous
100
AcDbPolyline
 90
        6
 70
     0
 43
0.0
 10
7.70941589006324
 20
7.441980551404088
 10
7.684332477629435
 20
7.441980551404088
 42
0.4142135623730951
 10
7.664332477629436
 20
7.421980551404089
 10
7.664332477629436
 20
7.361980551404087
 42
0.4142135623730951
 10
7.684332477629435
 20
7.341980551404087
 10
7.70941589006324
 20
7.341980551404087
  0
LWPOLYLINE
  5
D58E
330
1A
100
AcDbEntity
  8
TERMINALS
  6
Continuous
100
AcDbPolyline
 90
        6
 70
     0
 43
0.0
 10
7.70941589006324
 20
7.181980551404087
 10
7.684332477629435
 20
7.181980551404087
 42
0.4142135623730951
 10
7.664332477629436
 20
7.161980551404087
 10
7.664332477629436
 20
7.101980551404086
 42
0.4142135623730951
 10
7.684332477629435
 20
7.081980551404086
 10
7.70941589006324
 20
7.081980551404087
  0
LWPOLYLINE
  5
D58F
330
1A
100
AcDbEntity
  8
TERMINALS
  6
Continuous
100
AcDbPolyline
 90
        2
 70
     0
 43
0.0
 10
7.714332477629437
 20
6.976333313717561
 10
7.714332477629437
 20
6.548288513458612
  0
LWPOLYLINE
  5
D590
330
1A
100
AcDbEntity
  8
TERMINALS
  6
Continuous
100
AcDbPolyline
 90
        2
 70
     0
 43
0.0
 10
8.114332477629437
 20
6.548288513458616
 10
8.114332477629437
 20
6.976333313717559
  0
LWPOLYLINE
  5
D591
330
1A
100
AcDbEntity
  8
TERMINALS
  6
Continuous
100
AcDbPolyline
 90
        6
 70
     0
 43
0.0
 10
7.70941589006324
 20
6.161980551404087
 10
7.684332477629435
 20
6.161980551404087
 42
0.4142135623730951
 10
7.664332477629436
 20
6.141980551404087
 10
7.664332477629436
 20
6.081980551404086
 42
0.4142135623730951
 10
7.684332477629435
 20
6.061980551404086
 10
7.70941589006324
 20
6.061980551404087
  0
LWPOLYLINE
  5
D592
330
1A
100
AcDbEntity
  8
TERMINALS
  6
Continuous
100
AcDbPolyline
 90
        6
 70
     0
 43
0.0
 10
7.714332477629435
 20
5.958288513458612
 10
7.714332477629432
 20
5.736980551404087
 42
0.4142135623730959
 10
7.734332477629433
 20
5.716980551404087
 10
8.094332477629437
 20
5.716980551404087
 42
0.4142135623730951
 10
8.114332477629437
 20
5.736980551404088
 10
8.114332477629437
 20
5.958288513458612
  0
LWPOLYLINE
  5
D593
330
1A
100
AcDbEntity
  8
TERMINALS
  6
Continuous
100
AcDbPolyline
 90
        6
 70
     0
 43
0.0
 10
7.70941589006324
 20
6.421980551404087
 10
7.684332477629435
 20
6.421980551404087
 42
0.4142135623730951
 10
7.664332477629436
 20
6.401980551404087
 10
7.664332477629436
 20
6.341980551404087
 42
0.4142135623730951
 10
7.684332477629435
 20
6.321980551404087
 10
7.70941589006324
 20
6.321980551404087
  0
LWPOLYLINE
  5
D595
330
1A
100
AcDbEntity
  8
TERMINALS
  6
Continuous
100
AcDbPolyline
 90
        6
 70
     0
 43
0.0
 10
8.716768801528031
 20
5.901980551404081
 10
8.500420858004037
 20
5.901980551404081
 42
-0.4142135623730959
 10
8.480420858004036
 20
5.921980551404081
 10
8.480420858004036
 20
6.281980551404084
 42
-0.4142135623730951
 10
8.500420858004037
 20
6.301980551404081
 10
8.716768801528031
 20
6.301980551404081
  0
LWPOLYLINE
  5
D597
330
1A
100
AcDbEntity
  8
TERMINALS
  6
Continuous
100
AcDbPolyline
 90
        6
 70
     0
 43
0.0
 10
10.31537492711227
 20
6.301980551404081
 10
10.52042085800404
 20
6.301980551404081
 42
-0.4142135623730951
 10
10.54042085800404
 20
6.281980551404084
 10
10.54042085800404
 20
5.921980551404083
 42
-0.4142135623730951
 10
10.52042085800404
 20
5.901980551404085
 10
10.31537492711227
 20
5.901980551404084
  0
LWPOLYLINE
  5
D598
330
1A
100
AcDbEntity
  8
TERMINALS
  6
Continuous
100
AcDbPolyline
 90
        2
 70
     0
 43
0.0
 10
9.72537492711227
 20
5.901980551404081
 10
9.30591681517196
 20
5.901980551404081
  0
LWPOLYLINE
  5
D599
330
1A
100
AcDbEntity
  8
TERMINALS
  6
Continuous
100
AcDbPolyline
 90
        6
 70
     0
 43
0.0
 10
9.935420858004036
 20
5.898277081003085
 10
9.935420858004036
 20
5.881980551404081
 42
-0.3249358518977221
 10
9.915420858004036
 20
5.851980551404081
 10
9.855420858004032
 20
5.851980551404081
 42
-0.3249358518977221
 10
9.835420858004033
 20
5.881980551404081
 10
9.835420858004033
 20
5.898277081003085
  0
LWPOLYLINE
  5
D59A
330
1A
100
AcDbEntity
  8
TERMINALS
  6
Continuous
100
AcDbPolyline
 90
        6
 70
     0
 43
0.0
 10
10.19542085800404
 20
5.898277081003085
 10
10.19542085800404
 20
5.881980551404081
 42
-0.3249358518977221
 10
10.17542085800404
 20
5.851980551404081
 10
10.11542085800403
 20
5.851980551404081
 42
-0.3249358518977221
 10
10.09542085800403
 20
5.881980551404081
 10
10.09542085800403
 20
5.898277081003085
  0
LINE
  5
D59E
330
1A
100
AcDbEntity
  8
TERMINALS
100
AcDbLine
 10
13.06537492711227
 20
6.388277081003085
 30
0.0
 11
13.11037492711227
 21
6.388277081003085
 31
0.0
  0
LINE
  5
D59F
330
1A
100
AcDbEntity
  8
TERMINALS
100
AcDbLine
 10
13.05137492711227
 20
5.965277081003085
 30
0.0
 11
13.11037492711227
 21
5.965277081003081
 31
0.0
  0
LINE
  5
D5A0
330
1A
100
AcDbEntity
  8
TERMINALS
100
AcDbLine
 10
13.05137492711227
 20
5.965277081003085
 30
0.0
 11
13.05137492711227
 21
6.230277081003084
 31
0.0
  0
LINE
  5
D5A1
330
1A
100
AcDbEntity
  8
TERMINALS
100
AcDbLine
 10
13.06537492711227
 20
6.388277081003085
 30
0.0
 11
13.06537492711227
 21
6.230277081003084
 31
0.0
  0
LINE
  5
D5A2
330
1A
100
AcDbEntity
  8
TERMINALS
100
AcDbLine
 10
13.05137492711227
 20
6.230277081003084
 30
0.0
 11
13.06537492711227
 21
6.230277081003084
 31
0.0
  0
LINE
  5
D5A4
330
1A
100
AcDbEntity
  8
TERMINALS
100
AcDbLine
 10
13.59937492711227
 20
6.358277081003085
 30
0.0
 11
13.11037492711227
 21
6.358277081003087
 31
0.0
  0
LINE
  5
D5A5
330
1A
100
AcDbEntity
  8
TERMINALS
100
AcDbLine
 10
13.11037492711227
 20
6.388277081003085
 30
0.0
 11
13.11037492711227
 21
6.358277081003087
 31
0.0
  0
LINE
  5
D5A6
330
1A
100
AcDbEntity
  8
TERMINALS
100
AcDbLine
 10
13.74737492711227
 20
6.388277081003085
 30
0.0
 11
13.74737492711228
 21
6.073277081003085
 31
0.0
  0
LINE
  5
D5A7
330
1A
100
AcDbEntity
  8
TERMINALS
100
AcDbLine
 10
13.74737492711227
 20
6.388277081003085
 30
0.0
 11
13.59937492711227
 21
6.388277081003085
 31
0.0
  0
LINE
  5
D5A8
330
1A
100
AcDbEntity
  8
TERMINALS
100
AcDbLine
 10
13.59937492711227
 20
6.388277081003085
 30
0.0
 11
13.59937492711227
 21
6.358277081003085
 31
0.0
  0
LINE
  5
D5A9
330
1A
100
AcDbEntity
  8
TERMINALS
100
AcDbLine
 10
13.59937492711227
 20
5.920277081003085
 30
0.0
 11
13.28237492711227
 21
5.920277081003085
 31
0.0
  0
LINE
  5
D5AA
330
1A
100
AcDbEntity
  8
TERMINALS
100
AcDbLine
 10
13.11037492711227
 20
6.013277081003087
 30
0.0
 11
13.28237492711227
 21
5.982277081003084
 31
0.0
  0
LINE
  5
D5AB
330
1A
100
AcDbEntity
  8
TERMINALS
100
AcDbLine
 10
13.11037492711227
 20
6.013277081003087
 30
0.0
 11
13.11037492711227
 21
5.965277081003081
 31
0.0
  0
LINE
  5
D5AC
330
1A
100
AcDbEntity
  8
TERMINALS
100
AcDbLine
 10
13.28237492711227
 20
5.920277081003085
 30
0.0
 11
13.28237492711227
 21
5.982277081003084
 31
0.0
  0
LINE
  5
D5AD
330
1A
100
AcDbEntity
  8
TERMINALS
100
AcDbLine
 10
13.64928169697974
 20
5.890277081003085
 30
0.0
 11
13.59937492711227
 21
5.890277081003085
 31
0.0
  0
LINE
  5
D5AE
330
1A
100
AcDbEntity
  8
TERMINALS
100
AcDbLine
 10
13.59937492711227
 20
5.890277081003085
 30
0.0
 11
13.59937492711227
 21
5.920277081003085
 31
0.0
  0
LINE
  5
D5B5
330
1A
100
AcDbEntity
  8
TERMINALS
100
AcDbLine
 10
13.74737492711228
 20
6.073277081003085
 30
0.0
 11
13.44737492711227
 21
6.073277081003085
 31
0.0
  0
LINE
  5
D5B6
330
1A
100
AcDbEntity
  8
TERMINALS
100
AcDbLine
 10
13.74737492711227
 20
6.273277081003088
 30
0.0
 11
13.44737492711227
 21
6.273277081003085
 31
0.0
  0
LINE
  5
D5B7
330
1A
100
AcDbEntity
  8
TERMINALS
100
AcDbLine
 10
13.44737492711227
 20
6.273277081003085
 30
0.0
 11
13.44737492711227
 21
6.073277081003085
 31
0.0
  0
LWPOLYLINE
  5
D5BD
330
1A
100
AcDbEntity
  8
TERMINALS
100
AcDbPolyline
 90
        2
 70
     0
 43
0.0
 10
13.74672536476163
 20
7.219749652160429
 10
13.84928169697974
 20
7.219749652160429
  0
LWPOLYLINE
  5
D5C0
330
1A
100
AcDbEntity
  8
TERMINALS
100
AcDbPolyline
 90
        2
 70
     0
 43
0.0
 10
13.74672536476163
 20
7.48698055140409
 10
13.74672536476163
 20
7.219749652160429
  0
LWPOLYLINE
  5
D5C3
330
1A
100
AcDbEntity
  8
TERMINALS
100
AcDbPolyline
 90
        2
 70
     0
 43
0.0
 10
13.74672536476163
 20
6.285369372546986
 10
13.84928169697974
 20
6.285369372546986
  0
LWPOLYLINE
  5
D5C6
330
1A
100
AcDbEntity
  8
TERMINALS
100
AcDbPolyline
 90
        2
 70
     0
 43
0.0
 10
13.74672536476163
 20
6.006980551404085
 10
13.74672536476163
 20
6.285369372546986
  0
CIRCLE
  5
D5D1
330
1A
100
AcDbEntity
  8
TERMINALS
100
AcDbCircle
 10
14.30597462497974
 20
8.319197700501526
 30
0.0
 40
0.1750000000000007
  0
CIRCLE
  5
D5D2
330
1A
100
AcDbEntity
  8
TERMINALS
100
AcDbCircle
 10
10.85042085800404
 20
7.711980551404087
 30
0.0
 40
0.2249999999999979
  0
INSERT
  5
D5D3
330
1A
100
AcDbEntity
  8
TERMINALS
100
AcDbBlockReference
  2
2 PanHdPhlpSide
 10
11.30018746355613
 20
8.318460072658957
 30
0.0
 41
-1.028159999999998
 42
1.028159999999998
 43
1.028159999999998
 50
270.0
  0
LWPOLYLINE
  5
D5DD
330
1A
100
AcDbEntity
  8
TERMINALS
100
AcDbPolyline
 90
        4
 70
     0
 43
0.0
 10
10.971598722314
 20
7.901561471333477
 10
11.20109006926513
 20
8.077778041313809
 42
0.2330793649103434
 10
11.24018746355613
 20
8.157093062702282
 10
11.24018746355613
 20
8.491638540501543
  0
LWPOLYLINE
  5
D5DE
330
1A
100
AcDbEntity
  8
TERMINALS
100
AcDbPolyline
 90
        4
 70
     0
 43
0.0
 10
11.06351561743242
 20
7.784199825176128
 10
11.15289528068314
 20
7.852830638029358
 42
0.2330793649103471
 10
11.27018746355613
 20
8.090775702194775
 10
11.27018746355613
 20
8.491638540501543
  0
LINE
  5
D5E0
330
1A
100
AcDbEntity
  8
PART
100
AcDbLine
 10
11.24018746355613
 20
8.157093062702282
 30
0.0
 11
11.24018746355613
 21
8.514079596501536
 31
0.0
  0
LINE
  5
D5E1
330
1A
100
AcDbEntity
  8
PART
100
AcDbLine
 10
11.20081738355614
 20
8.077568657644402
 30
0.0
 11
11.20081738355614
 21
8.108567772501537
 31
0.0
  0
CIRCLE
  5
D5E4
330
1A
100
AcDbEntity
  8
TERMINALS
100
AcDbCircle
 10
10.85042085800404
 20
7.711980551404087
 30
0.0
 40
0.2149999999999979
  0
CIRCLE
  5
D5E6
330
1A
100
AcDbEntity
  8
TERMINALS
100
AcDbCircle
 10
10.85042085800404
 20
5.781980551404087
 30
0.0
 40
0.2249999999999979
  0
CIRCLE
  5
D5E7
330
1A
100
AcDbEntity
  8
TERMINALS
100
AcDbCircle
 10
10.85042085800404
 20
5.781980551404087
 30
0.0
 40
0.2149999999999979
  0
LINE
  5
D602
330
1A
100
AcDbEntity
  8
TERMINALS
100
AcDbLine
 10
11.27018746355613
 20
5.002322562306631
 30
0.0
 11
11.30018746355613
 21
5.002322562306631
 31
0.0
  0
LINE
  5
D603
330
1A
100
AcDbEntity
  8
TERMINALS
100
AcDbLine
 10
11.27018746355613
 20
5.352322562306635
 30
0.0
 11
11.30018746355613
 21
5.352322562306635
 31
0.0
  0
LINE
  5
D604
330
1A
100
AcDbEntity
  8
TERMINALS
100
AcDbLine
 10
11.27018746355613
 20
5.002322562306633
 30
0.0
 11
11.27018746355613
 21
5.352322562306635
 31
0.0
  0
LINE
  5
D605
330
1A
100
AcDbEntity
  8
TERMINALS
100
AcDbLine
 10
11.30018746355613
 20
5.002322562306633
 30
0.0
 11
11.30018746355613
 21
5.352322562306635
 31
0.0
  0
LINE
  5
D606
330
1A
100
AcDbEntity
  8
TERMINALS
100
AcDbLine
 10
11.24018746355613
 20
5.002322562306631
 30
0.0
 11
11.27018746355613
 21
5.002322562306631
 31
0.0
  0
INSERT
  5
D609
330
1A
100
AcDbEntity
  8
TERMINALS
100
AcDbBlockReference
  2
2 PanHdPhlpSide
 10
11.30018746355613
 20
5.175501030149217
 30
0.0
 41
1.028159999999998
 42
1.028159999999998
 43
1.028159999999998
 50
270.0
  0
LWPOLYLINE
  5
D60A
330
1A
100
AcDbEntity
  8
TERMINALS
100
AcDbPolyline
 90
        4
 70
     0
 43
0.0
 10
10.971598722314
 20
5.592399631474695
 10
11.20109006926513
 20
5.416183061494363
 42
-0.2330793649103434
 10
11.24018746355613
 20
5.336868040105891
 10
11.24018746355613
 20
5.002322562306631
  0
LWPOLYLINE
  5
D60B
330
1A
100
AcDbEntity
  8
TERMINALS
100
AcDbPolyline
 90
        4
 70
     0
 43
0.0
 10
11.06351561743242
 20
5.709761277632048
 10
11.15289528068314
 20
5.641130464778813
 42
-0.2330793649103471
 10
11.27018746355613
 20
5.403185400613398
 10
11.27018746355613
 20
5.002322562306631
  0
LINE
  5
D60C
330
1A
100
AcDbEntity
  8
PART
100
AcDbLine
 10
11.20081738355614
 20
5.595044307106659
 30
0.0
 11
11.20081738355614
 21
6.55344961250153
 31
0.0
  0
LINE
  5
D60D
330
1A
100
AcDbEntity
  8
PART
100
AcDbLine
 10
11.24018746355613
 20
5.533952368919606
 30
0.0
 11
11.24018746355613
 21
7.960008733888567
 31
0.0
  0
CIRCLE
  5
D62B
330
1A
100
AcDbEntity
  8
TERMINALS
100
AcDbCircle
 10
14.30597462497974
 20
5.181402324501511
 30
0.0
 40
0.1750000000000007
  0
MTEXT
  5
D6CF
330
1A
100
AcDbEntity
  8
TERMINALS
100
AcDbMText
 10
7.603210166033743
 20
7.465517336450539
 30
0.0
 40
0.07
 41
0.0
 71
     5
 72
     1
  1
{\fArial|b0|i0|c0|p34;+}
  7
SIMPLEX
 11
-0.0000000000000004
 21
-1.0
 31
0.0
 73
     1
 44
1.0
1001
ACAD
1000
MTEXTBEGIN
1070
    73
1070
     1
1070
    44
1040
1.0
1070
    74
1070
     0
1000
MTEXTEND
  0
MTEXT
  5
D6D0
330
1A
100
AcDbEntity
  8
TERMINALS
100
AcDbMText
 10
7.648210166033745
 20
7.063666936450543
 30
0.0
 40
0.07
 41
0.0
 71
     5
 72
     1
  1
{\fArial|b0|i0|c0|p34;_}
  7
SIMPLEX
 11
-0.0000000000000002
 21
-1.0
 31
0.0
 73
     1
 44
1.0
1001
ACAD
1000
MTEXTBEGIN
1070
    73
1070
     1
1070
    44
1040
1.0
1070
    74
1070
     0
1000
MTEXTEND
  0
MTEXT
  5
D6D1
330
1A
100
AcDbEntity
  8
TERMINALS
100
AcDbMText
 10
7.603210166033743
 20
7.271816536450543
 30
0.0
 40
0.07
 41
0.0
 71
     5
 72
     1
  1
{\fArial|b0|i0|c0|p34;S}
  7
SIMPLEX
 11
-0.0000000000000004
 21
-1.0
 31
0.0
 73
     1
 44
1.0
1001
ACAD
1000
MTEXTBEGIN
1070
    73
1070
     1
1070
    44
1040
1.0
1070
    74
1070
     0
1000
MTEXTEND
  0
MTEXT
  5
D6D2
330
1A
100
AcDbEntity
  8
TERMINALS
100
AcDbMText
 10
7.603210166033743
 20
6.44747253619159
 30
0.0
 40
0.07
 41
0.0
 71
     5
 72
     1
  1
{\fArial|b0|i0|c0|p34;+}
  7
SIMPLEX
 11
-0.0000000000000004
 21
-1.0
 31
0.0
 73
     1
 44
1.0
1001
ACAD
1000
MTEXTBEGIN
1070
    73
1070
     1
1070
    44
1040
1.0
1070
    74
1070
     0
1000
MTEXTEND
  0
MTEXT
  5
D6D3
330
1A
100
AcDbEntity
  8
TERMINALS
100
AcDbMText
 10
7.648210166033742
 20
6.045622136191593
 30
0.0
 40
0.07
 41
0.0
 71
     5
 72
     1
  1
{\fArial|b0|i0|c0|p34;_}
  7
SIMPLEX
 11
-0.0000000000000002
 21
-1.0
 31
0.0
 73
     1
 44
1.0
1001
ACAD
1000
MTEXTBEGIN
1070
    73
1070
     1
1070
    44
1040
1.0
1070
    74
1070
     0
1000
MTEXTEND
  0
MTEXT
  5
D6D4
330
1A
100
AcDbEntity
  8
TERMINALS
100
AcDbMText
 10
7.603210166033743
 20
6.253771736191592
 30
0.0
 40
0.07
 41
0.0
 71
     5
 72
     1
  1
{\fArial|b0|i0|c0|p34;S}
  7
SIMPLEX
 11
-0.0000000000000004
 21
-1.0
 31
0.0
 73
     1
 44
1.0
1001
ACAD
1000
MTEXTBEGIN
1070
    73
1070
     1
1070
    44
1040
1.0
1070
    74
1070
     0
1000
MTEXTEND
  0
MTEXT
  5
D6D5
330
1A
100
AcDbEntity
  8
TERMINALS
100
AcDbMText
 10
10.22895764305049
 20
7.728102862999786
 30
0.0
 40
0.07
 41
0.0
 71
     5
 72
     1
  1
{\fArial|b0|i0|c0|p34;+}
  7
SIMPLEX
 11
-1.0
 21
0.0000000000000006
 31
0.0
 73
     1
 44
1.0
1001
ACAD
1000
MTEXTBEGIN
1070
    73
1070
     1
1070
    44
1040
1.0
1070
    74
1070
     0
1000
MTEXTEND
  0
MTEXT
  5
D6D6
330
1A
100
AcDbEntity
  8
TERMINALS
100
AcDbMText
 10
9.827107243050491
 20
7.683102862999787
 30
0.0
 40
0.07
 41
0.0
 71
     5
 72
     1
  1
{\fArial|b0|i0|c0|p34;_}
  7
SIMPLEX
 11
-1.0
 21
0.0000000000000004
 31
0.0
 73
     1
 44
1.0
1001
ACAD
1000
MTEXTBEGIN
1070
    73
1070
     1
1070
    44
1040
1.0
1070
    74
1070
     0
1000
MTEXTEND
  0
MTEXT
  5
D6D7
330
1A
100
AcDbEntity
  8
TERMINALS
100
AcDbMText
 10
10.03525684305049
 20
7.728102862999786
 30
0.0
 40
0.07
 41
0.0
 71
     5
 72
     1
  1
{\fArial|b0|i0|c0|p34;S}
  7
SIMPLEX
 11
-1.0
 21
0.0000000000000006
 31
0.0
 73
     1
 44
1.0
1001
ACAD
1000
MTEXTBEGIN
1070
    73
1070
     1
1070
    44
1040
1.0
1070
    74
1070
     0
1000
MTEXTEND
  0
MTEXT
  5
D6DB
330
1A
100
AcDbEntity
  8
TERMINALS
100
AcDbMText
 10
9.826884072957588
 20
5.765858239808392
 30
0.0
 40
0.07
 41
0.0
 71
     5
 72
     1
  1
{\fArial|b0|i0|c0|p34;+}
  7
SIMPLEX
 73
     1
 44
1.0
1001
ACAD
1000
MTEXTBEGIN
1070
    73
1070
     1
1070
    44
1040
1.0
1070
    74
1070
     0
1000
MTEXTEND
  0
MTEXT
  5
D6DC
330
1A
100
AcDbEntity
  8
TERMINALS
100
AcDbMText
 10
10.22873447295759
 20
5.810858239808391
 30
0.0
 40
0.07
 41
0.0
 71
     5
 72
     1
  1
{\fArial|b0|i0|c0|p34;_}
  7
SIMPLEX
 73
     1
 44
1.0
1001
ACAD
1000
MTEXTBEGIN
1070
    73
1070
     1
1070
    44
1040
1.0
1070
    74
1070
     0
1000
MTEXTEND
  0
MTEXT
  5
D6DF
330
1A
100
AcDbEntity
  8
TERMINALS
100
AcDbMText
 10
10.01710724305049
 20
6.938102862999782
 30
0.0
 40
0.07
 41
0.0
 71
     5
 72
     1
  1
{\fArial|b0|i0|c0|p34;1}
  7
SIMPLEX
 11
-1.0
 21
0.0000000000000004
 31
0.0
 73
     1
 44
1.0
1001
ACAD
1000
MTEXTBEGIN
1070
    73
1070
     1
1070
    44
1040
1.0
1070
    74
1070
     0
1000
MTEXTEND
  0
MTEXT
  5
D6E1
330
1A
100
AcDbEntity
  8
TERMINALS
100
AcDbMText
 10
9.007107243050491
 20
6.938102862999782
 30
0.0
 40
0.07
 41
0.0
 71
     5
 72
     1
  1
{\fArial|b0|i0|c0|p34;3}
  7
SIMPLEX
 11
-1.0
 21
0.0000000000000004
 31
0.0
 73
     1
 44
1.0
1001
ACAD
1000
MTEXTBEGIN
1070
    73
1070
     1
1070
    44
1040
1.0
1070
    74
1070
     0
1000
MTEXTEND
  0
MTEXT
  5
D6E2
330
1A
100
AcDbEntity
  8
TERMINALS
100
AcDbMText
 10
9.003734472957589
 20
6.555858239808392
 30
0.0
 40
0.07
 41
0.0
 71
     5
 72
     1
  1
{\fArial|b0|i0|c0|p34;4}
  7
SIMPLEX
 73
     1
 44
1.0
1001
ACAD
1000
MTEXTBEGIN
1070
    73
1070
     1
1070
    44
1040
1.0
1070
    74
1070
     0
1000
MTEXTEND
  0
MTEXT
  5
D6E3
330
1A
100
AcDbEntity
  8
TERMINALS
100
AcDbMText
 10
10.01373447295758
 20
6.555858239808392
 30
0.0
 40
0.07
 41
0.0
 71
     5
 72
     1
  1
{\fArial|b0|i0|c0|p34;2}
  7
SIMPLEX
 73
     1
 44
1.0
1001
ACAD
1000
MTEXTBEGIN
1070
    73
1070
     1
1070
    44
1040
1.0
1070
    74
1070
     0
1000
MTEXTEND
  0
MTEXT
  5
D6E4
330
1A
100
AcDbEntity
  8
TERMINALS
100
AcDbMText
 10
10.02058487295759
 20
5.765858239808392
 30
0.0
 40
0.07
 41
0.0
 71
     5
 72
     1
  1
{\fArial|b0|i0|c0|p34;S}
  7
SIMPLEX
 73
     1
 44
1.0
1001
ACAD
1000
MTEXTBEGIN
1070
    73
1070
     1
1070
    44
1040
1.0
1070
    74
1070
     0
1000
MTEXTEND
  0
LINE
  5
D728
330
1A
100
AcDbEntity
  8
TERMINALS
100
AcDbLine
 10
13.64928169697974
 20
7.936980551404085
 30
0.0
 11
13.72332321640018
 21
7.936980551404085
 31
0.0
  0
LINE
  5
D729
330
1A
100
AcDbEntity
  8
TERMINALS
100
AcDbLine
 10
13.64928169697974
 20
7.48698055140409
 30
0.0
 11
13.74928169697974
 21
7.48698055140409
 31
0.0
  0
LINE
  5
D72A
330
1A
100
AcDbEntity
  8
TERMINALS
100
AcDbLine
 10
13.74928169697974
 20
7.928166544257017
 30
0.0
 11
13.74928169697974
 21
7.48698055140409
 31
0.0
  0
LINE
  5
D72B
330
1A
100
AcDbEntity
  8
TERMINALS
100
AcDbLine
 10
13.64928169697974
 20
7.936980551404085
 30
0.0
 11
13.64928169697974
 21
7.48698055140409
 31
0.0
  0
LINE
  5
D72C
330
1A
100
AcDbEntity
  8
TERMINALS
100
AcDbLine
 10
13.74928169697974
 20
7.896980551404084
 30
0.0
 11
13.84928169697974
 21
7.886980551404083
 31
0.0
  0
LINE
  5
D72D
330
1A
100
AcDbEntity
  8
TERMINALS
100
AcDbLine
 10
13.74928169697974
 20
7.526980551404089
 30
0.0
 11
13.84928169697974
 21
7.53698055140409
 31
0.0
  0
LINE
  5
D72E
330
1A
100
AcDbEntity
  8
TERMINALS
100
AcDbLine
 10
13.64928169697974
 20
6.006980551404085
 30
0.0
 11
13.74928169697974
 21
6.006980551404085
 31
0.0
  0
LINE
  5
D72F
330
1A
100
AcDbEntity
  8
TERMINALS
100
AcDbLine
 10
13.64928169697974
 20
5.556980551404089
 30
0.0
 11
13.7237898826524
 21
5.556980551404089
 31
0.0
  0
LINE
  5
D730
330
1A
100
AcDbEntity
  8
TERMINALS
100
AcDbLine
 10
13.74928169697974
 20
6.006980551404086
 30
0.0
 11
13.74928169697974
 21
5.57243348074602
 31
0.0
  0
LINE
  5
D731
330
1A
100
AcDbEntity
  8
TERMINALS
100
AcDbLine
 10
13.64928169697974
 20
6.006980551404085
 30
0.0
 11
13.64928169697974
 21
5.556980551404088
 31
0.0
  0
LINE
  5
D732
330
1A
100
AcDbEntity
  8
TERMINALS
100
AcDbLine
 10
13.74928169697974
 20
5.966980551404085
 30
0.0
 11
13.84928169697974
 21
5.956980551404086
 31
0.0
  0
LINE
  5
D733
330
1A
100
AcDbEntity
  8
TERMINALS
100
AcDbLine
 10
13.74928169697974
 20
5.596980551404089
 30
0.0
 11
13.84928169697974
 21
5.606980551404089
 31
0.0
  0
POLYLINE
  5
D773
330
1A
100
AcDbEntity
  8
TERMINALS
100
AcDb2dPolyline
 66
     1
 10
0.0
 20
0.0
 30
0.0
  0
VERTEX
  5
D774
330
D773
100
AcDbEntity
  8
TERMINALS
100
AcDbVertex
100
AcDb2dVertex
 10
14.13018746355614
 20
5.201638540501543
 30
0.0
  0
VERTEX
  5
D775
330
D773
100
AcDbEntity
  8
TERMINALS
100
AcDbVertex
100
AcDb2dVertex
 10
14.06613066017072
 20
5.244575552220292
 30
0.0
  0
VERTEX
  5
D776
330
D773
100
AcDbEntity
  8
TERMINALS
100
AcDbVertex
100
AcDb2dVertex
 10
14.0119517864728
 20
5.280290884251543
 30
0.0
  0
VERTEX
  5
D777
330
D773
100
AcDbEntity
  8
TERMINALS
100
AcDbVertex
100
AcDb2dVertex
 10
13.96651314714989
 20
5.309765981907792
 30
0.0
  0
VERTEX
  5
D778
330
D773
100
AcDbEntity
  8
TERMINALS
100
AcDbVertex
100
AcDb2dVertex
 10
13.92867704688947
 20
5.333982290501542
 30
0.0
  0
VERTEX
  5
D779
330
D773
100
AcDbEntity
  8
TERMINALS
100
AcDbVertex
100
AcDb2dVertex
 10
13.89730579037905
 20
5.353921255345293
 30
0.0
  0
VERTEX
  5
D77A
330
D773
100
AcDbEntity
  8
TERMINALS
100
AcDbVertex
100
AcDb2dVertex
 10
13.87126168230614
 20
5.370564321751541
 30
0.0
  0
VERTEX
  5
D77B
330
D773
100
AcDbEntity
  8
TERMINALS
100
AcDbVertex
100
AcDb2dVertex
 10
13.84940702735822
 20
5.384892935032792
 30
0.0
  0
VERTEX
  5
D77C
330
D773
100
AcDbEntity
  8
TERMINALS
100
AcDbVertex
100
AcDb2dVertex
 10
13.8306041302228
 20
5.397888540501543
 30
0.0
  0
VERTEX
  5
D77D
330
D773
100
AcDbEntity
  8
TERMINALS
100
AcDbVertex
100
AcDb2dVertex
 10
13.81388619402489
 20
5.410381216282793
 30
0.0
  0
VERTEX
  5
D77E
330
D773
100
AcDbEntity
  8
TERMINALS
100
AcDbVertex
100
AcDb2dVertex
 10
13.79897001563947
 20
5.422595571751543
 30
0.0
  0
VERTEX
  5
D77F
330
D773
100
AcDbEntity
  8
TERMINALS
100
AcDbVertex
100
AcDb2dVertex
 10
13.78574329037905
 20
5.434604849095292
 30
0.0
  0
VERTEX
  5
D780
330
D773
100
AcDbEntity
  8
TERMINALS
100
AcDbVertex
100
AcDb2dVertex
 10
13.77409371355613
 20
5.446482290501543
 30
0.0
  0
VERTEX
  5
D781
330
D773
100
AcDbEntity
  8
TERMINALS
100
AcDbVertex
100
AcDb2dVertex
 10
13.76390898048322
 20
5.458301138157793
 30
0.0
  0
VERTEX
  5
D782
330
D773
100
AcDbEntity
  8
TERMINALS
100
AcDbVertex
100
AcDb2dVertex
 10
13.7550767864728
 20
5.470134634251543
 30
0.0
  0
VERTEX
  5
D783
330
D773
100
AcDbEntity
  8
TERMINALS
100
AcDbVertex
100
AcDb2dVertex
 10
13.74748482683738
 20
5.482056020970293
 30
0.0
  0
VERTEX
  5
D784
330
D773
100
AcDbEntity
  8
TERMINALS
100
AcDbVertex
100
AcDb2dVertex
 10
13.74102079688947
 20
5.494138540501543
 30
0.0
  0
VERTEX
  5
D785
330
D773
100
AcDbEntity
  8
TERMINALS
100
AcDbVertex
100
AcDb2dVertex
 10
13.7355797161603
 20
5.506516470189043
 30
0.0
  0
VERTEX
  5
D786
330
D773
100
AcDbEntity
  8
TERMINALS
100
AcDbVertex
100
AcDb2dVertex
 10
13.73108590105613
 20
5.519568228001543
 30
0.0
  0
VERTEX
  5
D787
330
D773
100
AcDbEntity
  8
TERMINALS
100
AcDbVertex
100
AcDb2dVertex
 10
13.72747099220197
 20
5.533733267064043
 30
0.0
  0
VERTEX
  5
D788
330
D773
100
AcDbEntity
  8
TERMINALS
100
AcDbVertex
100
AcDb2dVertex
 10
13.7246666302228
 20
5.549451040501542
 30
0.0
  0
VERTEX
  5
D789
330
D773
100
AcDbEntity
  8
TERMINALS
100
AcDbVertex
100
AcDb2dVertex
 10
13.7237898826524
 20
5.556980551404089
 30
0.0
  0
SEQEND
  5
D78A
330
D773
100
AcDbEntity
  8
TERMINALS
  0
POLYLINE
  5
D78B
330
1A
100
AcDbEntity
  8
TERMINALS
100
AcDb2dPolyline
 66
     1
 10
0.0
 20
0.0
 30
0.0
  0
VERTEX
  5
D78C
330
D78B
100
AcDbEntity
  8
TERMINALS
100
AcDbVertex
100
AcDb2dVertex
 10
14.20518746355614
 20
5.326638540501543
 30
0.0
  0
VERTEX
  5
D78D
330
D78B
100
AcDbEntity
  8
TERMINALS
100
AcDbVertex
100
AcDb2dVertex
 10
14.14033394793114
 20
5.371225942845293
 30
0.0
  0
VERTEX
  5
D78E
330
D78B
100
AcDbEntity
  8
TERMINALS
100
AcDbVertex
100
AcDb2dVertex
 10
14.08385933855614
 20
5.404900259251543
 30
0.0
  0
VERTEX
  5
D78F
330
D78B
100
AcDbEntity
  8
TERMINALS
100
AcDbVertex
100
AcDb2dVertex
 10
14.03476754168114
 20
5.429404653782793
 30
0.0
  0
VERTEX
  5
D790
330
D78B
100
AcDbEntity
  8
TERMINALS
100
AcDbVertex
100
AcDb2dVertex
 10
13.99206246355614
 20
5.446482290501543
 30
0.0
  0
VERTEX
  5
D791
330
D78B
100
AcDbEntity
  8
TERMINALS
100
AcDbVertex
100
AcDb2dVertex
 10
13.95474801043114
 20
5.457876333470292
 30
0.0
  0
VERTEX
  5
D792
330
D78B
100
AcDbEntity
  8
TERMINALS
100
AcDbVertex
100
AcDb2dVertex
 10
13.92182808855614
 20
5.465329946751543
 30
0.0
  0
VERTEX
  5
D793
330
D78B
100
AcDbEntity
  8
TERMINALS
100
AcDbVertex
100
AcDb2dVertex
 10
13.89230660418114
 20
5.470586294407794
 30
0.0
  0
VERTEX
  5
D794
330
D78B
100
AcDbEntity
  8
TERMINALS
100
AcDbVertex
100
AcDb2dVertex
 10
13.86518746355613
 20
5.475388540501541
 30
0.0
  0
VERTEX
  5
D795
330
D78B
100
AcDbEntity
  8
TERMINALS
100
AcDbVertex
100
AcDb2dVertex
 10
13.83972847918113
 20
5.481323599095293
 30
0.0
  0
VERTEX
  5
D796
330
D78B
100
AcDbEntity
  8
TERMINALS
100
AcDbVertex
100
AcDb2dVertex
 10
13.81620308855614
 20
5.489353384251542
 30
0.0
  0
VERTEX
  5
D797
330
D78B
100
AcDbEntity
  8
TERMINALS
100
AcDbVertex
100
AcDb2dVertex
 10
13.79513863543113
 20
5.500283560032793
 30
0.0
  0
VERTEX
  5
D798
330
D78B
100
AcDbEntity
  8
TERMINALS
100
AcDbVertex
100
AcDb2dVertex
 10
13.77706246355614
 20
5.514919790501543
 30
0.0
  0
VERTEX
  5
D799
330
D78B
100
AcDbEntity
  8
TERMINALS
100
AcDbVertex
100
AcDb2dVertex
 10
13.76250191668113
 20
5.534067739720293
 30
0.0
  0
VERTEX
  5
D79A
330
D78B
100
AcDbEntity
  8
TERMINALS
100
AcDbVertex
100
AcDb2dVertex
 10
13.75198433855613
 20
5.558533071751543
 30
0.0
  0
VERTEX
  5
D79B
330
D78B
100
AcDbEntity
  8
TERMINALS
100
AcDbVertex
100
AcDb2dVertex
 10
13.74928169697975
 20
5.572433480746013
 30
0.0
  0
SEQEND
  5
D79C
330
D78B
100
AcDbEntity
  8
TERMINALS
  0
LINE
  5
D7AE
330
1A
100
AcDbEntity
  8
PART
100
AcDbLine
 10
13.84928169697974
 20
5.384979557011321
 30
0.0
 11
13.84928169697974
 21
5.37234721250153
 31
0.0
  0
LINE
  5
D7B0
330
1A
100
AcDbEntity
  8
TERMINALS
100
AcDbLine
 10
13.72332321640017
 20
5.709761277632048
 30
0.0
 11
13.72332321640017
 21
5.556980551404088
 31
0.0
  0
LINE
  5
D7B2
330
1A
100
AcDbEntity
  8
TERMINALS
100
AcDbLine
 10
13.72332321640017
 20
5.709761277632048
 30
0.0
 11
13.74928169697975
 21
5.709761277632048
 31
0.0
  0
POLYLINE
  5
D7CC
330
1A
100
AcDbEntity
  8
TERMINALS
100
AcDb2dPolyline
 66
     1
 10
0.0
 20
0.0
 30
0.0
  0
VERTEX
  5
D7CD
330
D7CC
100
AcDbEntity
  8
TERMINALS
100
AcDbVertex
100
AcDb2dVertex
 10
14.13018746355614
 20
8.298961484501495
 30
0.0
  0
VERTEX
  5
D7CE
330
D7CC
100
AcDbEntity
  8
TERMINALS
100
AcDbVertex
100
AcDb2dVertex
 10
14.06613066017072
 20
8.256024472782744
 30
0.0
  0
VERTEX
  5
D7CF
330
D7CC
100
AcDbEntity
  8
TERMINALS
100
AcDbVertex
100
AcDb2dVertex
 10
14.0119517864728
 20
8.220309140751494
 30
0.0
  0
VERTEX
  5
D7D0
330
D7CC
100
AcDbEntity
  8
TERMINALS
100
AcDbVertex
100
AcDb2dVertex
 10
13.96651314714989
 20
8.190834043095245
 30
0.0
  0
VERTEX
  5
D7D1
330
D7CC
100
AcDbEntity
  8
TERMINALS
100
AcDbVertex
100
AcDb2dVertex
 10
13.92867704688947
 20
8.166617734501494
 30
0.0
  0
VERTEX
  5
D7D2
330
D7CC
100
AcDbEntity
  8
TERMINALS
100
AcDbVertex
100
AcDb2dVertex
 10
13.89730579037905
 20
8.146678769657745
 30
0.0
  0
VERTEX
  5
D7D3
330
D7CC
100
AcDbEntity
  8
TERMINALS
100
AcDbVertex
100
AcDb2dVertex
 10
13.87126168230614
 20
8.130035703251495
 30
0.0
  0
VERTEX
  5
D7D4
330
D7CC
100
AcDbEntity
  8
TERMINALS
100
AcDbVertex
100
AcDb2dVertex
 10
13.84940702735822
 20
8.115707089970245
 30
0.0
  0
VERTEX
  5
D7D5
330
D7CC
100
AcDbEntity
  8
TERMINALS
100
AcDbVertex
100
AcDb2dVertex
 10
13.8306041302228
 20
8.102711484501494
 30
0.0
  0
VERTEX
  5
D7D6
330
D7CC
100
AcDbEntity
  8
TERMINALS
100
AcDbVertex
100
AcDb2dVertex
 10
13.81388619402489
 20
8.090218808720244
 30
0.0
  0
VERTEX
  5
D7D7
330
D7CC
100
AcDbEntity
  8
TERMINALS
100
AcDbVertex
100
AcDb2dVertex
 10
13.79897001563947
 20
8.078004453251494
 30
0.0
  0
VERTEX
  5
D7D8
330
D7CC
100
AcDbEntity
  8
TERMINALS
100
AcDbVertex
100
AcDb2dVertex
 10
13.78574329037905
 20
8.065995175907744
 30
0.0
  0
VERTEX
  5
D7D9
330
D7CC
100
AcDbEntity
  8
TERMINALS
100
AcDbVertex
100
AcDb2dVertex
 10
13.77409371355613
 20
8.054117734501495
 30
0.0
  0
VERTEX
  5
D7DA
330
D7CC
100
AcDbEntity
  8
TERMINALS
100
AcDbVertex
100
AcDb2dVertex
 10
13.76390898048322
 20
8.042298886845244
 30
0.0
  0
VERTEX
  5
D7DB
330
D7CC
100
AcDbEntity
  8
TERMINALS
100
AcDbVertex
100
AcDb2dVertex
 10
13.7550767864728
 20
8.030465390751494
 30
0.0
  0
VERTEX
  5
D7DC
330
D7CC
100
AcDbEntity
  8
TERMINALS
100
AcDbVertex
100
AcDb2dVertex
 10
13.74748482683738
 20
8.018544004032744
 30
0.0
  0
VERTEX
  5
D7DD
330
D7CC
100
AcDbEntity
  8
TERMINALS
100
AcDbVertex
100
AcDb2dVertex
 10
13.74102079688947
 20
8.006461484501494
 30
0.0
  0
VERTEX
  5
D7DE
330
D7CC
100
AcDbEntity
  8
TERMINALS
100
AcDbVertex
100
AcDb2dVertex
 10
13.7355797161603
 20
7.994083554813991
 30
0.0
  0
VERTEX
  5
D7DF
330
D7CC
100
AcDbEntity
  8
TERMINALS
100
AcDbVertex
100
AcDb2dVertex
 10
13.73108590105613
 20
7.981031797001492
 30
0.0
  0
VERTEX
  5
D7E0
330
D7CC
100
AcDbEntity
  8
TERMINALS
100
AcDbVertex
100
AcDb2dVertex
 10
13.72747099220197
 20
7.966866757938993
 30
0.0
  0
VERTEX
  5
D7E1
330
D7CC
100
AcDbEntity
  8
TERMINALS
100
AcDbVertex
100
AcDb2dVertex
 10
13.7246666302228
 20
7.951148984501491
 30
0.0
  0
VERTEX
  5
D7E2
330
D7CC
100
AcDbEntity
  8
TERMINALS
100
AcDbVertex
100
AcDb2dVertex
 10
13.7237898826524
 20
7.943619473598946
 30
0.0
  0
SEQEND
  5
D7E3
330
D7CC
100
AcDbEntity
  8
TERMINALS
  0
POLYLINE
  5
D7E4
330
1A
100
AcDbEntity
  8
TERMINALS
100
AcDb2dPolyline
 66
     1
 10
0.0
 20
0.0
 30
0.0
  0
VERTEX
  5
D7E5
330
D7E4
100
AcDbEntity
  8
TERMINALS
100
AcDbVertex
100
AcDb2dVertex
 10
14.20518746355614
 20
8.173961484501495
 30
0.0
  0
VERTEX
  5
D7E6
330
D7E4
100
AcDbEntity
  8
TERMINALS
100
AcDbVertex
100
AcDb2dVertex
 10
14.14033394793114
 20
8.129374082157745
 30
0.0
  0
VERTEX
  5
D7E7
330
D7E4
100
AcDbEntity
  8
TERMINALS
100
AcDbVertex
100
AcDb2dVertex
 10
14.08385933855614
 20
8.095699765751492
 30
0.0
  0
VERTEX
  5
D7E8
330
D7E4
100
AcDbEntity
  8
TERMINALS
100
AcDbVertex
100
AcDb2dVertex
 10
14.03476754168114
 20
8.071195371220245
 30
0.0
  0
VERTEX
  5
D7E9
330
D7E4
100
AcDbEntity
  8
TERMINALS
100
AcDbVertex
100
AcDb2dVertex
 10
13.99206246355614
 20
8.054117734501494
 30
0.0
  0
VERTEX
  5
D7EA
330
D7E4
100
AcDbEntity
  8
TERMINALS
100
AcDbVertex
100
AcDb2dVertex
 10
13.95474801043114
 20
8.042723691532744
 30
0.0
  0
VERTEX
  5
D7EB
330
D7E4
100
AcDbEntity
  8
TERMINALS
100
AcDbVertex
100
AcDb2dVertex
 10
13.92182808855614
 20
8.035270078251491
 30
0.0
  0
VERTEX
  5
D7EC
330
D7E4
100
AcDbEntity
  8
TERMINALS
100
AcDbVertex
100
AcDb2dVertex
 10
13.89230660418114
 20
8.030013730595241
 30
0.0
  0
VERTEX
  5
D7ED
330
D7E4
100
AcDbEntity
  8
TERMINALS
100
AcDbVertex
100
AcDb2dVertex
 10
13.86518746355613
 20
8.025211484501491
 30
0.0
  0
VERTEX
  5
D7EE
330
D7E4
100
AcDbEntity
  8
TERMINALS
100
AcDbVertex
100
AcDb2dVertex
 10
13.83972847918113
 20
8.019276425907744
 30
0.0
  0
VERTEX
  5
D7EF
330
D7E4
100
AcDbEntity
  8
TERMINALS
100
AcDbVertex
100
AcDb2dVertex
 10
13.81620308855614
 20
8.011246640751494
 30
0.0
  0
VERTEX
  5
D7F0
330
D7E4
100
AcDbEntity
  8
TERMINALS
100
AcDbVertex
100
AcDb2dVertex
 10
13.79513863543113
 20
8.000316464970241
 30
0.0
  0
VERTEX
  5
D7F1
330
D7E4
100
AcDbEntity
  8
TERMINALS
100
AcDbVertex
100
AcDb2dVertex
 10
13.77706246355614
 20
7.985680234501494
 30
0.0
  0
VERTEX
  5
D7F2
330
D7E4
100
AcDbEntity
  8
TERMINALS
100
AcDbVertex
100
AcDb2dVertex
 10
13.76250191668113
 20
7.966532285282744
 30
0.0
  0
VERTEX
  5
D7F3
330
D7E4
100
AcDbEntity
  8
TERMINALS
100
AcDbVertex
100
AcDb2dVertex
 10
13.75198433855613
 20
7.942066953251494
 30
0.0
  0
VERTEX
  5
D7F4
330
D7E4
100
AcDbEntity
  8
TERMINALS
100
AcDbVertex
100
AcDb2dVertex
 10
13.74928169697975
 20
7.928166544257021
 30
0.0
  0
SEQEND
  5
D7F5
330
D7E4
100
AcDbEntity
  8
TERMINALS
  0
LINE
  5
D7F6
330
1A
100
AcDbEntity
  8
TERMINALS
100
AcDbLine
 10
13.72332321640017
 20
7.79083874737099
 30
0.0
 11
13.72332321640017
 21
7.943619473598946
 31
0.0
  0
LINE
  5
D7F7
330
1A
100
AcDbEntity
  8
TERMINALS
100
AcDbLine
 10
13.72332321640017
 20
7.79083874737099
 30
0.0
 11
13.74928169697975
 21
7.79083874737099
 31
0.0
  0
LINE
  5
D7F8
330
1A
100
AcDbEntity
  8
PART
100
AcDbLine
 10
13.84928169697974
 20
8.021503494613957
 30
0.0
 11
13.84928169697974
 21
6.947150412501519
 31
0.0
  0
LINE
  5
D91A
330
1A
100
AcDbEntity
  8
NOTES
100
AcDbLine
 10
5.965872790955268
 20
-0.6783186355490729
 30
0.0
 11
17.75981357300178
 21
-0.6783186355490729
 31
0.0
  0
TEXT
  5
D91B
330
1A
100
AcDbEntity
  8
NOTES
100
AcDbText
 10
7.349960099782496
 20
-1.190218131596705
 30
0.0
 40
0.2
  1
SCALE:1/1      DRAWN IN INCHES     
  7
style2
100
AcDbText
  0
LINE
  5
D91C
330
1A
100
AcDbEntity
  8
NOTES
100
AcDbLine
 10
5.965872790955268
 20
-0.5960741511724707
 30
0.0
 11
17.75252793765526
 21
-0.5960741511724707
 31
0.0
  0
TEXT
  5
D91D
330
1A
100
AcDbEntity
  8
NOTES
100
AcDbText
 10
5.953658392766771
 20
-0.3930672826152566
 30
0.0
 40
0.4
  1
MOORE INDUSTRIES-INTERNATIONAL, INC.
  7
style2
100
AcDbText
  0
TEXT
  5
D926
330
1A
100
AcDbEntity
  8
NOTES
100
AcDbText
 10
13.2362924880073
 20
3.101647844456278
 30
0.0
 40
0.4
  1
TG204-DIN
  7
style2
100
AcDbText
  0
MTEXT
  5
D993
330
1A
100
AcDbEntity
  8
NOTES
100
AcDbMText
 10
14.761867499413
 20
2.135817735060363
 30
0.0
 40
0.2
 41
8.31079868266767
 71
     5
 72
     5
  1
DIN-RAIL MOUNT\PDEVICE COUPLER-4 SPURS\P\PMOUNTS ON 32mm G-TYPE\PAND 35mm TOP-HAT DIN-RAILS
  7
style2
 73
     1
 44
1.0
1001
ACAD
1000
MTEXTBEGIN
1070
    73
1070
     1
1070
    44
1040
1.0
1070
    74
1070
     0
1000
MTEXTEND
  0
LWPOLYLINE
  5
DA1E
330
1A
100
AcDbEntity
  8
TERMINALS
  6
Continuous
100
AcDbPolyline
 90
        6
 70
     0
 43
0.0
 10
9.185962746063726
 20
5.897871572705292
 10
9.185962746063726
 20
5.881575043106286
 42
-0.3249358518977221
 10
9.16596274606373
 20
5.851575043106288
 10
9.105962746063728
 20
5.851575043106288
 42
-0.3249358518977221
 10
9.085962746063726
 20
5.881575043106286
 10
9.085962746063726
 20
5.897871572705292
  0
LWPOLYLINE
  5
DA1F
330
1A
100
AcDbEntity
  8
TERMINALS
  6
Continuous
100
AcDbPolyline
 90
        6
 70
     0
 43
0.0
 10
8.925962746063726
 20
5.897871572705292
 10
8.925962746063726
 20
5.881575043106286
 42
-0.3249358518977221
 10
8.905962746063726
 20
5.851575043106288
 10
8.845962746063726
 20
5.851575043106288
 42
-0.3249358518977221
 10
8.825962746063726
 20
5.881575043106286
 10
8.825962746063726
 20
5.897871572705292
  0
LINE
  5
DA20
330
1A
100
AcDbEntity
  8
TERMINALS
  6
Continuous
100
AcDbLine
 10
8.523507400316432
 20
5.924084150293063
 30
0.0
 11
8.523507400316432
 21
6.040875868601741
 31
0.0
  0
LINE
  5
DA21
330
1A
100
AcDbEntity
  8
TERMINALS
  6
Continuous
100
AcDbLine
 10
8.523507400316432
 20
6.204867276808842
 30
0.0
 11
8.523507400316432
 21
6.27904471946029
 31
0.0
  0
LINE
  5
DA22
330
1A
100
AcDbEntity
  8
TERMINALS
  6
Continuous
100
AcDbLine
 10
8.523507400316432
 20
6.27904471946029
 30
0.0
 11
8.71591681517196
 21
6.279044719460292
 31
0.0
  0
LINE
  5
DA23
330
1A
100
AcDbEntity
  8
TERMINALS
  6
Continuous
100
AcDbLine
 10
9.30591681517196
 20
6.279044719460292
 30
0.0
 11
9.504739901036355
 21
6.279044719460292
 31
0.0
  0
LINE
  5
DA24
330
1A
100
AcDbEntity
  8
TERMINALS
  6
Continuous
100
AcDbLine
 10
9.504739901036355
 20
6.279044719460292
 30
0.0
 11
9.504739901036355
 21
5.924084150293065
 31
0.0
  0
LINE
  5
DA25
330
1A
100
AcDbEntity
  8
TERMINALS
  6
Continuous
100
AcDbLine
 10
9.504739901036355
 20
5.924084150293065
 30
0.0
 11
9.30591681517196
 21
5.924084150293065
 31
0.0
  0
LINE
  5
DA26
330
1A
100
AcDbEntity
  8
TERMINALS
  6
Continuous
100
AcDbLine
 10
8.71591681517196
 20
5.924084150293063
 30
0.0
 11
8.523507400316432
 21
5.924084150293063
 31
0.0
  0
LINE
  5
DA27
330
1A
100
AcDbEntity
  8
TERMINALS
100
AcDbLine
 10
8.748662058797581
 20
6.159842057832213
 30
0.0
 11
8.850887300298886
 21
6.057616816330909
 31
0.0
  0
LINE
  5
DA28
330
1A
100
AcDbEntity
  8
TERMINALS
100
AcDbLine
 10
8.776946330045042
 20
6.188126329079674
 30
0.0
 11
8.879171571546347
 21
6.085901087578371
 31
0.0
  0
CIRCLE
  5
DA29
330
1A
100
AcDbEntity
  8
TERMINALS
100
AcDbCircle
 10
8.813916815171962
 20
6.122871572705292
 30
0.0
 40
0.075
  0
LINE
  5
DA2A
330
1A
100
AcDbEntity
  8
TERMINALS
100
AcDbLine
 10
8.71591681517196
 20
5.917871572705293
 30
0.0
 11
9.30591681517196
 21
5.917871572705292
 31
0.0
  0
LINE
  5
DA2B
330
1A
100
AcDbEntity
  8
TERMINALS
100
AcDbLine
 10
8.71591681517196
 20
5.962871572705292
 30
0.0
 11
9.30591681517196
 21
5.962871572705292
 31
0.0
  0
LINE
  5
DA2C
330
1A
100
AcDbEntity
  8
TERMINALS
100
AcDbLine
 10
8.71591681517196
 20
6.217871572705292
 30
0.0
 11
9.30591681517196
 21
6.217871572705292
 31
0.0
  0
LINE
  5
DA2D
330
1A
100
AcDbEntity
  8
TERMINALS
100
AcDbLine
 10
9.30591681517196
 20
5.897871572705292
 30
0.0
 11
8.71591681517196
 21
5.897871572705292
 31
0.0
  0
LINE
  5
DA2E
330
1A
100
AcDbEntity
  8
TERMINALS
100
AcDbLine
 10
8.71591681517196
 20
6.387871572705292
 30
0.0
 11
9.30591681517196
 21
6.387871572705292
 31
0.0
  0
LINE
  5
DA2F
330
1A
100
AcDbEntity
  8
TERMINALS
100
AcDbLine
 10
8.71591681517196
 20
5.897871572705292
 30
0.0
 11
8.71591681517196
 21
6.387871572705292
 31
0.0
  0
LINE
  5
DA30
330
1A
100
AcDbEntity
  8
TERMINALS
100
AcDbLine
 10
9.142662058797579
 20
6.159842057832213
 30
0.0
 11
9.244887300298882
 21
6.057616816330909
 31
0.0
  0
LINE
  5
DA31
330
1A
100
AcDbEntity
  8
TERMINALS
100
AcDbLine
 10
8.94566205879758
 20
6.159842057832213
 30
0.0
 11
9.047887300298881
 21
6.057616816330909
 31
0.0
  0
CIRCLE
  5
DA32
330
1A
100
AcDbEntity
  8
TERMINALS
100
AcDbCircle
 10
9.207916815171962
 20
6.122871572705292
 30
0.0
 40
0.075
  0
CIRCLE
  5
DA33
330
1A
100
AcDbEntity
  8
TERMINALS
100
AcDbCircle
 10
9.010916815171963
 20
6.122871572705292
 30
0.0
 40
0.075
  0
LINE
  5
DA34
330
1A
100
AcDbEntity
  8
TERMINALS
100
AcDbLine
 10
9.30591681517196
 20
6.387871572705292
 30
0.0
 11
9.30591681517196
 21
5.897871572705292
 31
0.0
  0
LINE
  5
DA35
330
1A
100
AcDbEntity
  8
TERMINALS
100
AcDbLine
 10
9.170946330045039
 20
6.188126329079674
 30
0.0
 11
9.273171571546344
 21
6.085901087578371
 31
0.0
  0
LINE
  5
DA36
330
1A
100
AcDbEntity
  8
TERMINALS
100
AcDbLine
 10
8.973946330045041
 20
6.188126329079674
 30
0.0
 11
9.076171571546346
 21
6.085901087578371
 31
0.0
  0
LINE
  5
DA37
330
1A
100
AcDbEntity
  8
TERMINALS
100
AcDbLine
 10
9.339662058797577
 20
6.159842057832213
 30
0.0
 11
9.441887300298882
 21
6.057616816330909
 31
0.0
  0
CIRCLE
  5
DA38
330
1A
100
AcDbEntity
  8
TERMINALS
100
AcDbCircle
 10
9.40491681517196
 20
6.122871572705292
 30
0.0
 40
0.075
  0
LINE
  5
DA39
330
1A
100
AcDbEntity
  8
TERMINALS
100
AcDbLine
 10
9.36794633004504
 20
6.188126329079674
 30
0.0
 11
9.470171571546343
 21
6.085901087578371
 31
0.0
  0
LINE
  5
DA3A
330
1A
100
AcDbEntity
  8
TERMINALS
100
AcDbLine
 10
8.551662058797582
 20
6.159842057832213
 30
0.0
 11
8.653887300298887
 21
6.057616816330909
 31
0.0
  0
LINE
  5
DA3B
330
1A
100
AcDbEntity
  8
TERMINALS
100
AcDbLine
 10
8.579946330045043
 20
6.188126329079674
 30
0.0
 11
8.682171571546346
 21
6.085901087578371
 31
0.0
  0
CIRCLE
  5
DA3C
330
1A
100
AcDbEntity
  8
TERMINALS
100
AcDbCircle
 10
8.616916815171965
 20
6.122871572705292
 30
0.0
 40
0.075
  0
LINE
  5
DA3D
330
1A
100
AcDbEntity
  8
TERMINALS
100
AcDbLine
 10
8.71591681517196
 20
6.022871572705292
 30
0.0
 11
8.556916815171963
 21
6.022871572705292
 31
0.0
  0
LINE
  5
DA3E
330
1A
100
AcDbEntity
  8
TERMINALS
100
AcDbLine
 10
8.71591681517196
 20
6.222871572705292
 30
0.0
 11
8.556916815171963
 21
6.222871572705292
 31
0.0
  0
ARC
  5
DA3F
330
1A
100
AcDbEntity
  8
TERMINALS
100
AcDbCircle
 10
8.556916815171963
 20
6.182871572705292
 30
0.0
 40
0.04
100
AcDbArc
 50
90.00000000000026
 51
180.0
  0
LINE
  5
DA40
330
1A
100
AcDbEntity
  8
TERMINALS
100
AcDbLine
 10
8.516916815171963
 20
6.182871572705292
 30
0.0
 11
8.516916815171963
 21
6.062871572705292
 31
0.0
  0
ARC
  5
DA41
330
1A
100
AcDbEntity
  8
TERMINALS
100
AcDbCircle
 10
8.556916815171963
 20
6.062871572705292
 30
0.0
 40
0.04
100
AcDbArc
 50
179.9999999999995
 51
270.0000000000004
  0
LINE
  5
DA42
330
1A
100
AcDbEntity
  8
TERMINALS
100
AcDbLine
 10
8.833916815171962
 20
5.897871572705292
 30
0.0
 11
8.833916815171962
 21
5.867871572705293
 31
0.0
  0
LINE
  5
DA43
330
1A
100
AcDbEntity
  8
TERMINALS
100
AcDbLine
 10
8.833916815171962
 20
5.867871572705293
 30
0.0
 11
8.913916815171962
 21
5.867871572705293
 31
0.0
  0
LINE
  5
DA44
330
1A
100
AcDbEntity
  8
TERMINALS
100
AcDbLine
 10
8.913916815171962
 20
5.867871572705293
 30
0.0
 11
8.913916815171962
 21
5.897871572705292
 31
0.0
  0
LINE
  5
DA45
330
1A
100
AcDbEntity
  8
TERMINALS
100
AcDbLine
 10
9.093916815171963
 20
5.897871572705292
 30
0.0
 11
9.093916815171963
 21
5.867871572705293
 31
0.0
  0
LINE
  5
DA46
330
1A
100
AcDbEntity
  8
TERMINALS
100
AcDbLine
 10
9.093916815171963
 20
5.867871572705293
 30
0.0
 11
9.173916815171962
 21
5.867871572705293
 31
0.0
  0
LINE
  5
DA47
330
1A
100
AcDbEntity
  8
TERMINALS
100
AcDbLine
 10
9.173916815171962
 20
5.867871572705293
 30
0.0
 11
9.173916815171962
 21
5.897871572705292
 31
0.0
  0
LINE
  5
DA48
330
1A
100
AcDbEntity
  8
TERMINALS
100
AcDbLine
 10
9.306916815171963
 20
6.022871572705292
 30
0.0
 11
9.46591681517196
 21
6.022871572705292
 31
0.0
  0
LINE
  5
DA49
330
1A
100
AcDbEntity
  8
TERMINALS
100
AcDbLine
 10
9.306916815171963
 20
6.222871572705292
 30
0.0
 11
9.46591681517196
 21
6.222871572705292
 31
0.0
  0
ARC
  5
DA4A
330
1A
100
AcDbEntity
  8
TERMINALS
100
AcDbCircle
 10
9.46591681517196
 20
6.182871572705292
 30
0.0
 40
0.04
100
AcDbArc
 50
0.0
 51
89.99999999999976
  0
LINE
  5
DA4B
330
1A
100
AcDbEntity
  8
TERMINALS
100
AcDbLine
 10
9.505916815171961
 20
6.182871572705292
 30
0.0
 11
9.505916815171961
 21
6.062871572705292
 31
0.0
  0
ARC
  5
DA4C
330
1A
100
AcDbEntity
  8
TERMINALS
100
AcDbCircle
 10
9.46591681517196
 20
6.062871572705292
 30
0.0
 40
0.04
100
AcDbArc
 50
269.9999999999997
 51
0.0000000000005229
  0
LINE
  5
DA7C
330
1A
100
AcDbEntity
  8
TERMINALS
  6
Continuous
100
AcDbLine
 10
8.525319936760297
 20
7.570020454615979
 30
0.0
 11
8.525319936760297
 21
7.4532287363073
 31
0.0
  0
LINE
  5
DA7D
330
1A
100
AcDbEntity
  8
TERMINALS
  6
Continuous
100
AcDbLine
 10
8.525319936760297
 20
7.289237328100199
 30
0.0
 11
8.525319936760297
 21
7.215059885448751
 31
0.0
  0
LINE
  5
DA7E
330
1A
100
AcDbEntity
  8
TERMINALS
  6
Continuous
100
AcDbLine
 10
8.525319936760297
 20
7.215059885448751
 30
0.0
 11
8.717729351615826
 21
7.215059885448749
 31
0.0
  0
LINE
  5
DA7F
330
1A
100
AcDbEntity
  8
TERMINALS
  6
Continuous
100
AcDbLine
 10
9.307729351615826
 20
7.215059885448749
 30
0.0
 11
9.50655243748022
 21
7.215059885448749
 31
0.0
  0
LINE
  5
DA80
330
1A
100
AcDbEntity
  8
TERMINALS
  6
Continuous
100
AcDbLine
 10
9.50655243748022
 20
7.215059885448749
 30
0.0
 11
9.50655243748022
 21
7.570020454615978
 31
0.0
  0
LINE
  5
DA81
330
1A
100
AcDbEntity
  8
TERMINALS
  6
Continuous
100
AcDbLine
 10
9.50655243748022
 20
7.570020454615978
 30
0.0
 11
9.307729351615826
 21
7.570020454615978
 31
0.0
  0
LINE
  5
DA82
330
1A
100
AcDbEntity
  8
TERMINALS
  6
Continuous
100
AcDbLine
 10
8.717729351615826
 20
7.570020454615978
 30
0.0
 11
8.525319936760297
 21
7.570020454615979
 31
0.0
  0
LWPOLYLINE
  5
DA83
330
1A
100
AcDbEntity
  8
TERMINALS
  6
Continuous
100
AcDbPolyline
 90
        6
 70
     0
 43
0.0
 10
9.185962746063726
 20
7.596233032203749
 10
9.185962746063726
 20
7.621575043106296
 42
0.4142135623730951
 10
9.16596274606373
 20
7.641575043106294
 10
9.105962746063728
 20
7.641575043106294
 42
0.4142135623730951
 10
9.085962746063726
 20
7.621575043106298
 10
9.085962746063726
 20
7.596233032203749
  0
LWPOLYLINE
  5
DA84
330
1A
100
AcDbEntity
  8
TERMINALS
  6
Continuous
100
AcDbPolyline
 90
        6
 70
     0
 43
0.0
 10
8.925962746063726
 20
7.596233032203749
 10
8.925962746063726
 20
7.621575043106298
 42
0.4142135623730951
 10
8.905962746063726
 20
7.641575043106295
 10
8.845962746063726
 20
7.641575043106295
 42
0.4142135623730951
 10
8.825962746063726
 20
7.621575043106298
 10
8.82596274606373
 20
7.596233032203749
  0
LINE
  5
DA85
330
1A
100
AcDbEntity
  8
TERMINALS
100
AcDbLine
 10
8.750474595241445
 20
7.334262547076829
 30
0.0
 11
8.85269983674275
 21
7.436487788578132
 31
0.0
  0
LINE
  5
DA86
330
1A
100
AcDbEntity
  8
TERMINALS
100
AcDbLine
 10
8.778758866488907
 20
7.305978275829367
 30
0.0
 11
8.880984107990212
 21
7.408203517330672
 31
0.0
  0
CIRCLE
  5
DA87
330
1A
100
AcDbEntity
  8
TERMINALS
100
AcDbCircle
 10
8.815729351615829
 20
7.371233032203749
 30
0.0
 40
0.075
  0
LINE
  5
DA88
330
1A
100
AcDbEntity
  8
TERMINALS
100
AcDbLine
 10
8.717729351615826
 20
7.576233032203749
 30
0.0
 11
9.307729351615826
 21
7.576233032203749
 31
0.0
  0
LINE
  5
DA89
330
1A
100
AcDbEntity
  8
TERMINALS
100
AcDbLine
 10
8.717729351615826
 20
7.53123303220375
 30
0.0
 11
9.307729351615826
 21
7.53123303220375
 31
0.0
  0
LINE
  5
DA8A
330
1A
100
AcDbEntity
  8
TERMINALS
100
AcDbLine
 10
8.717729351615826
 20
7.276233032203749
 30
0.0
 11
9.307729351615826
 21
7.276233032203749
 31
0.0
  0
LINE
  5
DA8B
330
1A
100
AcDbEntity
  8
TERMINALS
100
AcDbLine
 10
9.307729351615826
 20
7.596233032203749
 30
0.0
 11
8.717729351615826
 21
7.596233032203749
 31
0.0
  0
LINE
  5
DA8C
330
1A
100
AcDbEntity
  8
TERMINALS
100
AcDbLine
 10
8.717729351615826
 20
7.106233032203749
 30
0.0
 11
9.307729351615826
 21
7.106233032203749
 31
0.0
  0
LINE
  5
DA8D
330
1A
100
AcDbEntity
  8
TERMINALS
100
AcDbLine
 10
8.717729351615826
 20
7.596233032203749
 30
0.0
 11
8.717729351615826
 21
7.106233032203749
 31
0.0
  0
LINE
  5
DA8E
330
1A
100
AcDbEntity
  8
TERMINALS
100
AcDbLine
 10
9.144474595241442
 20
7.334262547076829
 30
0.0
 11
9.246699836742747
 21
7.436487788578132
 31
0.0
  0
LINE
  5
DA8F
330
1A
100
AcDbEntity
  8
TERMINALS
100
AcDbLine
 10
8.947474595241445
 20
7.334262547076829
 30
0.0
 11
9.04969983674275
 21
7.436487788578132
 31
0.0
  0
CIRCLE
  5
DA90
330
1A
100
AcDbEntity
  8
TERMINALS
100
AcDbCircle
 10
9.209729351615827
 20
7.371233032203749
 30
0.0
 40
0.075
  0
CIRCLE
  5
DA91
330
1A
100
AcDbEntity
  8
TERMINALS
100
AcDbCircle
 10
9.012729351615828
 20
7.371233032203749
 30
0.0
 40
0.075
  0
LINE
  5
DA92
330
1A
100
AcDbEntity
  8
TERMINALS
100
AcDbLine
 10
9.307729351615826
 20
7.106233032203749
 30
0.0
 11
9.307729351615826
 21
7.596233032203749
 31
0.0
  0
LINE
  5
DA93
330
1A
100
AcDbEntity
  8
TERMINALS
100
AcDbLine
 10
9.172758866488903
 20
7.305978275829367
 30
0.0
 11
9.27498410799021
 21
7.408203517330672
 31
0.0
  0
LINE
  5
DA94
330
1A
100
AcDbEntity
  8
TERMINALS
100
AcDbLine
 10
8.975758866488906
 20
7.305978275829367
 30
0.0
 11
9.077984107990213
 21
7.408203517330672
 31
0.0
  0
LINE
  5
DA95
330
1A
100
AcDbEntity
  8
TERMINALS
100
AcDbLine
 10
9.341474595241443
 20
7.334262547076829
 30
0.0
 11
9.443699836742748
 21
7.436487788578132
 31
0.0
  0
CIRCLE
  5
DA96
330
1A
100
AcDbEntity
  8
TERMINALS
100
AcDbCircle
 10
9.406729351615826
 20
7.371233032203749
 30
0.0
 40
0.075
  0
LINE
  5
DA97
330
1A
100
AcDbEntity
  8
TERMINALS
100
AcDbLine
 10
9.369758866488902
 20
7.305978275829367
 30
0.0
 11
9.471984107990206
 21
7.408203517330672
 31
0.0
  0
LINE
  5
DA98
330
1A
100
AcDbEntity
  8
TERMINALS
100
AcDbLine
 10
8.553474595241446
 20
7.334262547076829
 30
0.0
 11
8.65569983674275
 21
7.436487788578132
 31
0.0
  0
LINE
  5
DA99
330
1A
100
AcDbEntity
  8
TERMINALS
100
AcDbLine
 10
8.581758866488907
 20
7.305978275829367
 30
0.0
 11
8.683984107990212
 21
7.408203517330672
 31
0.0
  0
CIRCLE
  5
DA9A
330
1A
100
AcDbEntity
  8
TERMINALS
100
AcDbCircle
 10
8.618729351615829
 20
7.371233032203749
 30
0.0
 40
0.075
  0
LINE
  5
DA9B
330
1A
100
AcDbEntity
  8
TERMINALS
100
AcDbLine
 10
8.717729351615826
 20
7.471233032203749
 30
0.0
 11
8.558729351615827
 21
7.471233032203749
 31
0.0
  0
LINE
  5
DA9C
330
1A
100
AcDbEntity
  8
TERMINALS
100
AcDbLine
 10
8.717729351615826
 20
7.271233032203749
 30
0.0
 11
8.558729351615827
 21
7.27123303220375
 31
0.0
  0
ARC
  5
DA9D
330
1A
100
AcDbEntity
  8
TERMINALS
100
AcDbCircle
 10
8.558729351615827
 20
7.311233032203749
 30
0.0
 40
0.04
100
AcDbArc
 50
180.0
 51
269.9999999999998
  0
LINE
  5
DA9E
330
1A
100
AcDbEntity
  8
TERMINALS
100
AcDbLine
 10
8.518729351615826
 20
7.311233032203749
 30
0.0
 11
8.518729351615826
 21
7.431233032203749
 31
0.0
  0
ARC
  5
DA9F
330
1A
100
AcDbEntity
  8
TERMINALS
100
AcDbCircle
 10
8.558729351615827
 20
7.431233032203749
 30
0.0
 40
0.04
100
AcDbArc
 50
89.99999999999962
 51
180.0000000000005
  0
LINE
  5
DAA0
330
1A
100
AcDbEntity
  8
TERMINALS
100
AcDbLine
 10
8.835729351615828
 20
7.596233032203749
 30
0.0
 11
8.835729351615828
 21
7.626233032203749
 31
0.0
  0
LINE
  5
DAA1
330
1A
100
AcDbEntity
  8
TERMINALS
100
AcDbLine
 10
8.835729351615828
 20
7.626233032203749
 30
0.0
 11
8.915729351615825
 21
7.626233032203749
 31
0.0
  0
LINE
  5
DAA2
330
1A
100
AcDbEntity
  8
TERMINALS
100
AcDbLine
 10
8.915729351615825
 20
7.626233032203749
 30
0.0
 11
8.915729351615825
 21
7.596233032203749
 31
0.0
  0
LINE
  5
DAA3
330
1A
100
AcDbEntity
  8
TERMINALS
100
AcDbLine
 10
9.095729351615826
 20
7.596233032203749
 30
0.0
 11
9.095729351615826
 21
7.626233032203749
 31
0.0
  0
LINE
  5
DAA4
330
1A
100
AcDbEntity
  8
TERMINALS
100
AcDbLine
 10
9.095729351615826
 20
7.626233032203749
 30
0.0
 11
9.175729351615828
 21
7.626233032203749
 31
0.0
  0
LINE
  5
DAA5
330
1A
100
AcDbEntity
  8
TERMINALS
100
AcDbLine
 10
9.175729351615828
 20
7.626233032203749
 30
0.0
 11
9.175729351615828
 21
7.596233032203749
 31
0.0
  0
LINE
  5
DAA6
330
1A
100
AcDbEntity
  8
TERMINALS
100
AcDbLine
 10
9.308729351615827
 20
7.471233032203749
 30
0.0
 11
9.467729351615826
 21
7.471233032203749
 31
0.0
  0
LINE
  5
DAA7
330
1A
100
AcDbEntity
  8
TERMINALS
100
AcDbLine
 10
9.308729351615827
 20
7.271233032203749
 30
0.0
 11
9.467729351615826
 21
7.27123303220375
 31
0.0
  0
ARC
  5
DAA8
330
1A
100
AcDbEntity
  8
TERMINALS
100
AcDbCircle
 10
9.467729351615826
 20
7.311233032203749
 30
0.0
 40
0.04
100
AcDbArc
 50
270.0000000000002
 51
0.000000000000007
  0
LINE
  5
DAA9
330
1A
100
AcDbEntity
  8
TERMINALS
100
AcDbLine
 10
9.507729351615823
 20
7.311233032203749
 30
0.0
 11
9.507729351615823
 21
7.431233032203749
 31
0.0
  0
ARC
  5
DAAA
330
1A
100
AcDbEntity
  8
TERMINALS
100
AcDbCircle
 10
9.467729351615826
 20
7.431233032203749
 30
0.0
 40
0.04
100
AcDbArc
 50
359.9999999999995
 51
90.00000000000039
  0
MTEXT
  5
DAAB
330
1A
100
AcDbEntity
  8
TERMINALS
100
AcDbMText
 10
9.219499531110178
 20
7.732697354701994
 30
0.0
 40
0.07
 41
0.0
 71
     5
 72
     1
  1
{\fArial|b0|i0|c0|p34;+}
  7
SIMPLEX
 11
-1.0
 21
0.0000000000000006
 31
0.0
 73
     1
 44
1.0
1001
ACAD
1000
MTEXTBEGIN
1070
    73
1070
     1
1070
    44
1040
1.0
1070
    74
1070
     0
1000
MTEXTEND
  0
MTEXT
  5
DAAC
330
1A
100
AcDbEntity
  8
TERMINALS
100
AcDbMText
 10
8.817649131110181
 20
7.687697354701994
 30
0.0
 40
0.07
 41
0.0
 71
     5
 72
     1
  1
{\fArial|b0|i0|c0|p34;_}
  7
SIMPLEX
 11
-1.0
 21
0.0000000000000004
 31
0.0
 73
     1
 44
1.0
1001
ACAD
1000
MTEXTBEGIN
1070
    73
1070
     1
1070
    44
1040
1.0
1070
    74
1070
     0
1000
MTEXTEND
  0
MTEXT
  5
DAAD
330
1A
100
AcDbEntity
  8
TERMINALS
100
AcDbMText
 10
9.025798731110182
 20
7.732697354701994
 30
0.0
 40
0.07
 41
0.0
 71
     5
 72
     1
  1
{\fArial|b0|i0|c0|p34;S}
  7
SIMPLEX
 11
-1.0
 21
0.0000000000000006
 31
0.0
 73
     1
 44
1.0
1001
ACAD
1000
MTEXTBEGIN
1070
    73
1070
     1
1070
    44
1040
1.0
1070
    74
1070
     0
1000
MTEXTEND
  0
LINE
  5
DBF0
330
1A
100
AcDbEntity
  8
PART
100
AcDbLine
 10
7.27167730513201
 20
3.269999999999998
 30
0.0
 11
7.27167730513201
 21
1.962913343999995
 31
0.0
  0
LINE
  5
DBF1
330
1A
100
AcDbEntity
  8
PART
100
AcDbLine
 10
7.468527705132013
 20
3.27
 30
0.0
 11
7.468527705132013
 21
1.962913343999995
 31
0.0
  0
LINE
  5
DBF2
330
1A
100
AcDbEntity
  8
PART
100
AcDbLine
 10
11.04333706355613
 20
3.27
 30
0.0
 11
11.04333706355613
 21
1.962913343999995
 31
0.0
  0
LINE
  5
DBF3
330
1A
100
AcDbEntity
  8
PART
100
AcDbLine
 10
11.24081738355614
 20
2.506270332161904
 30
0.0
 11
11.24081738355614
 21
1.962913343999995
 31
0.0
  0
LINE
  5
DCFC
330
1A
100
AcDbEntity
  8
PART
100
AcDbLine
 10
7.271677305132008
 20
3.269999999999998
 30
0.0
 11
7.468527705132013
 21
3.27
 31
0.0
  0
LINE
  5
DCFD
330
1A
100
AcDbEntity
  8
PART
100
AcDbLine
 10
7.27167730513201
 20
2.861175137837346
 30
0.0
 11
7.468527705132013
 21
2.861175137837346
 31
0.0
  0
LINE
  5
DCFE
330
1A
100
AcDbEntity
  8
PART
100
AcDbLine
 10
7.271677305132011
 20
2.674832658771793
 30
0.0
 11
7.468527705132013
 21
2.674832658771793
 31
0.0
  0
LINE
  5
DCFF
330
1A
100
AcDbEntity
  8
PART
100
AcDbLine
 10
7.271677305132011
 20
2.392768381087396
 30
0.0
 11
7.468527705132013
 21
2.392768381087396
 31
0.0
  0
LINE
  5
DD00
330
1A
100
AcDbEntity
  8
PART
100
AcDbLine
 10
7.27167730513201
 20
2.20088525605869
 30
0.0
 11
7.468527705132013
 21
2.20088525605869
 31
0.0
  0
LINE
  5
DD01
330
1A
100
AcDbEntity
  8
PART
100
AcDbLine
 10
7.27167730513201
 20
2.084960591999995
 30
0.0
 11
7.468527705132013
 21
2.084960591999995
 31
0.0
  0
LINE
  5
DD02
330
1A
100
AcDbEntity
  8
PART
100
AcDbLine
 10
7.27167730513201
 20
1.962913343999995
 30
0.0
 11
7.468527705132013
 21
1.962913343999995
 31
0.0
  0
LINE
  5
DFDD
330
1A
100
AcDbEntity
  8
PART
100
AcDbLine
 10
11.04333706355613
 20
3.27
 30
0.0
 11
11.21795732911654
 21
3.27
 31
0.0
  0
LINE
  5
DFDE
330
1A
100
AcDbEntity
  8
PART
100
AcDbLine
 10
11.04333706355613
 20
2.861175137837346
 30
0.0
 11
11.24081738355614
 21
2.861175137837346
 31
0.0
  0
LINE
  5
DFDF
330
1A
100
AcDbEntity
  8
PART
100
AcDbLine
 10
11.04333706355613
 20
2.674832658771793
 30
0.0
 11
11.24081738355614
 21
2.674832658771793
 31
0.0
  0
LINE
  5
DFE0
330
1A
100
AcDbEntity
  8
PART
100
AcDbLine
 10
11.04333706355613
 20
2.392768381087396
 30
0.0
 11
11.24081738355613
 21
2.392768381087396
 31
0.0
  0
LINE
  5
DFE1
330
1A
100
AcDbEntity
  8
PART
100
AcDbLine
 10
11.04333706355613
 20
2.20088525605869
 30
0.0
 11
11.24081738355613
 21
2.20088525605869
 31
0.0
  0
LINE
  5
DFE2
330
1A
100
AcDbEntity
  8
PART
100
AcDbLine
 10
11.04333706355613
 20
2.084960591999995
 30
0.0
 11
11.24081738355613
 21
2.084960591999995
 31
0.0
  0
LINE
  5
DFE3
330
1A
100
AcDbEntity
  8
PART
100
AcDbLine
 10
11.04333706355613
 20
1.962913343999995
 30
0.0
 11
11.24081738355614
 21
1.962913343999995
 31
0.0
  0
LINE
  5
E038
330
1A
100
AcDbEntity
  8
PART
100
AcDbLine
 10
7.468527705132013
 20
3.218818896000001
 30
0.0
 11
11.04333706355613
 21
3.218818896000001
 31
0.0
  0
LINE
  5
E039
330
1A
100
AcDbEntity
  8
PART
100
AcDbLine
 10
7.468527705132013
 20
3.066151760312171
 30
0.0
 11
11.04333706355614
 21
3.066151760312171
 31
0.0
  0
LINE
  5
E03A
330
1A
100
AcDbEntity
  8
PART
100
AcDbLine
 10
7.468527705132013
 20
3.024046004563943
 30
0.0
 11
11.04333706355614
 21
3.024046004563943
 31
0.0
  0
LINE
  5
E03B
330
1A
100
AcDbEntity
  8
PART
100
AcDbLine
 10
7.468527705132013
 20
2.846738095777641
 30
0.0
 11
11.04333706355613
 21
2.846738095777642
 31
0.0
  0
LINE
  5
E03C
330
1A
100
AcDbEntity
  8
PART
100
AcDbLine
 10
7.468527705132013
 20
2.522496666614238
 30
0.0
 11
11.04333706355613
 21
2.522496666614238
 31
0.0
  0
LINE
  5
E03D
330
1A
100
AcDbEntity
  8
PART
100
AcDbLine
 10
7.468527705132013
 20
2.423543280000002
 30
0.0
 11
11.04333706355613
 21
2.423543280000002
 31
0.0
  0
LINE
  5
E03E
330
1A
100
AcDbEntity
  8
PART
100
AcDbLine
 10
7.468527705132013
 20
2.372362175999996
 30
0.0
 11
11.04333706355613
 21
2.372362175999996
 31
0.0
  0
LINE
  5
E03F
330
1A
100
AcDbEntity
  8
TERMINALS
100
AcDbLine
 10
8.19893588812698
 20
3.92004849786747
 30
0.0
 11
8.19893588812698
 21
3.875048497867473
 31
0.0
  0
LINE
  5
E040
330
1A
100
AcDbEntity
  8
TERMINALS
100
AcDbLine
 10
7.775935888126978
 20
3.93404849786747
 30
0.0
 11
7.775935888126977
 21
3.875048497867473
 31
0.0
  0
LINE
  5
E041
330
1A
100
AcDbEntity
  8
TERMINALS
100
AcDbLine
 10
7.775935888126978
 20
3.93404849786747
 30
0.0
 11
8.040935888126979
 21
3.93404849786747
 31
0.0
  0
LINE
  5
E042
330
1A
100
AcDbEntity
  8
TERMINALS
100
AcDbLine
 10
8.19893588812698
 20
3.92004849786747
 30
0.0
 11
8.040935888126979
 21
3.92004849786747
 31
0.0
  0
LINE
  5
E043
330
1A
100
AcDbEntity
  8
TERMINALS
100
AcDbLine
 10
8.040935888126979
 20
3.93404849786747
 30
0.0
 11
8.040935888126979
 21
3.92004849786747
 31
0.0
  0
LINE
  5
E044
330
1A
100
AcDbEntity
  8
TERMINALS
100
AcDbLine
 10
8.168935888126981
 20
3.38604849786747
 30
0.0
 11
8.168935888126981
 21
3.875048497867473
 31
0.0
  0
LINE
  5
E045
330
1A
100
AcDbEntity
  8
TERMINALS
100
AcDbLine
 10
8.19893588812698
 20
3.875048497867473
 30
0.0
 11
8.168935888126981
 21
3.875048497867473
 31
0.0
  0
LINE
  5
E046
330
1A
100
AcDbEntity
  8
TERMINALS
100
AcDbLine
 10
8.19893588812698
 20
3.23804849786747
 30
0.0
 11
7.88393588812698
 21
3.238048497867466
 31
0.0
  0
LINE
  5
E047
330
1A
100
AcDbEntity
  8
TERMINALS
100
AcDbLine
 10
8.19893588812698
 20
3.23804849786747
 30
0.0
 11
8.19893588812698
 21
3.38604849786747
 31
0.0
  0
LINE
  5
E048
330
1A
100
AcDbEntity
  8
TERMINALS
100
AcDbLine
 10
8.19893588812698
 20
3.38604849786747
 30
0.0
 11
8.168935888126981
 21
3.38604849786747
 31
0.0
  0
LINE
  5
E049
330
1A
100
AcDbEntity
  8
TERMINALS
100
AcDbLine
 10
7.730935888126978
 20
3.386048497867471
 30
0.0
 11
7.730935888126978
 21
3.703048497867471
 31
0.0
  0
LINE
  5
E04A
330
1A
100
AcDbEntity
  8
TERMINALS
100
AcDbLine
 10
7.823935888126981
 20
3.875048497867473
 30
0.0
 11
7.792935888126979
 21
3.703048497867471
 31
0.0
  0
LINE
  5
E04B
330
1A
100
AcDbEntity
  8
TERMINALS
100
AcDbLine
 10
7.823935888126981
 20
3.875048497867473
 30
0.0
 11
7.775935888126977
 21
3.875048497867473
 31
0.0
  0
LINE
  5
E04C
330
1A
100
AcDbEntity
  8
TERMINALS
100
AcDbLine
 10
7.730935888126978
 20
3.703048497867471
 30
0.0
 11
7.792935888126979
 21
3.703048497867471
 31
0.0
  0
LINE
  5
E04D
330
1A
100
AcDbEntity
  8
TERMINALS
100
AcDbLine
 10
7.70093588812698
 20
3.238698060218111
 30
0.0
 11
7.70093588812698
 21
3.386048497867471
 31
0.0
  0
LINE
  5
E04E
330
1A
100
AcDbEntity
  8
TERMINALS
100
AcDbLine
 10
7.70093588812698
 20
3.386048497867471
 30
0.0
 11
7.730935888126978
 21
3.386048497867471
 31
0.0
  0
LINE
  5
E04F
330
1A
100
AcDbEntity
  8
TERMINALS
100
AcDbLine
 10
7.88393588812698
 20
3.238048497867466
 30
0.0
 11
7.88393588812698
 21
3.538048497867471
 31
0.0
  0
LINE
  5
E050
330
1A
100
AcDbEntity
  8
TERMINALS
100
AcDbLine
 10
8.083935888126982
 20
3.238048497867473
 30
0.0
 11
8.08393588812698
 21
3.538048497867471
 31
0.0
  0
LINE
  5
E051
330
1A
100
AcDbEntity
  8
TERMINALS
100
AcDbLine
 10
8.08393588812698
 20
3.538048497867473
 30
0.0
 11
7.88393588812698
 21
3.538048497867471
 31
0.0
  0
LWPOLYLINE
  5
E052
330
1A
100
AcDbEntity
  8
TERMINALS
100
AcDbPolyline
 90
        2
 70
     0
 43
0.0
 10
8.096028179670879
 20
3.238698060218111
 10
8.096028179670879
 20
3.218818896000001
  0
LWPOLYLINE
  5
E053
330
1A
100
AcDbEntity
  8
TERMINALS
100
AcDbPolyline
 90
        2
 70
     0
 43
0.0
 10
7.70093588812698
 20
3.238698060218111
 10
8.096028179670879
 20
3.238698060218111
  0
LWPOLYLINE
  5
E067
330
1A
100
AcDbEntity
  8
TERMINALS
100
AcDbPolyline
 90
        2
 70
     0
 43
0.0
 10
7.749618312381723
 20
3.218818896000001
 10
7.756028179670882
 20
3.238048497867468
  0
LINE
  5
E086
330
1A
100
AcDbEntity
  8
TERMINALS
  6
Continuous
100
AcDbLine
 10
8.524453507685089
 20
3.218413387702205
 30
0.0
 11
8.524453507685089
 21
3.238533436889676
 31
0.0
  0
LINE
  5
E087
330
1A
100
AcDbEntity
  8
TERMINALS
  6
Continuous
100
AcDbLine
 10
8.524453507685089
 20
3.238533436889676
 30
0.0
 11
9.505686008405012
 21
3.238533436889674
 31
0.0
  0
LINE
  5
E088
330
1A
100
AcDbEntity
  8
TERMINALS
  6
Continuous
100
AcDbLine
 10
9.505686008405012
 20
3.238533436889674
 30
0.0
 11
9.505686008405012
 21
3.218413387702205
 31
0.0
  0
LINE
  5
E089
330
1A
100
AcDbEntity
  8
TERMINALS
  6
Continuous
100
AcDbLine
 10
9.533911619625399
 20
3.218818896
 30
0.0
 11
9.533911619625399
 21
3.23893894518747
 31
0.0
  0
LINE
  5
E08A
330
1A
100
AcDbEntity
  8
TERMINALS
  6
Continuous
100
AcDbLine
 10
9.533911619625399
 20
3.23893894518747
 30
0.0
 11
10.51514412034532
 21
3.238938945187468
 31
0.0
  0
LINE
  5
E08B
330
1A
100
AcDbEntity
  8
TERMINALS
  6
Continuous
100
AcDbLine
 10
10.51514412034532
 20
3.238938945187468
 30
0.0
 11
10.51514412034532
 21
3.218818896
 31
0.0
  0
LINE
  5
E08D
330
1A
100
AcDbEntity
  8
TERMINALS
100
AcDbLine
 10
11.27081738355614
 20
2.506270332157416
 30
0.0
 11
11.30081738355614
 21
2.506270332157416
 31
0.0
  0
LINE
  5
E08E
330
1A
100
AcDbEntity
  8
TERMINALS
100
AcDbLine
 10
11.27081738355614
 20
2.85627033215742
 30
0.0
 11
11.30081738355614
 21
2.85627033215742
 31
0.0
  0
LINE
  5
E08F
330
1A
100
AcDbEntity
  8
TERMINALS
100
AcDbLine
 10
11.30081738355614
 20
2.506270332157419
 30
0.0
 11
11.30081738355614
 21
2.85627033215742
 31
0.0
  0
INSERT
  5
E090
330
1A
100
AcDbEntity
  8
TERMINALS
100
AcDbBlockReference
  2
2 PanHdPhlpSide
 10
11.30081738355614
 20
2.6794488
 30
0.0
 41
1.028159999999998
 42
1.028159999999998
 43
1.028159999999998
 50
270.0
  0
LINE
  5
E093
330
1A
100
AcDbEntity
  8
TERMINALS
100
AcDbLine
 10
11.24081738355614
 20
2.506270332157419
 30
0.0
 11
11.27081738355613
 21
2.506270332157419
 31
0.0
  0
LINE
  5
E094
330
1A
100
AcDbEntity
  8
TERMINALS
100
AcDbLine
 10
10.62542085800404
 20
3.419999999999998
 30
0.0
 11
10.62542085800404
 21
3.319999999999999
 31
0.0
  0
LINE
  5
E095
330
1A
100
AcDbEntity
  8
TERMINALS
100
AcDbLine
 10
11.07542085800403
 20
3.419999999999998
 30
0.0
 11
11.07542085800403
 21
3.345958480579568
 31
0.0
  0
LINE
  5
E096
330
1A
100
AcDbEntity
  8
TERMINALS
100
AcDbLine
 10
10.62542085800404
 20
3.319999999999998
 30
0.0
 11
11.0599679286621
 21
3.319999999999995
 31
0.0
  0
LINE
  5
E097
330
1A
100
AcDbEntity
  8
TERMINALS
100
AcDbLine
 10
10.62542085800404
 20
3.419999999999998
 30
0.0
 11
11.07542085800403
 21
3.419999999999998
 31
0.0
  0
LINE
  5
E098
330
1A
100
AcDbEntity
  8
TERMINALS
100
AcDbLine
 10
10.66542085800404
 20
3.319999999999998
 30
0.0
 11
10.67542085800404
 21
3.22
 31
0.0
  0
LINE
  5
E099
330
1A
100
AcDbEntity
  8
TERMINALS
100
AcDbLine
 10
11.03542085800403
 20
3.319999999999998
 30
0.0
 11
11.02542085800403
 21
3.22
 31
0.0
  0
LINE
  5
E09A
330
1A
100
AcDbEntity
  8
TERMINALS
100
AcDbLine
 10
10.92264013177608
 20
3.345958480579568
 30
0.0
 11
11.07542085800403
 21
3.345958480579568
 31
0.0
  0
LINE
  5
E09B
330
1A
100
AcDbEntity
  8
TERMINALS
100
AcDbLine
 10
10.92264013177608
 20
3.345958480579568
 30
0.0
 11
10.92264013177608
 21
3.319999999999993
 31
0.0
  0
LINE
  5
E828
330
1A
100
AcDbEntity
  8
TERMINALS
100
AcDbLine
 10
9.477546763971959
 20
3.541683052889676
 30
0.0
 11
9.477546763971959
 21
3.238533436889677
 31
0.0
  0
LINE
  5
E829
330
1A
100
AcDbEntity
  8
TERMINALS
100
AcDbLine
 10
9.316916837571962
 20
3.384202732889678
 30
0.0
 11
8.716916818371965
 21
3.384202732889678
 31
0.0
  0
LINE
  5
E82A
330
1A
100
AcDbEntity
  8
TERMINALS
100
AcDbLine
 10
9.477546763971959
 20
3.541683052889676
 30
0.0
 11
9.316916837571962
 21
3.541683052889676
 31
0.0
  0
LINE
  5
E82B
330
1A
100
AcDbEntity
  8
TERMINALS
100
AcDbLine
 10
9.316916837571962
 20
3.675541324889673
 30
0.0
 11
9.316916837571962
 21
3.541683052889676
 31
0.0
  0
LINE
  5
E82C
330
1A
100
AcDbEntity
  8
TERMINALS
100
AcDbLine
 10
9.316916837571962
 20
3.876328732889676
 30
0.0
 11
9.316916837571962
 21
3.888139756889674
 31
0.0
  0
LINE
  5
E82D
330
1A
100
AcDbEntity
  8
TERMINALS
100
AcDbLine
 10
9.316916837571962
 20
3.696106454936314
 30
0.0
 11
9.316916837571962
 21
3.687352348889676
 31
0.0
  0
LINE
  5
E82E
330
1A
100
AcDbEntity
  8
TERMINALS
100
AcDbLine
 10
9.316916837571962
 20
3.675541324889673
 30
0.0
 11
9.316916837571962
 21
3.687352348889676
 31
0.0
  0
LINE
  5
E82F
330
1A
100
AcDbEntity
  8
TERMINALS
100
AcDbLine
 10
9.285351494787793
 20
3.650738174489676
 30
0.0
 11
9.273019198371962
 21
3.578297227289684
 31
0.0
  0
LINE
  5
E830
330
1A
100
AcDbEntity
  8
TERMINALS
100
AcDbLine
 10
9.285351494787793
 20
3.650738174489676
 30
0.0
 11
9.295656994371961
 21
3.650738174489676
 31
0.0
  0
LINE
  5
E831
330
1A
100
AcDbEntity
  8
TERMINALS
100
AcDbLine
 10
9.316916837571962
 20
3.696106454936314
 30
0.0
 11
8.716916818371965
 21
3.696106454936314
 31
0.0
  0
LINE
  5
E832
330
1A
100
AcDbEntity
  8
TERMINALS
100
AcDbLine
 10
8.716916818371965
 20
3.675541324889673
 30
0.0
 11
9.316916837571962
 21
3.675541324889673
 31
0.0
  0
LINE
  5
E833
330
1A
100
AcDbEntity
  8
TERMINALS
100
AcDbLine
 10
9.316916837571962
 20
3.687352348889676
 30
0.0
 11
8.716916818371965
 21
3.687352348889676
 31
0.0
  0
LINE
  5
E834
330
1A
100
AcDbEntity
  8
TERMINALS
100
AcDbLine
 10
9.316916837571962
 20
3.876328732889676
 30
0.0
 11
8.716916818371965
 21
3.876328732889676
 31
0.0
  0
LINE
  5
E835
330
1A
100
AcDbEntity
  8
TERMINALS
100
AcDbLine
 10
9.234093545314786
 20
3.650738174489676
 30
0.0
 11
9.285351494787793
 21
3.650738174489676
 31
0.0
  0
LINE
  5
E836
330
1A
100
AcDbEntity
  8
TERMINALS
100
AcDbLine
 10
8.716916818371965
 20
3.888139756889674
 30
0.0
 11
9.316916837571962
 21
3.888139756889674
 31
0.0
  0
LINE
  5
E837
330
1A
100
AcDbEntity
  8
TERMINALS
100
AcDbLine
 10
9.316916837571962
 20
3.923572828889676
 30
0.0
 11
8.716916818371965
 21
3.923572828889676
 31
0.0
  0
LINE
  5
E838
330
1A
100
AcDbEntity
  8
TERMINALS
100
AcDbLine
 10
9.148482173956136
 20
3.650738174489676
 30
0.0
 11
9.160814470371962
 21
3.578297227289684
 31
0.0
  0
LINE
  5
E839
330
1A
100
AcDbEntity
  8
TERMINALS
100
AcDbLine
 10
8.948482167556132
 20
3.650738174489676
 30
0.0
 11
8.960814463971965
 21
3.578297227289676
 31
0.0
  0
LINE
  5
E83A
330
1A
100
AcDbEntity
  8
TERMINALS
100
AcDbLine
 10
8.748482161156136
 20
3.650738174489676
 30
0.0
 11
8.760814457571964
 21
3.578297227289676
 31
0.0
  0
LINE
  5
E83B
330
1A
100
AcDbEntity
  8
TERMINALS
100
AcDbLine
 10
9.273019198371962
 20
3.578297227289684
 30
0.0
 11
9.160814470371962
 21
3.578297227289684
 31
0.0
  0
LINE
  5
E83C
330
1A
100
AcDbEntity
  8
TERMINALS
100
AcDbLine
 10
8.716916818371965
 20
3.696106454936314
 30
0.0
 11
8.716916818371965
 21
3.876328732889676
 31
0.0
  0
LINE
  5
E83D
330
1A
100
AcDbEntity
  8
TERMINALS
100
AcDbLine
 10
8.716916818371965
 20
3.696106454936314
 30
0.0
 11
8.716916818371965
 21
3.687352348889676
 31
0.0
  0
LINE
  5
E83E
330
1A
100
AcDbEntity
  8
TERMINALS
100
AcDbLine
 10
8.716916818371965
 20
3.675541324889673
 30
0.0
 11
8.716916818371965
 21
3.687352348889676
 31
0.0
  0
LINE
  5
E83F
330
1A
100
AcDbEntity
  8
TERMINALS
100
AcDbLine
 10
9.085351488387797
 20
3.650738174489676
 30
0.0
 11
9.095656987971961
 21
3.650738174489676
 31
0.0
  0
LINE
  5
E840
330
1A
100
AcDbEntity
  8
TERMINALS
100
AcDbLine
 10
9.034093538914783
 20
3.650738174489676
 30
0.0
 11
9.085351488387797
 21
3.650738174489676
 31
0.0
  0
LINE
  5
E841
330
1A
100
AcDbEntity
  8
TERMINALS
100
AcDbLine
 10
9.085351488387797
 20
3.650738174489676
 30
0.0
 11
9.073019191971962
 21
3.578297227289684
 31
0.0
  0
LINE
  5
E842
330
1A
100
AcDbEntity
  8
TERMINALS
100
AcDbLine
 10
9.073019191971962
 20
3.578297227289684
 30
0.0
 11
8.960814463971965
 21
3.578297227289676
 31
0.0
  0
LINE
  5
E843
330
1A
100
AcDbEntity
  8
TERMINALS
100
AcDbLine
 10
8.999740117029144
 20
3.650738174489676
 30
0.0
 11
9.034093538914783
 21
3.650738174489676
 31
0.0
  0
LINE
  5
E844
330
1A
100
AcDbEntity
  8
TERMINALS
100
AcDbLine
 10
8.938176667971962
 20
3.650738174489676
 30
0.0
 11
8.948482167556132
 21
3.650738174489676
 31
0.0
  0
LINE
  5
E845
330
1A
100
AcDbEntity
  8
TERMINALS
100
AcDbLine
 10
8.716916818371965
 20
3.888139756889674
 30
0.0
 11
8.716916818371965
 21
3.923572828889676
 31
0.0
  0
LINE
  5
E846
330
1A
100
AcDbEntity
  8
TERMINALS
100
AcDbLine
 10
8.716916818371965
 20
3.876328732889676
 30
0.0
 11
8.716916818371965
 21
3.888139756889674
 31
0.0
  0
LINE
  5
E847
330
1A
100
AcDbEntity
  8
TERMINALS
100
AcDbLine
 10
8.885351481987793
 20
3.650738174489676
 30
0.0
 11
8.895656981571962
 21
3.650738174489676
 31
0.0
  0
LINE
  5
E848
330
1A
100
AcDbEntity
  8
TERMINALS
100
AcDbLine
 10
8.738176661571966
 20
3.650738174489676
 30
0.0
 11
8.748482161156136
 21
3.650738174489676
 31
0.0
  0
LINE
  5
E849
330
1A
100
AcDbEntity
  8
TERMINALS
100
AcDbLine
 10
8.834093532514787
 20
3.650738174489676
 30
0.0
 11
8.885351481987793
 21
3.650738174489676
 31
0.0
  0
LINE
  5
E84A
330
1A
100
AcDbEntity
  8
TERMINALS
100
AcDbLine
 10
8.748482161156136
 20
3.650738174489676
 30
0.0
 11
8.799740110629139
 21
3.650738174489676
 31
0.0
  0
LINE
  5
E84B
330
1A
100
AcDbEntity
  8
TERMINALS
100
AcDbLine
 10
8.799740110629139
 20
3.650738174489676
 30
0.0
 11
8.834093532514787
 21
3.650738174489676
 31
0.0
  0
LINE
  5
E84C
330
1A
100
AcDbEntity
  8
TERMINALS
100
AcDbLine
 10
8.948482167556132
 20
3.650738174489676
 30
0.0
 11
8.999740117029144
 21
3.650738174489676
 31
0.0
  0
LINE
  5
E84D
330
1A
100
AcDbEntity
  8
TERMINALS
100
AcDbLine
 10
8.885351481987793
 20
3.650738174489676
 30
0.0
 11
8.873019185571967
 21
3.578297227289684
 31
0.0
  0
LINE
  5
E84E
330
1A
100
AcDbEntity
  8
TERMINALS
100
AcDbLine
 10
8.873019185571967
 20
3.578297227289684
 30
0.0
 11
8.760814457571964
 21
3.578297227289676
 31
0.0
  0
LINE
  5
E84F
330
1A
100
AcDbEntity
  8
TERMINALS
100
AcDbLine
 10
9.148482173956136
 20
3.650738174489676
 30
0.0
 11
9.19974012342914
 21
3.650738174489676
 31
0.0
  0
LINE
  5
E850
330
1A
100
AcDbEntity
  8
TERMINALS
100
AcDbLine
 10
9.138176674371962
 20
3.650738174489676
 30
0.0
 11
9.148482173956136
 21
3.650738174489676
 31
0.0
  0
LINE
  5
E851
330
1A
100
AcDbEntity
  8
TERMINALS
100
AcDbLine
 10
9.19974012342914
 20
3.650738174489676
 30
0.0
 11
9.234093545314786
 21
3.650738174489676
 31
0.0
  0
LINE
  5
E852
330
1A
100
AcDbEntity
  8
TERMINALS
100
AcDbLine
 10
9.316916837571962
 20
3.696106454936314
 30
0.0
 11
9.316916837571962
 21
3.876328732889676
 31
0.0
  0
LINE
  5
E853
330
1A
100
AcDbEntity
  8
TERMINALS
100
AcDbLine
 10
9.316916837571962
 20
3.541683052889676
 30
0.0
 11
9.316916837571962
 21
3.396013756889674
 31
0.0
  0
LINE
  5
E854
330
1A
100
AcDbEntity
  8
TERMINALS
100
AcDbLine
 10
8.738176661571966
 20
3.427509820889676
 30
0.0
 11
8.760814457571964
 21
3.449163364889673
 31
0.0
  0
LINE
  5
E855
330
1A
100
AcDbEntity
  8
TERMINALS
100
AcDbLine
 10
8.873019185571967
 20
3.449163364889673
 30
0.0
 11
8.895656981571962
 21
3.427509820889676
 31
0.0
  0
LINE
  5
E856
330
1A
100
AcDbEntity
  8
TERMINALS
100
AcDbLine
 10
9.273019198371962
 20
3.449163364889673
 30
0.0
 11
9.295656994371961
 21
3.427509820889676
 31
0.0
  0
LINE
  5
E857
330
1A
100
AcDbEntity
  8
TERMINALS
100
AcDbLine
 10
9.138176674371962
 20
3.427509820889676
 30
0.0
 11
9.160814470371962
 21
3.449163364889673
 31
0.0
  0
LINE
  5
E858
330
1A
100
AcDbEntity
  8
TERMINALS
100
AcDbLine
 10
9.073019191971962
 20
3.449163364889673
 30
0.0
 11
9.095656987971965
 21
3.427509820889676
 31
0.0
  0
LINE
  5
E859
330
1A
100
AcDbEntity
  8
TERMINALS
100
AcDbLine
 10
8.938176667971962
 20
3.427509820889676
 30
0.0
 11
8.960814463971965
 21
3.449163364889673
 31
0.0
  0
LINE
  5
E85A
330
1A
100
AcDbEntity
  8
TERMINALS
100
AcDbLine
 10
8.895656981571962
 20
3.427509820889676
 30
0.0
 11
8.738176661571966
 21
3.427509820889676
 31
0.0
  0
LINE
  5
E85B
330
1A
100
AcDbEntity
  8
TERMINALS
100
AcDbLine
 10
9.295656994371961
 20
3.650738174489676
 30
0.0
 11
9.295656994371961
 21
3.427509820889676
 31
0.0
  0
LINE
  5
E85C
330
1A
100
AcDbEntity
  8
TERMINALS
100
AcDbLine
 10
9.095656987971961
 20
3.650738174489676
 30
0.0
 11
9.095656987971965
 21
3.427509820889676
 31
0.0
  0
LINE
  5
E85D
330
1A
100
AcDbEntity
  8
TERMINALS
100
AcDbLine
 10
8.895656981571962
 20
3.650738174489676
 30
0.0
 11
8.895656981571962
 21
3.427509820889676
 31
0.0
  0
LINE
  5
E85E
330
1A
100
AcDbEntity
  8
TERMINALS
100
AcDbLine
 10
9.095656987971965
 20
3.427509820889676
 30
0.0
 11
8.938176667971962
 21
3.427509820889676
 31
0.0
  0
LINE
  5
E85F
330
1A
100
AcDbEntity
  8
TERMINALS
100
AcDbLine
 10
8.938176667971962
 20
3.427509820889676
 30
0.0
 11
8.938176667971962
 21
3.650738174489676
 31
0.0
  0
LINE
  5
E860
330
1A
100
AcDbEntity
  8
TERMINALS
100
AcDbLine
 10
9.138176674371962
 20
3.427509820889676
 30
0.0
 11
9.138176674371962
 21
3.650738174489676
 31
0.0
  0
LINE
  5
E861
330
1A
100
AcDbEntity
  8
TERMINALS
100
AcDbLine
 10
8.760814457571964
 20
3.449163364889673
 30
0.0
 11
8.873019185571967
 21
3.449163364889673
 31
0.0
  0
LINE
  5
E862
330
1A
100
AcDbEntity
  8
TERMINALS
100
AcDbLine
 10
9.073019191971962
 20
3.578297227289684
 30
0.0
 11
9.073019191971962
 21
3.449163364889673
 31
0.0
  0
LINE
  5
E863
330
1A
100
AcDbEntity
  8
TERMINALS
100
AcDbLine
 10
9.316916837571962
 20
3.923572828889676
 30
0.0
 11
9.316916837571962
 21
3.888139756889674
 31
0.0
  0
LINE
  5
E864
330
1A
100
AcDbEntity
  8
TERMINALS
100
AcDbLine
 10
9.160814470371962
 20
3.449163364889673
 30
0.0
 11
9.273019198371962
 21
3.449163364889673
 31
0.0
  0
LINE
  5
E865
330
1A
100
AcDbEntity
  8
TERMINALS
100
AcDbLine
 10
9.273019198371962
 20
3.578297227289684
 30
0.0
 11
9.273019198371962
 21
3.449163364889673
 31
0.0
  0
LINE
  5
E866
330
1A
100
AcDbEntity
  8
TERMINALS
100
AcDbLine
 10
9.160814470371962
 20
3.449163364889673
 30
0.0
 11
9.160814470371962
 21
3.578297227289684
 31
0.0
  0
LINE
  5
E867
330
1A
100
AcDbEntity
  8
TERMINALS
100
AcDbLine
 10
8.960814463971965
 20
3.449163364889673
 30
0.0
 11
8.960814463971965
 21
3.578297227289676
 31
0.0
  0
LINE
  5
E868
330
1A
100
AcDbEntity
  8
TERMINALS
100
AcDbLine
 10
8.760814457571964
 20
3.449163364889673
 30
0.0
 11
8.760814457571964
 21
3.578297227289676
 31
0.0
  0
LINE
  5
E869
330
1A
100
AcDbEntity
  8
TERMINALS
100
AcDbLine
 10
8.873019185571967
 20
3.578297227289684
 30
0.0
 11
8.873019185571967
 21
3.449163364889673
 31
0.0
  0
LINE
  5
E86A
330
1A
100
AcDbEntity
  8
TERMINALS
100
AcDbLine
 10
8.960814463971965
 20
3.449163364889673
 30
0.0
 11
9.073019191971962
 21
3.449163364889673
 31
0.0
  0
LINE
  5
E86B
330
1A
100
AcDbEntity
  8
TERMINALS
100
AcDbLine
 10
9.295656994371961
 20
3.427509820889676
 30
0.0
 11
9.138176674371962
 21
3.427509820889676
 31
0.0
  0
LINE
  5
E86C
330
1A
100
AcDbEntity
  8
TERMINALS
100
AcDbLine
 10
8.738176661571966
 20
3.427509820889676
 30
0.0
 11
8.738176661571966
 21
3.650738174489676
 31
0.0
  0
LINE
  5
E86D
330
1A
100
AcDbEntity
  8
TERMINALS
100
AcDbLine
 10
9.316916837571962
 20
3.384202732889678
 30
0.0
 11
9.316916837571962
 21
3.396013756889674
 31
0.0
  0
LINE
  5
E86E
330
1A
100
AcDbEntity
  8
TERMINALS
100
AcDbLine
 10
8.716916818371965
 20
3.541683052889676
 30
0.0
 11
8.716916818371965
 21
3.675541324889673
 31
0.0
  0
LINE
  5
E86F
330
1A
100
AcDbEntity
  8
TERMINALS
100
AcDbLine
 10
9.316916837571962
 20
3.396013756889674
 30
0.0
 11
8.716916818371965
 21
3.396013756889674
 31
0.0
  0
LINE
  5
E870
330
1A
100
AcDbEntity
  8
TERMINALS
100
AcDbLine
 10
8.716916818371965
 20
3.384202732889678
 30
0.0
 11
8.716916818371965
 21
3.396013756889674
 31
0.0
  0
LINE
  5
E871
330
1A
100
AcDbEntity
  8
TERMINALS
100
AcDbLine
 10
8.716916818371965
 20
3.396013756889674
 30
0.0
 11
8.716916818371965
 21
3.541683052889676
 31
0.0
  0
LINE
  5
E872
330
1A
100
AcDbEntity
  8
TERMINALS
100
AcDbLine
 10
9.091326279171962
 20
3.255553531816135
 30
0.0
 11
8.891326272771966
 21
3.255553531816135
 31
0.0
  0
LINE
  5
E873
330
1A
100
AcDbEntity
  8
TERMINALS
100
AcDbLine
 10
9.316916837571962
 20
3.255553531816135
 30
0.0
 11
9.091326279171962
 21
3.255553531816135
 31
0.0
  0
LINE
  5
E874
330
1A
100
AcDbEntity
  8
TERMINALS
100
AcDbLine
 10
9.316916837571962
 20
3.247799139811998
 30
0.0
 11
9.316916837571962
 21
3.255553531816135
 31
0.0
  0
LINE
  5
E875
330
1A
100
AcDbEntity
  8
TERMINALS
100
AcDbLine
 10
9.179908959171962
 20
3.254996273004786
 30
0.0
 11
9.116916831171966
 21
3.254996273004786
 31
0.0
  0
LINE
  5
E876
330
1A
100
AcDbEntity
  8
TERMINALS
100
AcDbLine
 10
9.116916831171966
 20
3.254996273004786
 30
0.0
 11
9.116916831171966
 21
3.247799139811998
 31
0.0
  0
LINE
  5
E877
330
1A
100
AcDbEntity
  8
TERMINALS
100
AcDbLine
 10
9.179908959171962
 20
3.254996273004786
 30
0.0
 11
9.179908959171962
 21
3.247799139811998
 31
0.0
  0
LINE
  5
E878
330
1A
100
AcDbEntity
  8
TERMINALS
100
AcDbLine
 10
9.466129440771961
 20
3.238533436889677
 30
0.0
 11
9.477546763971959
 21
3.238533436889677
 31
0.0
  0
LINE
  5
E879
330
1A
100
AcDbEntity
  8
TERMINALS
100
AcDbLine
 10
9.316916837571962
 20
3.238533436889677
 30
0.0
 11
9.367704240771967
 21
3.238533436889677
 31
0.0
  0
LINE
  5
E87A
330
1A
100
AcDbEntity
  8
TERMINALS
100
AcDbLine
 10
9.367704240771967
 20
3.238533436889677
 30
0.0
 11
9.466129440771961
 21
3.238533436889677
 31
0.0
  0
LINE
  5
E87B
330
1A
100
AcDbEntity
  8
TERMINALS
100
AcDbLine
 10
9.266326284771967
 20
3.238533436889677
 30
0.0
 11
9.316916837571962
 21
3.238533436889677
 31
0.0
  0
LINE
  5
E87C
330
1A
100
AcDbEntity
  8
TERMINALS
100
AcDbLine
 10
9.179908959171962
 20
3.238533436889677
 30
0.0
 11
9.266326284771967
 21
3.238533436889677
 31
0.0
  0
LINE
  5
E87D
330
1A
100
AcDbEntity
  8
TERMINALS
100
AcDbLine
 10
9.316916837571962
 20
3.247799139811998
 30
0.0
 11
9.316916837571962
 21
3.238533436889677
 31
0.0
  0
LINE
  5
E87E
330
1A
100
AcDbEntity
  8
TERMINALS
100
AcDbLine
 10
9.179908959171962
 20
3.247799139811998
 30
0.0
 11
9.179908959171962
 21
3.238533436889677
 31
0.0
  0
LINE
  5
E87F
330
1A
100
AcDbEntity
  8
TERMINALS
100
AcDbLine
 10
9.116916831171966
 20
3.247799139811998
 30
0.0
 11
9.116916831171966
 21
3.238533436889677
 31
0.0
  0
LINE
  5
E880
330
1A
100
AcDbEntity
  8
TERMINALS
100
AcDbLine
 10
8.916916824771963
 20
3.254996273004786
 30
0.0
 11
8.916916824771963
 21
3.247799139811998
 31
0.0
  0
LINE
  5
E881
330
1A
100
AcDbEntity
  8
TERMINALS
100
AcDbLine
 10
8.916916824771963
 20
3.254996273004786
 30
0.0
 11
8.891942604519877
 21
3.254996273004823
 31
0.0
  0
LINE
  5
E882
330
1A
100
AcDbEntity
  8
TERMINALS
100
AcDbLine
 10
8.916916824771963
 20
3.238533436889677
 30
0.0
 11
8.967507377571957
 21
3.238533436889677
 31
0.0
  0
LINE
  5
E883
330
1A
100
AcDbEntity
  8
TERMINALS
100
AcDbLine
 10
8.967507377571957
 20
3.238533436889677
 30
0.0
 11
9.116916831171966
 21
3.238533436889677
 31
0.0
  0
LINE
  5
E884
330
1A
100
AcDbEntity
  8
TERMINALS
100
AcDbLine
 10
8.916916824771963
 20
3.247799139811998
 30
0.0
 11
8.916916824771963
 21
3.238533436889677
 31
0.0
  0
LINE
  5
E885
330
1A
100
AcDbEntity
  8
TERMINALS
100
AcDbLine
 10
8.890709941023953
 20
3.254996273004901
 30
0.0
 11
8.853924696771965
 21
3.254996273004786
 31
0.0
  0
LINE
  5
E886
330
1A
100
AcDbEntity
  8
TERMINALS
100
AcDbLine
 10
9.316916837571962
 20
3.384202732889678
 30
0.0
 11
9.316916837571962
 21
3.255553531816135
 31
0.0
  0
LINE
  5
E887
330
1A
100
AcDbEntity
  8
TERMINALS
100
AcDbLine
 10
8.891326272771966
 20
3.255553531816135
 30
0.0
 11
8.716916818371965
 21
3.255553531816135
 31
0.0
  0
LINE
  5
E888
330
1A
100
AcDbEntity
  8
TERMINALS
100
AcDbLine
 10
8.716916818371965
 20
3.255553531816135
 30
0.0
 11
8.716916818371965
 21
3.384202732889678
 31
0.0
  0
LINE
  5
E889
330
1A
100
AcDbEntity
  8
TERMINALS
100
AcDbLine
 10
8.716916818371965
 20
3.238533436889677
 30
0.0
 11
8.716916818371965
 21
3.247799139811998
 31
0.0
  0
LINE
  5
E88A
330
1A
100
AcDbEntity
  8
TERMINALS
100
AcDbLine
 10
8.716916818371965
 20
3.238533436889677
 30
0.0
 11
8.767507371171962
 21
3.238533436889677
 31
0.0
  0
LINE
  5
E88B
330
1A
100
AcDbEntity
  8
TERMINALS
100
AcDbLine
 10
8.716916818371965
 20
3.247799139811998
 30
0.0
 11
8.716916818371965
 21
3.255553531816135
 31
0.0
  0
LINE
  5
E88C
330
1A
100
AcDbEntity
  8
TERMINALS
100
AcDbLine
 10
8.767507371171962
 20
3.238533436889677
 30
0.0
 11
8.853924696771965
 21
3.238533436889677
 31
0.0
  0
LINE
  5
E88D
330
1A
100
AcDbEntity
  8
TERMINALS
100
AcDbLine
 10
8.853924696771965
 20
3.254996273004786
 30
0.0
 11
8.853924696771965
 21
3.247799139811998
 31
0.0
  0
LINE
  5
E88E
330
1A
100
AcDbEntity
  8
TERMINALS
100
AcDbLine
 10
8.853924696771965
 20
3.247799139811998
 30
0.0
 11
8.853924696771965
 21
3.238533436889677
 31
0.0
  0
LINE
  5
E88F
330
1A
100
AcDbEntity
  8
TERMINALS
100
AcDbLine
 10
9.516916843971966
 20
3.541683052889676
 30
0.0
 11
9.477546763971959
 21
3.541683052889676
 31
0.0
  0
LINE
  5
E890
330
1A
100
AcDbEntity
  8
TERMINALS
100
AcDbLine
 10
9.516916843971966
 20
3.238533436889677
 30
0.0
 11
9.477546763971959
 21
3.238533436889677
 31
0.0
  0
LINE
  5
E891
330
1A
100
AcDbEntity
  8
TERMINALS
100
AcDbLine
 10
9.516916843971966
 20
3.541683052889676
 30
0.0
 11
9.516916843971966
 21
3.238533436889677
 31
0.0
  0
LINE
  5
E892
330
1A
100
AcDbEntity
  8
TERMINALS
100
AcDbLine
 10
9.316916837571962
 20
3.923572828889676
 30
0.0
 11
9.316916837571962
 21
3.93538385288968
 31
0.0
  0
LINE
  5
E893
330
1A
100
AcDbEntity
  8
TERMINALS
100
AcDbLine
 10
9.316916837571962
 20
3.93538385288968
 30
0.0
 11
8.716916818371965
 21
3.93538385288968
 31
0.0
  0
LINE
  5
E894
330
1A
100
AcDbEntity
  8
TERMINALS
100
AcDbLine
 10
8.716916818371965
 20
3.923572828889676
 30
0.0
 11
8.716916818371965
 21
3.93538385288968
 31
0.0
  0
LINE
  5
E895
330
1A
100
AcDbEntity
  8
TERMINALS
100
AcDbLine
 10
8.666129415171962
 20
3.238533436889677
 30
0.0
 11
8.716916818371965
 21
3.238533436889677
 31
0.0
  0
LINE
  5
E896
330
1A
100
AcDbEntity
  8
TERMINALS
100
AcDbLine
 10
8.556286891971961
 20
3.238533436889677
 30
0.0
 11
8.567704215171961
 21
3.238533436889677
 31
0.0
  0
LINE
  5
E897
330
1A
100
AcDbEntity
  8
TERMINALS
100
AcDbLine
 10
8.567704215171961
 20
3.238533436889677
 30
0.0
 11
8.666129415171962
 21
3.238533436889677
 31
0.0
  0
LINE
  5
E898
330
1A
100
AcDbEntity
  8
TERMINALS
100
AcDbLine
 10
8.716916818371965
 20
3.541683052889676
 30
0.0
 11
8.556286891971961
 21
3.541683052889676
 31
0.0
  0
LINE
  5
E899
330
1A
100
AcDbEntity
  8
TERMINALS
100
AcDbLine
 10
8.516916811971961
 20
3.541683052889676
 30
0.0
 11
8.516916811971961
 21
3.238533436889677
 31
0.0
  0
LINE
  5
E89A
330
1A
100
AcDbEntity
  8
TERMINALS
100
AcDbLine
 10
8.556286891971961
 20
3.238533436889677
 30
0.0
 11
8.516916811971961
 21
3.238533436889677
 31
0.0
  0
LINE
  5
E89B
330
1A
100
AcDbEntity
  8
TERMINALS
100
AcDbLine
 10
8.556286891971961
 20
3.541683052889676
 30
0.0
 11
8.556286891971961
 21
3.238533436889677
 31
0.0
  0
LINE
  5
E89C
330
1A
100
AcDbEntity
  8
TERMINALS
100
AcDbLine
 10
8.556286891971961
 20
3.541683052889676
 30
0.0
 11
8.516916811971961
 21
3.541683052889676
 31
0.0
  0
ARC
  5
E89D
330
1A
100
AcDbEntity
  8
TERMINALS
100
AcDbCircle
 10
9.016916827971963
 20
3.659055143006173
 30
0.0
 40
0.0196796240707574
100
AcDbArc
 50
251.1008066518084
 51
288.899193348191
  0
ARC
  5
E89E
330
1A
100
AcDbEntity
  8
TERMINALS
100
AcDbCircle
 10
8.816916821571959
 20
3.659055143006173
 30
0.0
 40
0.0196796240707574
100
AcDbArc
 50
251.1008066518089
 51
288.8991933481912
  0
ARC
  5
E89F
330
1A
100
AcDbEntity
  8
TERMINALS
100
AcDbCircle
 10
9.216916834371961
 20
3.659055143006173
 30
0.0
 40
0.0196796240707574
100
AcDbArc
 50
251.1008066518089
 51
288.8991933481912
  0
ARC
  5
E8A0
330
1A
100
AcDbEntity
  8
TERMINALS
100
AcDbCircle
 10
9.216713028392579
 20
3.658460171432908
 30
0.0
 40
0.0190507138714297
100
AcDbArc
 50
243.0938952338516
 51
251.1011225983256
  0
ARC
  5
E8A1
330
1A
100
AcDbEntity
  8
TERMINALS
100
AcDbCircle
 10
9.216415626624137
 20
3.657849991021858
 30
0.0
 40
0.018372006008431
100
AcDbArc
 50
234.8774033704847
 51
243.05984913131
  0
ARC
  5
E8A2
330
1A
100
AcDbEntity
  8
TERMINALS
100
AcDbCircle
 10
9.215982832239607
 20
3.657219231098048
 30
0.0
 40
0.0176070966119684
100
AcDbArc
 50
226.4041072955379
 51
234.848437264408
  0
ARC
  5
E8A3
330
1A
100
AcDbEntity
  8
TERMINALS
100
AcDbCircle
 10
9.215501919238684
 20
3.65669696830537
 30
0.0
 40
0.016897244891642
100
AcDbArc
 50
217.6929272377341
 51
226.3639324036667
  0
ARC
  5
E8A4
330
1A
100
AcDbEntity
  8
TERMINALS
100
AcDbCircle
 10
9.214933278221147
 20
3.656239950220725
 30
0.0
 40
0.0161678515588939
100
AcDbArc
 50
208.7335489951663
 51
217.6434764072287
  0
ARC
  5
E8A5
330
1A
100
AcDbEntity
  8
TERMINALS
100
AcDbCircle
 10
9.214395004870812
 20
3.655933470721403
 30
0.0
 40
0.0155485257502081
100
AcDbArc
 50
199.5199055941247
 51
208.6967982218074
  0
ARC
  5
E8A6
330
1A
100
AcDbEntity
  8
TERMINALS
100
AcDbCircle
 10
9.019476946118723
 20
3.655916336684025
 30
7.710285371233901E+99
 40
0.0155067130197478
100
AcDbArc
 50
331.2908027390676
 51
340.492493445001
  0
ARC
  5
E8A7
330
1A
100
AcDbEntity
  8
TERMINALS
100
AcDbCircle
 10
9.018991260463026
 20
3.656180508428543
 30
7.710285371233901E+99
 40
0.0160595916379181
100
AcDbArc
 50
322.3264307844972
 51
331.2965438131126
  0
ARC
  5
E8A8
330
1A
100
AcDbEntity
  8
TERMINALS
100
AcDbCircle
 10
9.018458332374596
 20
3.656582873027511
 30
7.710285371233901E+99
 40
0.0167273186853365
100
AcDbArc
 50
313.5919393975273
 51
322.3512009610733
  0
ARC
  5
E8A9
330
1A
100
AcDbEntity
  8
TERMINALS
100
AcDbCircle
 10
9.017900283030687
 20
3.657158969804273
 30
7.710285371233901E+99
 40
0.0175293539021098
100
AcDbArc
 50
305.1328032321679
 51
313.6146522078846
  0
ARC
  5
E8AA
330
1A
100
AcDbEntity
  8
TERMINALS
100
AcDbCircle
 10
9.017479404881726
 20
3.657747982151586
 30
7.710285371233901E+99
 40
0.0182532652060025
100
AcDbArc
 50
296.9134909517272
 51
305.1492565464798
  0
ARC
  5
E8AB
330
1A
100
AcDbEntity
  8
TERMINALS
100
AcDbCircle
 10
9.017180379293202
 20
3.658318751553298
 30
7.710285371233901E+99
 40
0.018897569286879
100
AcDbArc
 50
288.8663788389481
 51
296.9386033288742
  0
ARC
  5
E8AC
330
1A
100
AcDbEntity
  8
TERMINALS
100
AcDbCircle
 10
9.016713021992575
 20
3.658460171432908
 30
7.710285371233901E+99
 40
0.019050713871426
100
AcDbArc
 50
243.0938952338511
 51
251.1011225983269
  0
ARC
  5
E8AD
330
1A
100
AcDbEntity
  8
TERMINALS
100
AcDbCircle
 10
9.016415620224131
 20
3.657849991021858
 30
7.710285371233901E+99
 40
0.0183720060084304
100
AcDbArc
 50
234.8774033704847
 51
243.05984913131
  0
ARC
  5
E8AE
330
1A
100
AcDbEntity
  8
TERMINALS
100
AcDbCircle
 10
9.015982825839602
 20
3.657219231098048
 30
7.710285371233901E+99
 40
0.017607096611966
100
AcDbArc
 50
226.4041072955382
 51
234.8484372644097
  0
ARC
  5
E8AF
330
1A
100
AcDbEntity
  8
TERMINALS
100
AcDbCircle
 10
9.015501912838688
 20
3.65669696830537
 30
7.710285371233901E+99
 40
0.0168972448916431
100
AcDbArc
 50
217.6929272377335
 51
226.3639324036656
  0
ARC
  5
E8B0
330
1A
100
AcDbEntity
  8
TERMINALS
100
AcDbCircle
 10
9.014933271821146
 20
3.656239950220725
 30
7.710285371233901E+99
 40
0.0161678515588926
100
AcDbArc
 50
208.7335489951644
 51
217.6434764072272
  0
ARC
  5
E8B1
330
1A
100
AcDbEntity
  8
TERMINALS
100
AcDbCircle
 10
9.014394998470816
 20
3.655933470721403
 30
7.710285371233901E+99
 40
0.0155485257502098
100
AcDbArc
 50
199.5199055941242
 51
208.6967982218059
  0
ARC
  5
E8B2
330
1A
100
AcDbEntity
  8
TERMINALS
100
AcDbCircle
 10
8.816713015592577
 20
3.658460171432908
 30
7.710285371233901E+99
 40
0.0190507138714284
100
AcDbArc
 50
243.0938952338526
 51
251.1011225983269
  0
ARC
  5
E8B3
330
1A
100
AcDbEntity
  8
TERMINALS
100
AcDbCircle
 10
8.816415613824135
 20
3.657849991021858
 30
7.710285371233901E+99
 40
0.0183720060084299
100
AcDbArc
 50
234.8774033704835
 51
243.059849131309
  0
ARC
  5
E8B4
330
1A
100
AcDbEntity
  8
TERMINALS
100
AcDbCircle
 10
8.815982819439598
 20
3.657219231098042
 30
7.710285371233901E+99
 40
0.0176070966119574
100
AcDbArc
 50
226.4041072955361
 51
234.8484372644118
  0
ARC
  5
E8B5
330
1A
100
AcDbEntity
  8
TERMINALS
100
AcDbCircle
 10
8.815501906438688
 20
3.65669696830537
 30
7.710285371233901E+99
 40
0.0168972448916416
100
AcDbArc
 50
217.6929272377325
 51
226.363932403665
  0
ARC
  5
E8B6
330
1A
100
AcDbEntity
  8
TERMINALS
100
AcDbCircle
 10
8.814933265421148
 20
3.656239950220725
 30
7.710285371233901E+99
 40
0.0161678515588939
100
AcDbArc
 50
208.7335489951663
 51
217.6434764072287
  0
ARC
  5
E8B7
330
1A
100
AcDbEntity
  8
TERMINALS
100
AcDbCircle
 10
8.81439499207082
 20
3.655933470721403
 30
7.710285371233901E+99
 40
0.0155485257502127
100
AcDbArc
 50
199.5199055941251
 51
208.696798221805
  0
ARC
  5
E8B8
330
1A
100
AcDbEntity
  8
TERMINALS
100
AcDbCircle
 10
8.819476939718722
 20
3.655916336684031
 30
7.710285371233901E+99
 40
0.0155067130197565
100
AcDbArc
 50
331.2908027390685
 51
340.4924934449972
  0
ARC
  5
E8B9
330
1A
100
AcDbEntity
  8
TERMINALS
100
AcDbCircle
 10
8.818991254063039
 20
3.656180508428536
 30
7.710285371233901E+99
 40
0.0160595916379097
100
AcDbArc
 50
322.3264307844943
 51
331.2965438131143
  0
ARC
  5
E8BA
330
1A
100
AcDbEntity
  8
TERMINALS
100
AcDbCircle
 10
8.818458325974592
 20
3.656582873027511
 30
7.710285371233901E+99
 40
0.0167273186853353
100
AcDbArc
 50
313.5919393975261
 51
322.3512009610721
  0
ARC
  5
E8BB
330
1A
100
AcDbEntity
  8
TERMINALS
100
AcDbCircle
 10
8.817900276630691
 20
3.657158969804267
 30
7.710285371233901E+99
 40
0.0175293539021029
100
AcDbArc
 50
305.1328032321673
 51
313.6146522078876
  0
ARC
  5
E8BC
330
1A
100
AcDbEntity
  8
TERMINALS
100
AcDbCircle
 10
8.817479398481726
 20
3.657747982151586
 30
7.710285371233901E+99
 40
0.0182532652060036
100
AcDbArc
 50
296.9134909517263
 51
305.1492565464783
  0
ARC
  5
E8BD
330
1A
100
AcDbEntity
  8
TERMINALS
100
AcDbCircle
 10
8.817180372893201
 20
3.658318751553298
 30
7.710285371233901E+99
 40
0.0188975692868783
100
AcDbArc
 50
288.8663788389475
 51
296.938603328874
  0
ARC
  5
E8BE
330
1A
100
AcDbEntity
  8
TERMINALS
100
AcDbCircle
 10
9.219476952518727
 20
3.655916336684025
 30
7.710285371233901E+99
 40
0.0155067130197463
100
AcDbArc
 50
331.2908027390666
 51
340.4924934450014
  0
ARC
  5
E8BF
330
1A
100
AcDbEntity
  8
TERMINALS
100
AcDbCircle
 10
9.218991266863033
 20
3.656180508428543
 30
7.710285371233901E+99
 40
0.0160595916379193
100
AcDbArc
 50
322.3264307844978
 51
331.2965438131126
  0
ARC
  5
E8C0
330
1A
100
AcDbEntity
  8
TERMINALS
100
AcDbCircle
 10
9.218458338774592
 20
3.656582873027511
 30
7.710285371233901E+99
 40
0.0167273186853353
100
AcDbArc
 50
313.5919393975261
 51
322.3512009610721
  0
ARC
  5
E8C1
330
1A
100
AcDbEntity
  8
TERMINALS
100
AcDbCircle
 10
9.217900289430692
 20
3.657158969804273
 30
7.710285371233901E+99
 40
0.0175293539021114
100
AcDbArc
 50
305.1328032321688
 51
313.6146522078854
  0
ARC
  5
E8C2
330
1A
100
AcDbEntity
  8
TERMINALS
100
AcDbCircle
 10
9.217479411281725
 20
3.657747982151593
 30
7.710285371233901E+99
 40
0.0182532652060069
100
AcDbArc
 50
296.9134909517272
 51
305.1492565464778
  0
ARC
  5
E8C3
330
1A
100
AcDbEntity
  8
TERMINALS
100
AcDbCircle
 10
9.217180385693199
 20
3.658318751553305
 30
7.710285371233901E+99
 40
0.0188975692868874
100
AcDbArc
 50
288.8663788389497
 51
296.9386033288719
  0
LINE
  5
E8C4
330
1A
100
AcDbEntity
  8
TERMINALS
100
AcDbLine
 10
10.48700487591227
 20
3.542088561187468
 30
0.0
 11
10.48700487591227
 21
3.23893894518747
 31
0.0
  0
LINE
  5
E8C5
330
1A
100
AcDbEntity
  8
TERMINALS
100
AcDbLine
 10
10.32637494951227
 20
3.38460824118747
 30
0.0
 11
9.726374930312275
 21
3.38460824118747
 31
0.0
  0
LINE
  5
E8C6
330
1A
100
AcDbEntity
  8
TERMINALS
100
AcDbLine
 10
10.48700487591227
 20
3.542088561187468
 30
0.0
 11
10.32637494951227
 21
3.542088561187468
 31
0.0
  0
LINE
  5
E8C7
330
1A
100
AcDbEntity
  8
TERMINALS
100
AcDbLine
 10
10.32637494951227
 20
3.675946833187466
 30
0.0
 11
10.32637494951227
 21
3.542088561187468
 31
0.0
  0
LINE
  5
E8C8
330
1A
100
AcDbEntity
  8
TERMINALS
100
AcDbLine
 10
10.32637494951227
 20
3.876734241187469
 30
0.0
 11
10.32637494951227
 21
3.888545265187466
 31
0.0
  0
LINE
  5
E8C9
330
1A
100
AcDbEntity
  8
TERMINALS
100
AcDbLine
 10
10.32637494951227
 20
3.696511963234108
 30
0.0
 11
10.32637494951227
 21
3.68775785718747
 31
0.0
  0
LINE
  5
E8CA
330
1A
100
AcDbEntity
  8
TERMINALS
100
AcDbLine
 10
10.32637494951227
 20
3.675946833187466
 30
0.0
 11
10.32637494951227
 21
3.68775785718747
 31
0.0
  0
LINE
  5
E8CB
330
1A
100
AcDbEntity
  8
TERMINALS
100
AcDbLine
 10
10.2948096067281
 20
3.65114368278747
 30
0.0
 11
10.28247731031227
 21
3.578702735587476
 31
0.0
  0
LINE
  5
E8CC
330
1A
100
AcDbEntity
  8
TERMINALS
100
AcDbLine
 10
10.2948096067281
 20
3.65114368278747
 30
0.0
 11
10.30511510631227
 21
3.65114368278747
 31
0.0
  0
LINE
  5
E8CD
330
1A
100
AcDbEntity
  8
TERMINALS
100
AcDbLine
 10
10.32637494951227
 20
3.696511963234108
 30
0.0
 11
9.726374930312275
 21
3.696511963234108
 31
0.0
  0
LINE
  5
E8CE
330
1A
100
AcDbEntity
  8
TERMINALS
100
AcDbLine
 10
9.726374930312275
 20
3.675946833187466
 30
0.0
 11
10.32637494951227
 21
3.675946833187466
 31
0.0
  0
LINE
  5
E8CF
330
1A
100
AcDbEntity
  8
TERMINALS
100
AcDbLine
 10
10.32637494951227
 20
3.68775785718747
 30
0.0
 11
9.726374930312275
 21
3.68775785718747
 31
0.0
  0
LINE
  5
E8D0
330
1A
100
AcDbEntity
  8
TERMINALS
100
AcDbLine
 10
10.32637494951227
 20
3.876734241187469
 30
0.0
 11
9.726374930312275
 21
3.876734241187469
 31
0.0
  0
LINE
  5
E8D1
330
1A
100
AcDbEntity
  8
TERMINALS
100
AcDbLine
 10
10.24355165725509
 20
3.65114368278747
 30
0.0
 11
10.2948096067281
 21
3.65114368278747
 31
0.0
  0
LINE
  5
E8D2
330
1A
100
AcDbEntity
  8
TERMINALS
100
AcDbLine
 10
9.726374930312275
 20
3.888545265187466
 30
0.0
 11
10.32637494951227
 21
3.888545265187466
 31
0.0
  0
LINE
  5
E8D3
330
1A
100
AcDbEntity
  8
TERMINALS
100
AcDbLine
 10
10.32637494951227
 20
3.92397833718747
 30
0.0
 11
9.726374930312275
 21
3.92397833718747
 31
0.0
  0
LINE
  5
E8D4
330
1A
100
AcDbEntity
  8
TERMINALS
100
AcDbLine
 10
10.15794028589644
 20
3.65114368278747
 30
0.0
 11
10.17027258231227
 21
3.578702735587476
 31
0.0
  0
LINE
  5
E8D5
330
1A
100
AcDbEntity
  8
TERMINALS
100
AcDbLine
 10
9.957940279496439
 20
3.65114368278747
 30
0.0
 11
9.970272575912275
 21
3.578702735587468
 31
0.0
  0
LINE
  5
E8D6
330
1A
100
AcDbEntity
  8
TERMINALS
100
AcDbLine
 10
9.757940273096442
 20
3.65114368278747
 30
0.0
 11
9.770272569512272
 21
3.578702735587468
 31
0.0
  0
LINE
  5
E8D7
330
1A
100
AcDbEntity
  8
TERMINALS
100
AcDbLine
 10
10.28247731031227
 20
3.578702735587476
 30
0.0
 11
10.17027258231227
 21
3.578702735587476
 31
0.0
  0
LINE
  5
E8D8
330
1A
100
AcDbEntity
  8
TERMINALS
100
AcDbLine
 10
9.726374930312275
 20
3.696511963234108
 30
0.0
 11
9.726374930312275
 21
3.876734241187469
 31
0.0
  0
LINE
  5
E8D9
330
1A
100
AcDbEntity
  8
TERMINALS
100
AcDbLine
 10
9.726374930312275
 20
3.696511963234108
 30
0.0
 11
9.726374930312275
 21
3.68775785718747
 31
0.0
  0
LINE
  5
E8DA
330
1A
100
AcDbEntity
  8
TERMINALS
100
AcDbLine
 10
9.726374930312275
 20
3.675946833187466
 30
0.0
 11
9.726374930312275
 21
3.68775785718747
 31
0.0
  0
LINE
  5
E8DB
330
1A
100
AcDbEntity
  8
TERMINALS
100
AcDbLine
 10
10.0948096003281
 20
3.65114368278747
 30
0.0
 11
10.10511509991227
 21
3.65114368278747
 31
0.0
  0
LINE
  5
E8DC
330
1A
100
AcDbEntity
  8
TERMINALS
100
AcDbLine
 10
10.04355165085509
 20
3.65114368278747
 30
0.0
 11
10.0948096003281
 21
3.65114368278747
 31
0.0
  0
LINE
  5
E8DD
330
1A
100
AcDbEntity
  8
TERMINALS
100
AcDbLine
 10
10.0948096003281
 20
3.65114368278747
 30
0.0
 11
10.08247730391227
 21
3.578702735587476
 31
0.0
  0
LINE
  5
E8DE
330
1A
100
AcDbEntity
  8
TERMINALS
100
AcDbLine
 10
10.08247730391227
 20
3.578702735587476
 30
0.0
 11
9.970272575912275
 21
3.578702735587468
 31
0.0
  0
LINE
  5
E8DF
330
1A
100
AcDbEntity
  8
TERMINALS
100
AcDbLine
 10
10.00919822896945
 20
3.65114368278747
 30
0.0
 11
10.04355165085509
 21
3.65114368278747
 31
0.0
  0
LINE
  5
E8E0
330
1A
100
AcDbEntity
  8
TERMINALS
100
AcDbLine
 10
9.947634779912268
 20
3.65114368278747
 30
0.0
 11
9.957940279496439
 21
3.65114368278747
 31
0.0
  0
LINE
  5
E8E1
330
1A
100
AcDbEntity
  8
TERMINALS
100
AcDbLine
 10
9.726374930312275
 20
3.888545265187466
 30
0.0
 11
9.726374930312275
 21
3.92397833718747
 31
0.0
  0
LINE
  5
E8E2
330
1A
100
AcDbEntity
  8
TERMINALS
100
AcDbLine
 10
9.726374930312275
 20
3.876734241187469
 30
0.0
 11
9.726374930312275
 21
3.888545265187466
 31
0.0
  0
LINE
  5
E8E3
330
1A
100
AcDbEntity
  8
TERMINALS
100
AcDbLine
 10
9.894809593928099
 20
3.65114368278747
 30
0.0
 11
9.905115093512273
 21
3.65114368278747
 31
0.0
  0
LINE
  5
E8E4
330
1A
100
AcDbEntity
  8
TERMINALS
100
AcDbLine
 10
9.747634773512274
 20
3.65114368278747
 30
0.0
 11
9.757940273096442
 21
3.65114368278747
 31
0.0
  0
LINE
  5
E8E5
330
1A
100
AcDbEntity
  8
TERMINALS
100
AcDbLine
 10
9.843551644455095
 20
3.65114368278747
 30
0.0
 11
9.894809593928099
 21
3.65114368278747
 31
0.0
  0
LINE
  5
E8E6
330
1A
100
AcDbEntity
  8
TERMINALS
100
AcDbLine
 10
9.757940273096442
 20
3.65114368278747
 30
0.0
 11
9.809198222569447
 21
3.65114368278747
 31
0.0
  0
LINE
  5
E8E7
330
1A
100
AcDbEntity
  8
TERMINALS
100
AcDbLine
 10
9.809198222569447
 20
3.65114368278747
 30
0.0
 11
9.843551644455095
 21
3.65114368278747
 31
0.0
  0
LINE
  5
E8E8
330
1A
100
AcDbEntity
  8
TERMINALS
100
AcDbLine
 10
9.957940279496439
 20
3.65114368278747
 30
0.0
 11
10.00919822896945
 21
3.65114368278747
 31
0.0
  0
LINE
  5
E8E9
330
1A
100
AcDbEntity
  8
TERMINALS
100
AcDbLine
 10
9.894809593928099
 20
3.65114368278747
 30
0.0
 11
9.882477297512274
 21
3.578702735587476
 31
0.0
  0
LINE
  5
E8EA
330
1A
100
AcDbEntity
  8
TERMINALS
100
AcDbLine
 10
9.882477297512274
 20
3.578702735587476
 30
0.0
 11
9.770272569512272
 21
3.578702735587468
 31
0.0
  0
LINE
  5
E8EB
330
1A
100
AcDbEntity
  8
TERMINALS
100
AcDbLine
 10
10.15794028589644
 20
3.65114368278747
 30
0.0
 11
10.20919823536945
 21
3.65114368278747
 31
0.0
  0
LINE
  5
E8EC
330
1A
100
AcDbEntity
  8
TERMINALS
100
AcDbLine
 10
10.14763478631227
 20
3.65114368278747
 30
0.0
 11
10.15794028589644
 21
3.65114368278747
 31
0.0
  0
LINE
  5
E8ED
330
1A
100
AcDbEntity
  8
TERMINALS
100
AcDbLine
 10
10.20919823536945
 20
3.65114368278747
 30
0.0
 11
10.24355165725509
 21
3.65114368278747
 31
0.0
  0
LINE
  5
E8EE
330
1A
100
AcDbEntity
  8
TERMINALS
100
AcDbLine
 10
10.32637494951227
 20
3.696511963234108
 30
0.0
 11
10.32637494951227
 21
3.876734241187469
 31
0.0
  0
LINE
  5
E8EF
330
1A
100
AcDbEntity
  8
TERMINALS
100
AcDbLine
 10
10.32637494951227
 20
3.542088561187468
 30
0.0
 11
10.32637494951227
 21
3.396419265187468
 31
0.0
  0
LINE
  5
E8F0
330
1A
100
AcDbEntity
  8
TERMINALS
100
AcDbLine
 10
9.747634773512274
 20
3.42791532918747
 30
0.0
 11
9.770272569512272
 21
3.449568873187466
 31
0.0
  0
LINE
  5
E8F1
330
1A
100
AcDbEntity
  8
TERMINALS
100
AcDbLine
 10
9.882477297512274
 20
3.449568873187466
 30
0.0
 11
9.905115093512273
 21
3.42791532918747
 31
0.0
  0
LINE
  5
E8F2
330
1A
100
AcDbEntity
  8
TERMINALS
100
AcDbLine
 10
10.28247731031227
 20
3.449568873187466
 30
0.0
 11
10.30511510631227
 21
3.42791532918747
 31
0.0
  0
LINE
  5
E8F3
330
1A
100
AcDbEntity
  8
TERMINALS
100
AcDbLine
 10
10.14763478631227
 20
3.42791532918747
 30
0.0
 11
10.17027258231227
 21
3.449568873187466
 31
0.0
  0
LINE
  5
E8F4
330
1A
100
AcDbEntity
  8
TERMINALS
100
AcDbLine
 10
10.08247730391227
 20
3.449568873187466
 30
0.0
 11
10.10511509991227
 21
3.42791532918747
 31
0.0
  0
LINE
  5
E8F5
330
1A
100
AcDbEntity
  8
TERMINALS
100
AcDbLine
 10
9.947634779912268
 20
3.42791532918747
 30
0.0
 11
9.970272575912275
 21
3.449568873187466
 31
0.0
  0
LINE
  5
E8F6
330
1A
100
AcDbEntity
  8
TERMINALS
100
AcDbLine
 10
9.905115093512273
 20
3.42791532918747
 30
0.0
 11
9.747634773512274
 21
3.42791532918747
 31
0.0
  0
LINE
  5
E8F7
330
1A
100
AcDbEntity
  8
TERMINALS
100
AcDbLine
 10
10.30511510631227
 20
3.65114368278747
 30
0.0
 11
10.30511510631227
 21
3.42791532918747
 31
0.0
  0
LINE
  5
E8F8
330
1A
100
AcDbEntity
  8
TERMINALS
100
AcDbLine
 10
10.10511509991227
 20
3.65114368278747
 30
0.0
 11
10.10511509991227
 21
3.42791532918747
 31
0.0
  0
LINE
  5
E8F9
330
1A
100
AcDbEntity
  8
TERMINALS
100
AcDbLine
 10
9.905115093512273
 20
3.65114368278747
 30
0.0
 11
9.905115093512273
 21
3.42791532918747
 31
0.0
  0
LINE
  5
E8FA
330
1A
100
AcDbEntity
  8
TERMINALS
100
AcDbLine
 10
10.10511509991227
 20
3.42791532918747
 30
0.0
 11
9.947634779912268
 21
3.42791532918747
 31
0.0
  0
LINE
  5
E8FB
330
1A
100
AcDbEntity
  8
TERMINALS
100
AcDbLine
 10
9.947634779912268
 20
3.42791532918747
 30
0.0
 11
9.947634779912268
 21
3.65114368278747
 31
0.0
  0
LINE
  5
E8FC
330
1A
100
AcDbEntity
  8
TERMINALS
100
AcDbLine
 10
10.14763478631227
 20
3.42791532918747
 30
0.0
 11
10.14763478631227
 21
3.65114368278747
 31
0.0
  0
LINE
  5
E8FD
330
1A
100
AcDbEntity
  8
TERMINALS
100
AcDbLine
 10
9.770272569512272
 20
3.449568873187466
 30
0.0
 11
9.882477297512274
 21
3.449568873187466
 31
0.0
  0
LINE
  5
E8FE
330
1A
100
AcDbEntity
  8
TERMINALS
100
AcDbLine
 10
10.08247730391227
 20
3.578702735587476
 30
0.0
 11
10.08247730391227
 21
3.449568873187466
 31
0.0
  0
LINE
  5
E8FF
330
1A
100
AcDbEntity
  8
TERMINALS
100
AcDbLine
 10
10.32637494951227
 20
3.92397833718747
 30
0.0
 11
10.32637494951227
 21
3.888545265187466
 31
0.0
  0
LINE
  5
E900
330
1A
100
AcDbEntity
  8
TERMINALS
100
AcDbLine
 10
10.17027258231227
 20
3.449568873187466
 30
0.0
 11
10.28247731031227
 21
3.449568873187466
 31
0.0
  0
LINE
  5
E901
330
1A
100
AcDbEntity
  8
TERMINALS
100
AcDbLine
 10
10.28247731031227
 20
3.578702735587476
 30
0.0
 11
10.28247731031227
 21
3.449568873187466
 31
0.0
  0
LINE
  5
E902
330
1A
100
AcDbEntity
  8
TERMINALS
100
AcDbLine
 10
10.17027258231227
 20
3.449568873187466
 30
0.0
 11
10.17027258231227
 21
3.578702735587476
 31
0.0
  0
LINE
  5
E903
330
1A
100
AcDbEntity
  8
TERMINALS
100
AcDbLine
 10
9.970272575912275
 20
3.449568873187466
 30
0.0
 11
9.970272575912275
 21
3.578702735587468
 31
0.0
  0
LINE
  5
E904
330
1A
100
AcDbEntity
  8
TERMINALS
100
AcDbLine
 10
9.770272569512272
 20
3.449568873187466
 30
0.0
 11
9.770272569512272
 21
3.578702735587468
 31
0.0
  0
LINE
  5
E905
330
1A
100
AcDbEntity
  8
TERMINALS
100
AcDbLine
 10
9.882477297512274
 20
3.578702735587476
 30
0.0
 11
9.882477297512274
 21
3.449568873187466
 31
0.0
  0
LINE
  5
E906
330
1A
100
AcDbEntity
  8
TERMINALS
100
AcDbLine
 10
9.970272575912275
 20
3.449568873187466
 30
0.0
 11
10.08247730391227
 21
3.449568873187466
 31
0.0
  0
LINE
  5
E907
330
1A
100
AcDbEntity
  8
TERMINALS
100
AcDbLine
 10
10.30511510631227
 20
3.42791532918747
 30
0.0
 11
10.14763478631227
 21
3.42791532918747
 31
0.0
  0
LINE
  5
E908
330
1A
100
AcDbEntity
  8
TERMINALS
100
AcDbLine
 10
9.747634773512274
 20
3.42791532918747
 30
0.0
 11
9.747634773512274
 21
3.65114368278747
 31
0.0
  0
LINE
  5
E909
330
1A
100
AcDbEntity
  8
TERMINALS
100
AcDbLine
 10
10.32637494951227
 20
3.38460824118747
 30
0.0
 11
10.32637494951227
 21
3.396419265187468
 31
0.0
  0
LINE
  5
E90A
330
1A
100
AcDbEntity
  8
TERMINALS
100
AcDbLine
 10
9.726374930312275
 20
3.542088561187468
 30
0.0
 11
9.726374930312275
 21
3.675946833187466
 31
0.0
  0
LINE
  5
E90B
330
1A
100
AcDbEntity
  8
TERMINALS
100
AcDbLine
 10
10.32637494951227
 20
3.396419265187468
 30
0.0
 11
9.726374930312275
 21
3.396419265187468
 31
0.0
  0
LINE
  5
E90C
330
1A
100
AcDbEntity
  8
TERMINALS
100
AcDbLine
 10
9.726374930312275
 20
3.38460824118747
 30
0.0
 11
9.726374930312275
 21
3.396419265187468
 31
0.0
  0
LINE
  5
E90D
330
1A
100
AcDbEntity
  8
TERMINALS
100
AcDbLine
 10
9.726374930312275
 20
3.396419265187468
 30
0.0
 11
9.726374930312275
 21
3.542088561187468
 31
0.0
  0
LINE
  5
E90E
330
1A
100
AcDbEntity
  8
TERMINALS
100
AcDbLine
 10
10.10078439111227
 20
3.255959040113928
 30
0.0
 11
9.900784384712272
 21
3.255959040113928
 31
0.0
  0
LINE
  5
E90F
330
1A
100
AcDbEntity
  8
TERMINALS
100
AcDbLine
 10
10.32637494951227
 20
3.255959040113928
 30
0.0
 11
10.10078439111227
 21
3.255959040113928
 31
0.0
  0
LINE
  5
E910
330
1A
100
AcDbEntity
  8
TERMINALS
100
AcDbLine
 10
10.32637494951227
 20
3.248204648109791
 30
0.0
 11
10.32637494951227
 21
3.255959040113928
 31
0.0
  0
LINE
  5
E911
330
1A
100
AcDbEntity
  8
TERMINALS
100
AcDbLine
 10
10.18936707111227
 20
3.25540178130258
 30
0.0
 11
10.12637494311227
 21
3.25540178130258
 31
0.0
  0
LINE
  5
E912
330
1A
100
AcDbEntity
  8
TERMINALS
100
AcDbLine
 10
10.12637494311227
 20
3.25540178130258
 30
0.0
 11
10.12637494311227
 21
3.248204648109791
 31
0.0
  0
LINE
  5
E913
330
1A
100
AcDbEntity
  8
TERMINALS
100
AcDbLine
 10
10.18936707111227
 20
3.25540178130258
 30
0.0
 11
10.18936707111227
 21
3.248204648109791
 31
0.0
  0
LINE
  5
E914
330
1A
100
AcDbEntity
  8
TERMINALS
100
AcDbLine
 10
10.47558755271227
 20
3.23893894518747
 30
0.0
 11
10.48700487591227
 21
3.23893894518747
 31
0.0
  0
LINE
  5
E915
330
1A
100
AcDbEntity
  8
TERMINALS
100
AcDbLine
 10
10.32637494951227
 20
3.23893894518747
 30
0.0
 11
10.37716235271227
 21
3.23893894518747
 31
0.0
  0
LINE
  5
E916
330
1A
100
AcDbEntity
  8
TERMINALS
100
AcDbLine
 10
10.37716235271227
 20
3.23893894518747
 30
0.0
 11
10.47558755271227
 21
3.23893894518747
 31
0.0
  0
LINE
  5
E917
330
1A
100
AcDbEntity
  8
TERMINALS
100
AcDbLine
 10
10.27578439671227
 20
3.23893894518747
 30
0.0
 11
10.32637494951227
 21
3.23893894518747
 31
0.0
  0
LINE
  5
E918
330
1A
100
AcDbEntity
  8
TERMINALS
100
AcDbLine
 10
10.18936707111227
 20
3.23893894518747
 30
0.0
 11
10.27578439671227
 21
3.23893894518747
 31
0.0
  0
LINE
  5
E919
330
1A
100
AcDbEntity
  8
TERMINALS
100
AcDbLine
 10
10.32637494951227
 20
3.248204648109791
 30
0.0
 11
10.32637494951227
 21
3.23893894518747
 31
0.0
  0
LINE
  5
E91A
330
1A
100
AcDbEntity
  8
TERMINALS
100
AcDbLine
 10
10.18936707111227
 20
3.248204648109791
 30
0.0
 11
10.18936707111227
 21
3.23893894518747
 31
0.0
  0
LINE
  5
E91B
330
1A
100
AcDbEntity
  8
TERMINALS
100
AcDbLine
 10
10.12637494311227
 20
3.248204648109791
 30
0.0
 11
10.12637494311227
 21
3.23893894518747
 31
0.0
  0
LINE
  5
E91C
330
1A
100
AcDbEntity
  8
TERMINALS
100
AcDbLine
 10
9.926374936712273
 20
3.25540178130258
 30
0.0
 11
9.926374936712273
 21
3.248204648109791
 31
0.0
  0
LINE
  5
E91D
330
1A
100
AcDbEntity
  8
TERMINALS
100
AcDbLine
 10
9.926374936712273
 20
3.25540178130258
 30
0.0
 11
9.901400716460187
 21
3.255401781302615
 31
0.0
  0
LINE
  5
E91E
330
1A
100
AcDbEntity
  8
TERMINALS
100
AcDbLine
 10
9.926374936712273
 20
3.23893894518747
 30
0.0
 11
9.976965489512267
 21
3.23893894518747
 31
0.0
  0
LINE
  5
E91F
330
1A
100
AcDbEntity
  8
TERMINALS
100
AcDbLine
 10
9.976965489512267
 20
3.23893894518747
 30
0.0
 11
10.12637494311227
 21
3.23893894518747
 31
0.0
  0
LINE
  5
E920
330
1A
100
AcDbEntity
  8
TERMINALS
100
AcDbLine
 10
9.926374936712273
 20
3.248204648109791
 30
0.0
 11
9.926374936712273
 21
3.23893894518747
 31
0.0
  0
LINE
  5
E921
330
1A
100
AcDbEntity
  8
TERMINALS
100
AcDbLine
 10
9.900168052964259
 20
3.255401781302694
 30
0.0
 11
9.863382808712273
 21
3.25540178130258
 31
0.0
  0
LINE
  5
E922
330
1A
100
AcDbEntity
  8
TERMINALS
100
AcDbLine
 10
10.32637494951227
 20
3.38460824118747
 30
0.0
 11
10.32637494951227
 21
3.255959040113928
 31
0.0
  0
LINE
  5
E923
330
1A
100
AcDbEntity
  8
TERMINALS
100
AcDbLine
 10
9.900784384712272
 20
3.255959040113928
 30
0.0
 11
9.726374930312275
 21
3.255959040113928
 31
0.0
  0
LINE
  5
E924
330
1A
100
AcDbEntity
  8
TERMINALS
100
AcDbLine
 10
9.726374930312275
 20
3.255959040113928
 30
0.0
 11
9.726374930312275
 21
3.38460824118747
 31
0.0
  0
LINE
  5
E925
330
1A
100
AcDbEntity
  8
TERMINALS
100
AcDbLine
 10
9.726374930312275
 20
3.23893894518747
 30
0.0
 11
9.726374930312275
 21
3.248204648109791
 31
0.0
  0
LINE
  5
E926
330
1A
100
AcDbEntity
  8
TERMINALS
100
AcDbLine
 10
9.726374930312275
 20
3.23893894518747
 30
0.0
 11
9.776965483112268
 21
3.23893894518747
 31
0.0
  0
LINE
  5
E927
330
1A
100
AcDbEntity
  8
TERMINALS
100
AcDbLine
 10
9.726374930312275
 20
3.248204648109791
 30
0.0
 11
9.726374930312275
 21
3.255959040113928
 31
0.0
  0
LINE
  5
E928
330
1A
100
AcDbEntity
  8
TERMINALS
100
AcDbLine
 10
9.776965483112268
 20
3.23893894518747
 30
0.0
 11
9.863382808712273
 21
3.23893894518747
 31
0.0
  0
LINE
  5
E929
330
1A
100
AcDbEntity
  8
TERMINALS
100
AcDbLine
 10
9.863382808712273
 20
3.25540178130258
 30
0.0
 11
9.863382808712273
 21
3.248204648109791
 31
0.0
  0
LINE
  5
E92A
330
1A
100
AcDbEntity
  8
TERMINALS
100
AcDbLine
 10
9.863382808712273
 20
3.248204648109791
 30
0.0
 11
9.863382808712273
 21
3.23893894518747
 31
0.0
  0
LINE
  5
E92B
330
1A
100
AcDbEntity
  8
TERMINALS
100
AcDbLine
 10
10.52637495591227
 20
3.542088561187468
 30
0.0
 11
10.48700487591227
 21
3.542088561187468
 31
0.0
  0
LINE
  5
E92C
330
1A
100
AcDbEntity
  8
TERMINALS
100
AcDbLine
 10
10.52637495591227
 20
3.23893894518747
 30
0.0
 11
10.48700487591227
 21
3.23893894518747
 31
0.0
  0
LINE
  5
E92D
330
1A
100
AcDbEntity
  8
TERMINALS
100
AcDbLine
 10
10.52637495591227
 20
3.542088561187468
 30
0.0
 11
10.52637495591227
 21
3.23893894518747
 31
0.0
  0
LINE
  5
E92E
330
1A
100
AcDbEntity
  8
TERMINALS
100
AcDbLine
 10
10.32637494951227
 20
3.92397833718747
 30
0.0
 11
10.32637494951227
 21
3.935789361187473
 31
0.0
  0
LINE
  5
E92F
330
1A
100
AcDbEntity
  8
TERMINALS
100
AcDbLine
 10
10.32637494951227
 20
3.935789361187473
 30
0.0
 11
9.726374930312275
 21
3.935789361187473
 31
0.0
  0
LINE
  5
E930
330
1A
100
AcDbEntity
  8
TERMINALS
100
AcDbLine
 10
9.726374930312275
 20
3.92397833718747
 30
0.0
 11
9.726374930312275
 21
3.935789361187473
 31
0.0
  0
LINE
  5
E931
330
1A
100
AcDbEntity
  8
TERMINALS
100
AcDbLine
 10
9.675587527112268
 20
3.23893894518747
 30
0.0
 11
9.726374930312275
 21
3.23893894518747
 31
0.0
  0
LINE
  5
E932
330
1A
100
AcDbEntity
  8
TERMINALS
100
AcDbLine
 10
9.565745003912267
 20
3.23893894518747
 30
0.0
 11
9.577162327112267
 21
3.23893894518747
 31
0.0
  0
LINE
  5
E933
330
1A
100
AcDbEntity
  8
TERMINALS
100
AcDbLine
 10
9.577162327112267
 20
3.23893894518747
 30
0.0
 11
9.675587527112268
 21
3.23893894518747
 31
0.0
  0
LINE
  5
E934
330
1A
100
AcDbEntity
  8
TERMINALS
100
AcDbLine
 10
9.726374930312275
 20
3.542088561187468
 30
0.0
 11
9.565745003912267
 21
3.542088561187468
 31
0.0
  0
LINE
  5
E935
330
1A
100
AcDbEntity
  8
TERMINALS
100
AcDbLine
 10
9.526374923912273
 20
3.542088561187468
 30
0.0
 11
9.526374923912273
 21
3.23893894518747
 31
0.0
  0
LINE
  5
E936
330
1A
100
AcDbEntity
  8
TERMINALS
100
AcDbLine
 10
9.565745003912267
 20
3.23893894518747
 30
0.0
 11
9.526374923912273
 21
3.23893894518747
 31
0.0
  0
LINE
  5
E937
330
1A
100
AcDbEntity
  8
TERMINALS
100
AcDbLine
 10
9.565745003912267
 20
3.542088561187468
 30
0.0
 11
9.565745003912267
 21
3.23893894518747
 31
0.0
  0
LINE
  5
E938
330
1A
100
AcDbEntity
  8
TERMINALS
100
AcDbLine
 10
9.565745003912267
 20
3.542088561187468
 30
0.0
 11
9.526374923912273
 21
3.542088561187468
 31
0.0
  0
ARC
  5
E939
330
1A
100
AcDbEntity
  8
TERMINALS
100
AcDbCircle
 10
10.02637493991227
 20
3.659460651303966
 30
0.0
 40
0.0196796240707574
100
AcDbArc
 50
251.1008066518084
 51
288.899193348191
  0
ARC
  5
E93A
330
1A
100
AcDbEntity
  8
TERMINALS
100
AcDbCircle
 10
9.826374933512267
 20
3.659460651303966
 30
0.0
 40
0.0196796240707574
100
AcDbArc
 50
251.1008066518089
 51
288.8991933481912
  0
ARC
  5
E93B
330
1A
100
AcDbEntity
  8
TERMINALS
100
AcDbCircle
 10
10.22637494631227
 20
3.659460651303966
 30
0.0
 40
0.0196796240707574
100
AcDbArc
 50
251.1008066518089
 51
288.8991933481912
  0
ARC
  5
E93C
330
1A
100
AcDbEntity
  8
TERMINALS
100
AcDbCircle
 10
10.22617114033288
 20
3.658865679730701
 30
0.0
 40
0.0190507138714297
100
AcDbArc
 50
243.0938952338516
 51
251.1011225983256
  0
ARC
  5
E93D
330
1A
100
AcDbEntity
  8
TERMINALS
100
AcDbCircle
 10
10.22587373856444
 20
3.65825549931965
 30
0.0
 40
0.018372006008431
100
AcDbArc
 50
234.8774033704847
 51
243.05984913131
  0
ARC
  5
E93E
330
1A
100
AcDbEntity
  8
TERMINALS
100
AcDbCircle
 10
10.22544094417991
 20
3.657624739395842
 30
0.0
 40
0.0176070966119684
100
AcDbArc
 50
226.4041072955379
 51
234.848437264408
  0
ARC
  5
E93F
330
1A
100
AcDbEntity
  8
TERMINALS
100
AcDbCircle
 10
10.22496003117899
 20
3.657102476603163
 30
0.0
 40
0.016897244891642
100
AcDbArc
 50
217.6929272377341
 51
226.3639324036667
  0
ARC
  5
E940
330
1A
100
AcDbEntity
  8
TERMINALS
100
AcDbCircle
 10
10.22439139016146
 20
3.656645458518518
 30
0.0
 40
0.0161678515588939
100
AcDbArc
 50
208.7335489951663
 51
217.6434764072287
  0
ARC
  5
E941
330
1A
100
AcDbEntity
  8
TERMINALS
100
AcDbCircle
 10
10.22385311681112
 20
3.656338979019196
 30
0.0
 40
0.0155485257502081
100
AcDbArc
 50
199.5199055941247
 51
208.6967982218074
  0
ARC
  5
E942
330
1A
100
AcDbEntity
  8
TERMINALS
100
AcDbCircle
 10
10.02893505805903
 20
3.656321844981818
 30
7.710285371233901E+99
 40
0.0155067130197478
100
AcDbArc
 50
331.2908027390676
 51
340.492493445001
  0
ARC
  5
E943
330
1A
100
AcDbEntity
  8
TERMINALS
100
AcDbCircle
 10
10.02844937240333
 20
3.656586016726336
 30
7.710285371233901E+99
 40
0.0160595916379181
100
AcDbArc
 50
322.3264307844972
 51
331.2965438131126
  0
ARC
  5
E944
330
1A
100
AcDbEntity
  8
TERMINALS
100
AcDbCircle
 10
10.0279164443149
 20
3.656988381325305
 30
7.710285371233901E+99
 40
0.0167273186853365
100
AcDbArc
 50
313.5919393975273
 51
322.3512009610733
  0
ARC
  5
E945
330
1A
100
AcDbEntity
  8
TERMINALS
100
AcDbCircle
 10
10.02735839497099
 20
3.657564478102067
 30
7.710285371233901E+99
 40
0.0175293539021098
100
AcDbArc
 50
305.1328032321679
 51
313.6146522078846
  0
ARC
  5
E946
330
1A
100
AcDbEntity
  8
TERMINALS
100
AcDbCircle
 10
10.02693751682204
 20
3.658153490449378
 30
7.710285371233901E+99
 40
0.0182532652060025
100
AcDbArc
 50
296.9134909517272
 51
305.1492565464798
  0
ARC
  5
E947
330
1A
100
AcDbEntity
  8
TERMINALS
100
AcDbCircle
 10
10.02663849123351
 20
3.658724259851091
 30
7.710285371233901E+99
 40
0.018897569286879
100
AcDbArc
 50
288.8663788389481
 51
296.9386033288742
  0
ARC
  5
E948
330
1A
100
AcDbEntity
  8
TERMINALS
100
AcDbCircle
 10
10.02617113393288
 20
3.658865679730701
 30
7.710285371233901E+99
 40
0.019050713871426
100
AcDbArc
 50
243.0938952338511
 51
251.1011225983269
  0
ARC
  5
E949
330
1A
100
AcDbEntity
  8
TERMINALS
100
AcDbCircle
 10
10.02587373216444
 20
3.65825549931965
 30
7.710285371233901E+99
 40
0.0183720060084304
100
AcDbArc
 50
234.8774033704847
 51
243.05984913131
  0
ARC
  5
E94A
330
1A
100
AcDbEntity
  8
TERMINALS
100
AcDbCircle
 10
10.02544093777991
 20
3.657624739395842
 30
7.710285371233901E+99
 40
0.017607096611966
100
AcDbArc
 50
226.4041072955382
 51
234.8484372644097
  0
ARC
  5
E94B
330
1A
100
AcDbEntity
  8
TERMINALS
100
AcDbCircle
 10
10.024960024779
 20
3.657102476603163
 30
7.710285371233901E+99
 40
0.0168972448916431
100
AcDbArc
 50
217.6929272377335
 51
226.3639324036656
  0
ARC
  5
E94C
330
1A
100
AcDbEntity
  8
TERMINALS
100
AcDbCircle
 10
10.02439138376145
 20
3.656645458518518
 30
7.710285371233901E+99
 40
0.0161678515588926
100
AcDbArc
 50
208.7335489951644
 51
217.6434764072272
  0
ARC
  5
E94D
330
1A
100
AcDbEntity
  8
TERMINALS
100
AcDbCircle
 10
10.02385311041112
 20
3.656338979019196
 30
7.710285371233901E+99
 40
0.0155485257502098
100
AcDbArc
 50
199.5199055941242
 51
208.6967982218059
  0
ARC
  5
E94E
330
1A
100
AcDbEntity
  8
TERMINALS
100
AcDbCircle
 10
9.826171127532886
 20
3.658865679730701
 30
7.710285371233901E+99
 40
0.0190507138714284
100
AcDbArc
 50
243.0938952338526
 51
251.1011225983269
  0
ARC
  5
E94F
330
1A
100
AcDbEntity
  8
TERMINALS
100
AcDbCircle
 10
9.825873725764443
 20
3.65825549931965
 30
7.710285371233901E+99
 40
0.0183720060084299
100
AcDbArc
 50
234.8774033704835
 51
243.059849131309
  0
ARC
  5
E950
330
1A
100
AcDbEntity
  8
TERMINALS
100
AcDbCircle
 10
9.825440931379908
 20
3.657624739395834
 30
7.710285371233901E+99
 40
0.0176070966119574
100
AcDbArc
 50
226.4041072955361
 51
234.8484372644118
  0
ARC
  5
E951
330
1A
100
AcDbEntity
  8
TERMINALS
100
AcDbCircle
 10
9.824960018378995
 20
3.657102476603163
 30
7.710285371233901E+99
 40
0.0168972448916416
100
AcDbArc
 50
217.6929272377325
 51
226.363932403665
  0
ARC
  5
E952
330
1A
100
AcDbEntity
  8
TERMINALS
100
AcDbCircle
 10
9.824391377361457
 20
3.656645458518518
 30
7.710285371233901E+99
 40
0.0161678515588939
100
AcDbArc
 50
208.7335489951663
 51
217.6434764072287
  0
ARC
  5
E953
330
1A
100
AcDbEntity
  8
TERMINALS
100
AcDbCircle
 10
9.823853104011126
 20
3.656338979019196
 30
7.710285371233901E+99
 40
0.0155485257502127
100
AcDbArc
 50
199.5199055941251
 51
208.696798221805
  0
ARC
  5
E954
330
1A
100
AcDbEntity
  8
TERMINALS
100
AcDbCircle
 10
9.82893505165903
 20
3.656321844981825
 30
7.710285371233901E+99
 40
0.0155067130197565
100
AcDbArc
 50
331.2908027390685
 51
340.4924934449972
  0
ARC
  5
E955
330
1A
100
AcDbEntity
  8
TERMINALS
100
AcDbCircle
 10
9.828449366003347
 20
3.656586016726328
 30
7.710285371233901E+99
 40
0.0160595916379097
100
AcDbArc
 50
322.3264307844943
 51
331.2965438131143
  0
ARC
  5
E956
330
1A
100
AcDbEntity
  8
TERMINALS
100
AcDbCircle
 10
9.8279164379149
 20
3.656988381325305
 30
7.710285371233901E+99
 40
0.0167273186853353
100
AcDbArc
 50
313.5919393975261
 51
322.3512009610721
  0
ARC
  5
E957
330
1A
100
AcDbEntity
  8
TERMINALS
100
AcDbCircle
 10
9.827358388570999
 20
3.657564478102058
 30
7.710285371233901E+99
 40
0.0175293539021029
100
AcDbArc
 50
305.1328032321673
 51
313.6146522078876
  0
ARC
  5
E958
330
1A
100
AcDbEntity
  8
TERMINALS
100
AcDbCircle
 10
9.826937510422032
 20
3.658153490449378
 30
7.710285371233901E+99
 40
0.0182532652060036
100
AcDbArc
 50
296.9134909517263
 51
305.1492565464783
  0
ARC
  5
E959
330
1A
100
AcDbEntity
  8
TERMINALS
100
AcDbCircle
 10
9.826638484833507
 20
3.658724259851091
 30
7.710285371233901E+99
 40
0.0188975692868783
100
AcDbArc
 50
288.8663788389475
 51
296.938603328874
  0
ARC
  5
E95A
330
1A
100
AcDbEntity
  8
TERMINALS
100
AcDbCircle
 10
10.22893506445903
 20
3.656321844981818
 30
7.710285371233901E+99
 40
0.0155067130197463
100
AcDbArc
 50
331.2908027390666
 51
340.4924934450014
  0
ARC
  5
E95B
330
1A
100
AcDbEntity
  8
TERMINALS
100
AcDbCircle
 10
10.22844937880334
 20
3.656586016726336
 30
7.710285371233901E+99
 40
0.0160595916379193
100
AcDbArc
 50
322.3264307844978
 51
331.2965438131126
  0
ARC
  5
E95C
330
1A
100
AcDbEntity
  8
TERMINALS
100
AcDbCircle
 10
10.2279164507149
 20
3.656988381325305
 30
7.710285371233901E+99
 40
0.0167273186853353
100
AcDbArc
 50
313.5919393975261
 51
322.3512009610721
  0
ARC
  5
E95D
330
1A
100
AcDbEntity
  8
TERMINALS
100
AcDbCircle
 10
10.227358401371
 20
3.657564478102067
 30
7.710285371233901E+99
 40
0.0175293539021114
100
AcDbArc
 50
305.1328032321688
 51
313.6146522078854
  0
ARC
  5
E95E
330
1A
100
AcDbEntity
  8
TERMINALS
100
AcDbCircle
 10
10.22693752322203
 20
3.658153490449386
 30
7.710285371233901E+99
 40
0.0182532652060069
100
AcDbArc
 50
296.9134909517272
 51
305.1492565464778
  0
ARC
  5
E95F
330
1A
100
AcDbEntity
  8
TERMINALS
100
AcDbCircle
 10
10.22663849763351
 20
3.658724259851098
 30
7.710285371233901E+99
 40
0.0188975692868874
100
AcDbArc
 50
288.8663788389497
 51
296.9386033288719
  0
LWPOLYLINE
  5
E96F
330
1A
100
AcDbEntity
  8
TERMINALS
100
AcDbPolyline
 90
        4
 70
     0
 43
0.0
 10
11.07542085800403
 20
3.345958480579568
 10
11.13219080775588
 20
3.345007761961055
 42
-0.3298779546986282
 10
11.27053060233601
 20
3.226018835994944
 10
11.27081738355614
 20
2.506270332157416
  0
LWPOLYLINE
  5
E970
330
1A
100
AcDbEntity
  8
TERMINALS
100
AcDbPolyline
 90
        4
 70
     0
 43
0.0
 10
11.0599679286621
 20
3.319999999999995
 10
11.1281193882733
 20
3.318807435517839
 42
-0.3087525591864717
 10
11.24053060233602
 20
3.226018835994943
 10
11.24081738355614
 20
2.506270332157415
  0
MTEXT
  5
EA5E
330
1A
100
AcDbEntity
  8
TERMINALS
100
AcDbMText
 10
8.808913533082456
 20
5.765858239808392
 30
0.0
 40
0.07
 41
0.0
 71
     5
 72
     1
  1
{\fArial|b0|i0|c0|p34;+}
  7
SIMPLEX
 73
     1
 44
1.0
1001
ACAD
1000
MTEXTBEGIN
1070
    73
1070
     1
1070
    44
1040
1.0
1070
    74
1070
     0
1000
MTEXTEND
  0
MTEXT
  5
EA5F
330
1A
100
AcDbEntity
  8
TERMINALS
100
AcDbMText
 10
9.210763933082452
 20
5.810858239808391
 30
0.0
 40
0.07
 41
0.0
 71
     5
 72
     1
  1
{\fArial|b0|i0|c0|p34;_}
  7
SIMPLEX
 73
     1
 44
1.0
1001
ACAD
1000
MTEXTBEGIN
1070
    73
1070
     1
1070
    44
1040
1.0
1070
    74
1070
     0
1000
MTEXTEND
  0
MTEXT
  5
EA60
330
1A
100
AcDbEntity
  8
TERMINALS
100
AcDbMText
 10
9.002614333082455
 20
5.765858239808392
 30
0.0
 40
0.07
 41
0.0
 71
     5
 72
     1
  1
{\fArial|b0|i0|c0|p34;S}
  7
SIMPLEX
 73
     1
 44
1.0
1001
ACAD
1000
MTEXTBEGIN
1070
    73
1070
     1
1070
    44
1040
1.0
1070
    74
1070
     0
1000
MTEXTEND
  0
CIRCLE
  5
EF3C
330
1A
100
AcDbEntity
  8
TERMINALS
  6
Continuous
100
AcDbCircle
 10
19.87429507058397
 20
6.290860080075389
 30
0.0
 40
0.125
  0
CIRCLE
  5
EF3D
330
1A
100
AcDbEntity
  8
TERMINALS
  6
Continuous
100
AcDbCircle
 10
19.87429507058397
 20
5.886005437827547
 30
0.0
 40
0.125
  0
CIRCLE
  5
EF3E
330
1A
100
AcDbEntity
  8
TERMINALS
  6
Continuous
100
AcDbCircle
 10
19.87429507058397
 20
5.272889540200256
 30
0.0
 40
0.125
  0
CIRCLE
  5
EF3F
330
1A
100
AcDbEntity
  8
TERMINALS
  6
Continuous
100
AcDbCircle
 10
19.86970057888176
 20
4.87654732588724
 30
0.0
 40
0.125
  0
CIRCLE
  5
EF40
330
1A
100
AcDbEntity
  8
TERMINALS
  6
Continuous
100
AcDbCircle
 10
19.49006620341842
 20
4.878388418797093
 30
0.0
 40
0.125
  0
CIRCLE
  5
EF41
330
1A
100
AcDbEntity
  8
TERMINALS
  6
Continuous
100
AcDbCircle
 10
19.49466069512063
 20
5.274730633110108
 30
0.0
 40
0.125
  0
CIRCLE
  5
EF42
330
1A
100
AcDbEntity
  8
TERMINALS
  6
Continuous
100
AcDbCircle
 10
19.49466069512063
 20
5.887846530737401
 30
0.0
 40
0.125
  0
CIRCLE
  5
EF43
330
1A
100
AcDbEntity
  8
TERMINALS
  6
Continuous
100
AcDbCircle
 10
19.49466069512063
 20
6.292701172985242
 30
0.0
 40
0.125
  0
LINE
  5
EF44
330
1A
100
AcDbEntity
  8
TERMINALS
100
AcDbLine
 10
19.15411587261836
 20
5.796212639444222
 30
0.0
 11
19.15411587261836
 21
6.386212639444222
 31
0.0
  0
LINE
  5
EF45
330
1A
100
AcDbEntity
  8
TERMINALS
100
AcDbLine
 10
20.21247733211682
 20
5.794400103000357
 30
0.0
 11
20.21247733211682
 21
6.384400103000356
 31
0.0
  0
LINE
  5
EF46
330
1A
100
AcDbEntity
  8
TERMINALS
100
AcDbLine
 10
19.45442109940234
 20
4.593441065951329
 30
0.0
 11
18.86442109940234
 21
4.593441065951329
 31
0.0
  0
LINE
  5
EF47
330
1A
100
AcDbEntity
  8
TERMINALS
100
AcDbLine
 10
20.47246589966129
 20
4.593441065951329
 30
0.0
 11
19.88246589966129
 21
4.593441065951329
 31
0.0
  0
MTEXT
  5
EF48
330
1A
100
AcDbEntity
  8
TERMINALS
100
AcDbMText
 10
18.96523707666936
 20
4.482235341921833
 30
0.0
 40
0.07
 41
0.0
 71
     5
 72
     1
  1
{\fArial|b0|i0|c0|p34;+}
  7
SIMPLEX
 73
     1
 44
1.0
1001
ACAD
1000
MTEXTBEGIN
1070
    73
1070
     1
1070
    44
1040
1.0
1070
    74
1070
     0
1000
MTEXTEND
  0
MTEXT
  5
EF49
330
1A
100
AcDbEntity
  8
TERMINALS
100
AcDbMText
 10
19.36708747666935
 20
4.527235341921834
 30
0.0
 40
0.07
 41
0.0
 71
     5
 72
     1
  1
{\fArial|b0|i0|c0|p34;_}
  7
SIMPLEX
 73
     1
 44
1.0
1001
ACAD
1000
MTEXTBEGIN
1070
    73
1070
     1
1070
    44
1040
1.0
1070
    74
1070
     0
1000
MTEXTEND
  0
MTEXT
  5
EF4A
330
1A
100
AcDbEntity
  8
TERMINALS
100
AcDbMText
 10
19.15893787666936
 20
4.482235341921833
 30
0.0
 40
0.07
 41
0.0
 71
     5
 72
     1
  1
{\fArial|b0|i0|c0|p34;S}
  7
SIMPLEX
 73
     1
 44
1.0
1001
ACAD
1000
MTEXTBEGIN
1070
    73
1070
     1
1070
    44
1040
1.0
1070
    74
1070
     0
1000
MTEXTEND
  0
MTEXT
  5
EF4B
330
1A
100
AcDbEntity
  8
TERMINALS
100
AcDbMText
 10
19.98328187692831
 20
4.482235341921833
 30
0.0
 40
0.07
 41
0.0
 71
     5
 72
     1
  1
{\fArial|b0|i0|c0|p34;+}
  7
SIMPLEX
 73
     1
 44
1.0
1001
ACAD
1000
MTEXTBEGIN
1070
    73
1070
     1
1070
    44
1040
1.0
1070
    74
1070
     0
1000
MTEXTEND
  0
MTEXT
  5
EF4C
330
1A
100
AcDbEntity
  8
TERMINALS
100
AcDbMText
 10
20.38513227692831
 20
4.52723534192183
 30
0.0
 40
0.07
 41
0.0
 71
     5
 72
     1
  1
{\fArial|b0|i0|c0|p34;_}
  7
SIMPLEX
 73
     1
 44
1.0
1001
ACAD
1000
MTEXTBEGIN
1070
    73
1070
     1
1070
    44
1040
1.0
1070
    74
1070
     0
1000
MTEXTEND
  0
MTEXT
  5
EF4D
330
1A
100
AcDbEntity
  8
TERMINALS
100
AcDbMText
 10
20.17698267692831
 20
4.482235341921833
 30
0.0
 40
0.07
 41
0.0
 71
     5
 72
     1
  1
{\fArial|b0|i0|c0|p34;S}
  7
SIMPLEX
 73
     1
 44
1.0
1001
ACAD
1000
MTEXTBEGIN
1070
    73
1070
     1
1070
    44
1040
1.0
1070
    74
1070
     0
1000
MTEXTEND
  0
MTEXT
  5
EF4E
330
1A
100
AcDbEntity
  8
TERMINALS
100
AcDbMText
 10
19.00265155012011
 20
6.297982818938577
 30
0.0
 40
0.07
 41
0.0
 71
     5
 72
     1
  1
{\fArial|b0|i0|c0|p34;+}
  7
SIMPLEX
 11
-0.0000000000000007
 21
-1.0
 31
0.0
 73
     1
 44
1.0
1001
ACAD
1000
MTEXTBEGIN
1070
    73
1070
     1
1070
    44
1040
1.0
1070
    74
1070
     0
1000
MTEXTEND
  0
MTEXT
  5
EF4F
330
1A
100
AcDbEntity
  8
TERMINALS
100
AcDbMText
 10
19.04765155012012
 20
5.896132418938579
 30
0.0
 40
0.07
 41
0.0
 71
     5
 72
     1
  1
{\fArial|b0|i0|c0|p34;_}
  7
SIMPLEX
 11
-0.0000000000000004
 21
-1.0
 31
0.0
 73
     1
 44
1.0
1001
ACAD
1000
MTEXTBEGIN
1070
    73
1070
     1
1070
    44
1040
1.0
1070
    74
1070
     0
1000
MTEXTEND
  0
MTEXT
  5
EF50
330
1A
100
AcDbEntity
  8
TERMINALS
100
AcDbMText
 10
19.00265155012011
 20
6.104282018938579
 30
0.0
 40
0.07
 41
0.0
 71
     5
 72
     1
  1
{\fArial|b0|i0|c0|p34;S}
  7
SIMPLEX
 11
-0.0000000000000007
 21
-1.0
 31
0.0
 73
     1
 44
1.0
1001
ACAD
1000
MTEXTBEGIN
1070
    73
1070
     1
1070
    44
1040
1.0
1070
    74
1070
     0
1000
MTEXTEND
  0
MTEXT
  5
EF51
330
1A
100
AcDbEntity
  8
TERMINALS
100
AcDbMText
 10
20.39489617331152
 20
5.895909248845677
 30
0.0
 40
0.07
 41
0.0
 71
     5
 72
     1
  1
{\fArial|b0|i0|c0|p34;+}
  7
SIMPLEX
 11
0.0000000000000008
 21
1.0
 31
0.0
 73
     1
 44
1.0
1001
ACAD
1000
MTEXTBEGIN
1070
    73
1070
     1
1070
    44
1040
1.0
1070
    74
1070
     0
1000
MTEXTEND
  0
MTEXT
  5
EF52
330
1A
100
AcDbEntity
  8
TERMINALS
100
AcDbMText
 10
20.34989617331152
 20
6.297759648845675
 30
0.0
 40
0.07
 41
0.0
 71
     5
 72
     1
  1
{\fArial|b0|i0|c0|p34;_}
  7
SIMPLEX
 11
0.0000000000000006
 21
1.0
 31
0.0
 73
     1
 44
1.0
1001
ACAD
1000
MTEXTBEGIN
1070
    73
1070
     1
1070
    44
1040
1.0
1070
    74
1070
     0
1000
MTEXTEND
  0
MTEXT
  5
EF53
330
1A
100
AcDbEntity
  8
TERMINALS
100
AcDbMText
 10
19.49265155012012
 20
6.08613241893858
 30
0.0
 40
0.07
 41
0.0
 71
     5
 72
     1
  1
{\fArial|b0|i0|c0|p34;1}
  7
SIMPLEX
 11
-0.0000000000000004
 21
-1.0
 31
0.0
 73
     1
 44
1.0
1001
ACAD
1000
MTEXTBEGIN
1070
    73
1070
     1
1070
    44
1040
1.0
1070
    74
1070
     0
1000
MTEXTEND
  0
MTEXT
  5
EF54
330
1A
100
AcDbEntity
  8
TERMINALS
100
AcDbMText
 10
19.49265155012012
 20
5.07613241893858
 30
0.0
 40
0.07
 41
0.0
 71
     5
 72
     1
  1
{\fArial|b0|i0|c0|p34;3}
  7
SIMPLEX
 11
-0.0000000000000004
 21
-1.0
 31
0.0
 73
     1
 44
1.0
1001
ACAD
1000
MTEXTBEGIN
1070
    73
1070
     1
1070
    44
1040
1.0
1070
    74
1070
     0
1000
MTEXTEND
  0
MTEXT
  5
EF55
330
1A
100
AcDbEntity
  8
TERMINALS
100
AcDbMText
 10
19.87489617331151
 20
5.072759648845678
 30
0.0
 40
0.07
 41
0.0
 71
     5
 72
     1
  1
{\fArial|b0|i0|c0|p34;4}
  7
SIMPLEX
 11
0.0000000000000005
 21
1.0
 31
0.0
 73
     1
 44
1.0
1001
ACAD
1000
MTEXTBEGIN
1070
    73
1070
     1
1070
    44
1040
1.0
1070
    74
1070
     0
1000
MTEXTEND
  0
MTEXT
  5
EF56
330
1A
100
AcDbEntity
  8
TERMINALS
100
AcDbMText
 10
19.87489617331151
 20
6.082759648845676
 30
0.0
 40
0.07
 41
0.0
 71
     5
 72
     1
  1
{\fArial|b0|i0|c0|p34;2}
  7
SIMPLEX
 11
0.0000000000000005
 21
1.0
 31
0.0
 73
     1
 44
1.0
1001
ACAD
1000
MTEXTBEGIN
1070
    73
1070
     1
1070
    44
1040
1.0
1070
    74
1070
     0
1000
MTEXTEND
  0
MTEXT
  5
EF57
330
1A
100
AcDbEntity
  8
TERMINALS
100
AcDbMText
 10
20.39489617331152
 20
6.089610048845677
 30
0.0
 40
0.07
 41
0.0
 71
     5
 72
     1
  1
{\fArial|b0|i0|c0|p34;S}
  7
SIMPLEX
 11
0.0000000000000008
 21
1.0
 31
0.0
 73
     1
 44
1.0
1001
ACAD
1000
MTEXTBEGIN
1070
    73
1070
     1
1070
    44
1040
1.0
1070
    74
1070
     0
1000
MTEXTEND
  0
LINE
  5
EF64
330
1A
100
AcDbEntity
  8
TERMINALS
100
AcDbLine
 10
18.86442109940234
 20
4.593441065951329
 30
0.0
 11
18.86442109940234
 21
4.338441065951325
 31
0.0
  0
LINE
  5
EF65
330
1A
100
AcDbEntity
  8
TERMINALS
100
AcDbLine
 10
19.45442109940234
 20
4.593441065951329
 30
0.0
 11
19.45442109940234
 21
4.338441065951325
 31
0.0
  0
CIRCLE
  5
EF66
330
1A
100
AcDbEntity
  8
TERMINALS
100
AcDbCircle
 10
19.00877386171582
 20
6.739446033892128
 30
0.0
 40
0.2149999999999979
  0
CIRCLE
  5
EF67
330
1A
100
AcDbEntity
  8
TERMINALS
100
AcDbCircle
 10
20.35377386171582
 20
6.739446033892128
 30
0.0
 40
0.2149999999999979
  0
LINE
  5
EF68
330
1A
100
AcDbEntity
  8
TERMINALS
100
AcDbLine
 10
19.15411587261836
 20
4.77824209956909
 30
0.0
 11
19.15411587261836
 21
5.36824209956909
 31
0.0
  0
LINE
  5
EF69
330
1A
100
AcDbEntity
  8
TERMINALS
100
AcDbLine
 10
20.21247733211682
 20
4.776429563125224
 30
0.0
 11
20.21247733211682
 21
5.366429563125224
 31
0.0
  0
MTEXT
  5
EF6A
330
1A
100
AcDbEntity
  8
TERMINALS
100
AcDbMText
 10
19.00265155012011
 20
5.280012279063443
 30
0.0
 40
0.07
 41
0.0
 71
     5
 72
     1
  1
{\fArial|b0|i0|c0|p34;+}
  7
SIMPLEX
 11
-0.0000000000000007
 21
-1.0
 31
0.0
 73
     1
 44
1.0
1001
ACAD
1000
MTEXTBEGIN
1070
    73
1070
     1
1070
    44
1040
1.0
1070
    74
1070
     0
1000
MTEXTEND
  0
MTEXT
  5
EF6B
330
1A
100
AcDbEntity
  8
TERMINALS
100
AcDbMText
 10
19.04765155012012
 20
4.878161879063447
 30
0.0
 40
0.07
 41
0.0
 71
     5
 72
     1
  1
{\fArial|b0|i0|c0|p34;_}
  7
SIMPLEX
 11
-0.0000000000000004
 21
-1.0
 31
0.0
 73
     1
 44
1.0
1001
ACAD
1000
MTEXTBEGIN
1070
    73
1070
     1
1070
    44
1040
1.0
1070
    74
1070
     0
1000
MTEXTEND
  0
MTEXT
  5
EF6C
330
1A
100
AcDbEntity
  8
TERMINALS
100
AcDbMText
 10
19.00265155012011
 20
5.086311479063446
 30
0.0
 40
0.07
 41
0.0
 71
     5
 72
     1
  1
{\fArial|b0|i0|c0|p34;S}
  7
SIMPLEX
 11
-0.0000000000000007
 21
-1.0
 31
0.0
 73
     1
 44
1.0
1001
ACAD
1000
MTEXTBEGIN
1070
    73
1070
     1
1070
    44
1040
1.0
1070
    74
1070
     0
1000
MTEXTEND
  0
MTEXT
  5
EF6D
330
1A
100
AcDbEntity
  8
TERMINALS
100
AcDbMText
 10
20.39489617331152
 20
4.877938708970544
 30
0.0
 40
0.07
 41
0.0
 71
     5
 72
     1
  1
{\fArial|b0|i0|c0|p34;+}
  7
SIMPLEX
 11
0.0000000000000008
 21
1.0
 31
0.0
 73
     1
 44
1.0
1001
ACAD
1000
MTEXTBEGIN
1070
    73
1070
     1
1070
    44
1040
1.0
1070
    74
1070
     0
1000
MTEXTEND
  0
MTEXT
  5
EF6E
330
1A
100
AcDbEntity
  8
TERMINALS
100
AcDbMText
 10
20.34989617331152
 20
5.279789108970541
 30
0.0
 40
0.07
 41
0.0
 71
     5
 72
     1
  1
{\fArial|b0|i0|c0|p34;_}
  7
SIMPLEX
 11
0.0000000000000006
 21
1.0
 31
0.0
 73
     1
 44
1.0
1001
ACAD
1000
MTEXTBEGIN
1070
    73
1070
     1
1070
    44
1040
1.0
1070
    74
1070
     0
1000
MTEXTEND
  0
MTEXT
  5
EF6F
330
1A
100
AcDbEntity
  8
TERMINALS
100
AcDbMText
 10
20.39489617331152
 20
5.071639508970544
 30
0.0
 40
0.07
 41
0.0
 71
     5
 72
     1
  1
{\fArial|b0|i0|c0|p34;S}
  7
SIMPLEX
 11
0.0000000000000008
 21
1.0
 31
0.0
 73
     1
 44
1.0
1001
ACAD
1000
MTEXTBEGIN
1070
    73
1070
     1
1070
    44
1040
1.0
1070
    74
1070
     0
1000
MTEXTEND
  0
LINE
  5
EF8A
330
1A
100
AcDbEntity
  8
TERMINALS
100
AcDbLine
 10
18.77911587261836
 20
4.77824209956909
 30
0.0
 11
19.15411587261836
 21
4.77824209956909
 31
0.0
  0
LINE
  5
EF8B
330
1A
100
AcDbEntity
  8
TERMINALS
100
AcDbLine
 10
18.77911587261836
 20
5.36824209956909
 30
0.0
 11
19.15411587261836
 21
5.36824209956909
 31
0.0
  0
LINE
  5
EF8C
330
1A
100
AcDbEntity
  8
TERMINALS
100
AcDbLine
 10
18.77911587261836
 20
4.77824209956909
 30
0.0
 11
18.77911587261836
 21
5.36824209956909
 31
0.0
  0
LINE
  5
EF8D
330
1A
100
AcDbEntity
  8
TERMINALS
100
AcDbLine
 10
18.77911587261836
 20
5.174880640070641
 30
0.0
 11
19.15411587261836
 21
5.174880640070641
 31
0.0
  0
LINE
  5
EF8E
330
1A
100
AcDbEntity
  8
TERMINALS
100
AcDbLine
 10
18.77911587261836
 20
4.971603559067538
 30
0.0
 11
19.15411587261836
 21
4.971603559067538
 31
0.0
  0
LINE
  5
EF8F
330
1A
100
AcDbEntity
  8
TERMINALS
100
AcDbLine
 10
18.77911587261836
 20
5.796212639444222
 30
0.0
 11
19.15411587261836
 21
5.796212639444222
 31
0.0
  0
LINE
  5
EF90
330
1A
100
AcDbEntity
  8
TERMINALS
100
AcDbLine
 10
18.77911587261836
 20
6.386212639444222
 30
0.0
 11
19.15411587261836
 21
6.386212639444222
 31
0.0
  0
LINE
  5
EF91
330
1A
100
AcDbEntity
  8
TERMINALS
100
AcDbLine
 10
18.77911587261836
 20
5.796212639444222
 30
0.0
 11
18.77911587261836
 21
6.386212639444222
 31
0.0
  0
LINE
  5
EF92
330
1A
100
AcDbEntity
  8
TERMINALS
100
AcDbLine
 10
18.77911587261836
 20
6.192851179945773
 30
0.0
 11
19.15411587261836
 21
6.192851179945774
 31
0.0
  0
LINE
  5
EF93
330
1A
100
AcDbEntity
  8
TERMINALS
100
AcDbLine
 10
18.77911587261836
 20
5.989574098942671
 30
0.0
 11
19.15411587261836
 21
5.989574098942671
 31
0.0
  0
LINE
  5
EF9E
330
1A
100
AcDbEntity
  8
TERMINALS
100
AcDbLine
 10
20.58843185081328
 20
4.77824209956909
 30
0.0
 11
20.21343185081328
 21
4.77824209956909
 31
0.0
  0
LINE
  5
EF9F
330
1A
100
AcDbEntity
  8
TERMINALS
100
AcDbLine
 10
20.58843185081328
 20
5.36824209956909
 30
0.0
 11
20.21343185081328
 21
5.36824209956909
 31
0.0
  0
LINE
  5
EFA0
330
1A
100
AcDbEntity
  8
TERMINALS
100
AcDbLine
 10
20.58843185081328
 20
4.77824209956909
 30
0.0
 11
20.58843185081328
 21
5.36824209956909
 31
0.0
  0
LINE
  5
EFA1
330
1A
100
AcDbEntity
  8
TERMINALS
100
AcDbLine
 10
20.58843185081328
 20
5.174880640070641
 30
0.0
 11
20.21343185081328
 21
5.174880640070641
 31
0.0
  0
LINE
  5
EFA2
330
1A
100
AcDbEntity
  8
TERMINALS
100
AcDbLine
 10
20.58843185081328
 20
4.971603559067538
 30
0.0
 11
20.21343185081328
 21
4.971603559067538
 31
0.0
  0
LINE
  5
EFA3
330
1A
100
AcDbEntity
  8
TERMINALS
100
AcDbLine
 10
20.58843185081328
 20
5.796212639444222
 30
0.0
 11
20.21343185081328
 21
5.796212639444222
 31
0.0
  0
LINE
  5
EFA4
330
1A
100
AcDbEntity
  8
TERMINALS
100
AcDbLine
 10
20.58843185081328
 20
6.386212639444222
 30
0.0
 11
20.21343185081328
 21
6.386212639444222
 31
0.0
  0
LINE
  5
EFA5
330
1A
100
AcDbEntity
  8
TERMINALS
100
AcDbLine
 10
20.58843185081328
 20
5.796212639444222
 30
0.0
 11
20.58843185081328
 21
6.386212639444222
 31
0.0
  0
LINE
  5
EFA6
330
1A
100
AcDbEntity
  8
TERMINALS
100
AcDbLine
 10
20.58843185081328
 20
6.192851179945773
 30
0.0
 11
20.21343185081328
 21
6.192851179945774
 31
0.0
  0
LINE
  5
EFA7
330
1A
100
AcDbEntity
  8
TERMINALS
100
AcDbLine
 10
20.58843185081328
 20
5.989574098942671
 30
0.0
 11
20.21343185081328
 21
5.989574098942671
 31
0.0
  0
LINE
  5
EFA8
330
1A
100
AcDbEntity
  8
TERMINALS
100
AcDbLine
 10
19.45442109940234
 20
4.218441065951325
 30
0.0
 11
19.45442109940234
 21
4.593441065951329
 31
0.0
  0
LINE
  5
EFA9
330
1A
100
AcDbEntity
  8
TERMINALS
100
AcDbLine
 10
18.86442109940234
 20
4.218441065951325
 30
0.0
 11
18.86442109940234
 21
4.593441065951329
 31
0.0
  0
LINE
  5
EFAA
330
1A
100
AcDbEntity
  8
TERMINALS
100
AcDbLine
 10
19.45442109940234
 20
4.218441065951325
 30
0.0
 11
18.86442109940234
 21
4.218441065951325
 31
0.0
  0
LINE
  5
EFAB
330
1A
100
AcDbEntity
  8
TERMINALS
100
AcDbLine
 10
19.05778255890079
 20
4.218441065951325
 30
0.0
 11
19.05778255890079
 21
4.593441065951329
 31
0.0
  0
LINE
  5
EFAC
330
1A
100
AcDbEntity
  8
TERMINALS
100
AcDbLine
 10
19.26105963990389
 20
4.218441065951325
 30
0.0
 11
19.26105963990389
 21
4.593441065951325
 31
0.0
  0
LINE
  5
EFAD
330
1A
100
AcDbEntity
  8
TERMINALS
100
AcDbLine
 10
19.88246589966129
 20
4.593441065951329
 30
0.0
 11
19.88246589966129
 21
4.338441065951325
 31
0.0
  0
LINE
  5
EFAE
330
1A
100
AcDbEntity
  8
TERMINALS
100
AcDbLine
 10
20.47246589966129
 20
4.593441065951329
 30
0.0
 11
20.47246589966129
 21
4.338441065951325
 31
0.0
  0
LINE
  5
EFAF
330
1A
100
AcDbEntity
  8
TERMINALS
100
AcDbLine
 10
20.47246589966129
 20
4.218441065951325
 30
0.0
 11
20.47246589966129
 21
4.593441065951329
 31
0.0
  0
LINE
  5
EFB0
330
1A
100
AcDbEntity
  8
TERMINALS
100
AcDbLine
 10
19.88246589966129
 20
4.218441065951325
 30
0.0
 11
19.88246589966129
 21
4.593441065951329
 31
0.0
  0
LINE
  5
EFB1
330
1A
100
AcDbEntity
  8
TERMINALS
100
AcDbLine
 10
20.47246589966129
 20
4.218441065951325
 30
0.0
 11
19.88246589966129
 21
4.218441065951325
 31
0.0
  0
LINE
  5
EFB2
330
1A
100
AcDbEntity
  8
TERMINALS
100
AcDbLine
 10
20.07582735915974
 20
4.218441065951325
 30
0.0
 11
20.07582735915974
 21
4.593441065951329
 31
0.0
  0
LINE
  5
EFB3
330
1A
100
AcDbEntity
  8
TERMINALS
100
AcDbLine
 10
20.27910444016284
 20
4.218441065951325
 30
0.0
 11
20.27910444016284
 21
4.593441065951325
 31
0.0
  0
LINE
  5
EFB4
330
1A
100
AcDbEntity
  8
TERMINALS
100
AcDbLine
 10
18.77911587261836
 20
6.989025175888087
 30
0.0
 11
18.77911587261836
 21
4.218441065951325
 31
0.0
  0
LINE
  5
EFB5
330
1A
100
AcDbEntity
  8
TERMINALS
100
AcDbLine
 10
20.58843185081328
 20
6.989025175888087
 30
0.0
 11
20.58843185081328
 21
4.218441065951325
 31
0.0
  0
LINE
  5
EFB6
330
1A
100
AcDbEntity
  8
TERMINALS
100
AcDbLine
 10
18.77911587261836
 20
6.989025175888087
 30
0.0
 11
20.58843185081328
 21
6.989025175888087
 31
0.0
  0
LINE
  5
EFB7
330
1A
100
AcDbEntity
  8
TERMINALS
100
AcDbLine
 10
18.77911587261836
 20
4.218441065951325
 30
0.0
 11
20.58843185081328
 21
4.218441065951325
 31
0.0
  0
LINE
  5
EFB8
330
1A
100
AcDbEntity
  8
TERMINALS
100
AcDbLine
 10
18.86442109940234
 20
4.218441065951325
 30
0.0
 11
18.77911587261836
 21
4.218441065951325
 31
0.0
  0
LINE
  5
EFB9
330
1A
100
AcDbEntity
  8
TERMINALS
100
AcDbLine
 10
20.58843185081328
 20
6.386212639444222
 30
0.0
 11
20.58843185081328
 21
6.989025175888089
 31
0.0
  0
MTEXT
  5
F053
330
1A
100
AcDbEntity
  8
0
100
AcDbMText
 10
21.15414076327576
 20
-0.7631252681464275
 30
0.0
 40
0.12
 41
14.44173728261603
 71
     5
 72
     5
  3
{\fArial|b0|i0|c0|p34;THIS DRAWING IS A CONTROLLED DOCUMENT PROVIDED \PBY MOORE INDUSTRIES-INTERNATIONAL, INC.\C176;\c8388608; \C256;AND IS \PSUBJECT TO CHANGE WITHOUT NOTICE. FOR LATEST \PREVISION OF DRAWING PLEASE CONTACT MOORE \PINDUSTRIES-INTERNA
  1
TIONAL, INC. THE INFORMATION \PPROVIDED IN THIS DRAWING IS PROPRIETARY TO \PMOORE INDUSTRIES-INTERNATIONAL, INC.\C176;\c8388608; }
 73
     1
 44
1.0
1001
ACAD
1000
MTEXTBEGIN
1070
    73
1070
     1
1070
    44
1040
1.0
1070
    74
1070
     0
1000
MTEXTEND
1000
ACAD_MTEXT_DEFINED_HEIGHT_BEGIN
1070
    46
1040
1.781648968217055
1000
ACAD_MTEXT_DEFINED_HEIGHT_END
  0
LINE
  5
F054
330
1A
100
AcDbEntity
  8
0
100
AcDbLine
 10
18.39146473664404
 20
0.0785353193076803
 30
0.0
 11
18.39146473664404
 21
-1.519342776462376
 31
0.0
  0
LINE
  5
F055
330
1A
100
AcDbEntity
  8
0
100
AcDbLine
 10
18.29000003742319
 20
0.1800000185285215
 30
0.0
 11
18.2900000374232
 21
-1.619999981471475
 31
0.0
  0
LINE
  5
F056
330
1A
100
AcDbEntity
  8
0
100
AcDbLine
 10
24.04000003742319
 20
0.1800000185285428
 30
0.0
 11
24.0400000374232
 21
-1.61999998147146
 31
0.0
  0
LINE
  5
F057
330
1A
100
AcDbEntity
  8
0
100
AcDbLine
 10
23.93853533820234
 20
0.0785353193076732
 30
0.0
 11
23.93853533820236
 21
-1.519342776462376
 31
0.0
  0
LINE
  5
F058
330
1A
100
AcDbEntity
  8
0
100
AcDbLine
 10
18.39146473664404
 20
-1.519342776462376
 30
0.0
 11
23.93853533820236
 21
-1.519342776462376
 31
0.0
  0
LINE
  5
F059
330
1A
100
AcDbEntity
  8
0
100
AcDbLine
 10
18.39146473664404
 20
0.0785353193076732
 30
0.0
 11
23.93853533820234
 21
0.0785353193076732
 31
0.0
  0
LINE
  5
F05A
330
1A
100
AcDbEntity
  8
0
100
AcDbLine
 10
18.39146473664405
 20
0.1800000185285215
 30
0.0
 11
23.93853533820234
 21
0.1800000185285286
 31
0.0
  0
LINE
  5
F05B
330
1A
100
AcDbEntity
  8
0
100
AcDbLine
 10
18.29000003742319
 20
0.9300000185285217
 30
0.0
 11
24.04000003742319
 21
0.9300000185285286
 31
0.0
  0
LINE
  5
F05C
330
1A
100
AcDbEntity
  8
0
100
AcDbLine
 10
18.39146473664404
 20
0.8285353193076732
 30
0.0
 11
23.93853533820234
 21
0.8285353193076732
 31
0.0
  0
LINE
  5
F05D
330
1A
100
AcDbEntity
  8
0
100
AcDbLine
 10
18.29000003742319
 20
-1.619999981471475
 30
0.0
 11
24.04000003742319
 21
-1.619999981471467
 31
0.0
  0
LINE
  5
F05E
330
1A
100
AcDbEntity
  8
0
100
AcDbLine
 10
18.29000003742319
 20
-1.619999981471475
 30
0.0
 11
24.04000003742319
 21
-1.619999981471467
 31
0.0
  0
LINE
  5
F05F
330
1A
100
AcDbEntity
  8
0
100
AcDbLine
 10
18.29000003742319
 20
-2.649999981471474
 30
0.0
 11
18.29000003742319
 21
-1.619999981471475
 31
0.0
  0
LINE
  5
F060
330
1A
100
AcDbEntity
  8
0
100
AcDbLine
 10
18.29000003742319
 20
-1.619999981471475
 30
0.0
 11
24.04000003742319
 21
-1.619999981471475
 31
0.0
  0
LINE
  5
F061
330
1A
100
AcDbEntity
  8
0
100
AcDbLine
 10
18.29000003742319
 20
-1.869999981471475
 30
0.0
 11
24.04000003742319
 21
-1.869999981471475
 31
0.0
  0
LINE
  5
F062
330
1A
100
AcDbEntity
  8
0
100
AcDbLine
 10
18.29000003742319
 20
-2.119999981471475
 30
0.0
 11
24.04000003742319
 21
-2.119999981471475
 31
0.0
  0
LINE
  5
F063
330
1A
100
AcDbEntity
  8
0
100
AcDbLine
 10
24.04000003742319
 20
-2.649999981471474
 30
0.0
 11
24.04000003742319
 21
-1.619999981471475
 31
0.0
  0
LINE
  5
F064
330
1A
100
AcDbEntity
  8
0
100
AcDbLine
 10
23.28330208572026
 20
-2.649999981471474
 30
0.0
 11
23.28330208572026
 21
-1.619999981471475
 31
0.0
  0
MTEXT
  5
F065
330
1A
100
AcDbEntity
  8
0
100
AcDbMText
 10
18.60714337829562
 20
-1.744999981471475
 30
0.0
 40
0.125
 41
0.6342866817448467
 71
     5
 72
     5
  1
{\fArial|b0|i0|c0|p34;REV}
 73
     1
 44
1.0
1001
ACAD
1000
MTEXTBEGIN
1070
    73
1070
     1
1070
    44
1040
1.0
1070
    74
1070
     0
1000
MTEXTEND
1000
ACAD_MTEXT_DEFINED_HEIGHT_BEGIN
1070
    46
1040
0.25
1000
ACAD_MTEXT_DEFINED_HEIGHT_END
  0
LINE
  5
F066
330
1A
100
AcDbEntity
  8
0
100
AcDbLine
 10
18.92428671916803
 20
-2.649999981471474
 30
0.0
 11
18.92428671916803
 21
-1.619999981471475
 31
0.0
  0
MTEXT
  5
F067
330
1A
100
AcDbEntity
  8
0
100
AcDbMText
 10
21.10379440244416
 20
-1.744999981471475
 30
0.0
 40
0.125
 41
4.359015366552219
 71
     5
 72
     5
  1
{\fArial|b0|i0|c0|p34;DESCRIPTION}
 73
     1
 44
1.0
1001
ACAD
1000
MTEXTBEGIN
1070
    73
1070
     1
1070
    44
1040
1.0
1070
    74
1070
     0
1000
MTEXTEND
1000
ACAD_MTEXT_DEFINED_HEIGHT_BEGIN
1070
    46
1040
0.2499999999999975
1000
ACAD_MTEXT_DEFINED_HEIGHT_END
  0
MTEXT
  5
F068
330
1A
100
AcDbEntity
  8
0
100
AcDbMText
 10
23.66165106157172
 20
-1.744999981471475
 30
0.0
 40
0.125
 41
0.7566979517029253
 71
     5
 72
     5
  1
{\fArial|b0|i0|c0|p34;DATE}
 73
     1
 44
1.0
1001
ACAD
1000
MTEXTBEGIN
1070
    73
1070
     1
1070
    44
1040
1.0
1070
    74
1070
     0
1000
MTEXTEND
1000
ACAD_MTEXT_DEFINED_HEIGHT_BEGIN
1070
    46
1040
0.25
1000
ACAD_MTEXT_DEFINED_HEIGHT_END
  0
LINE
  5
F069
330
1A
100
AcDbEntity
  8
0
100
AcDbLine
 10
18.29000003742319
 20
0.9300000185285217
 30
0.0
 11
18.29000003742319
 21
0.1800000185285215
 31
0.0
  0
LINE
  5
F06A
330
1A
100
AcDbEntity
  8
0
100
AcDbLine
 10
18.39146473664404
 20
0.8285353193076732
 30
0.0
 11
18.39146473664404
 21
0.1800000185285215
 31
0.0
  0
LINE
  5
F06B
330
1A
100
AcDbEntity
  8
0
100
AcDbLine
 10
24.04000003742319
 20
0.9300000185285286
 30
0.0
 11
24.04000003742319
 21
0.1800000185285428
 31
0.0
  0
LINE
  5
F06C
330
1A
100
AcDbEntity
  8
0
100
AcDbLine
 10
23.93853533820234
 20
0.8285353193076732
 30
0.0
 11
23.93853533820234
 21
0.1800000185285286
 31
0.0
  0
MTEXT
  5
F06D
330
1A
100
AcDbEntity
  8
0
100
AcDbMText
 10
21.16500003742319
 20
0.5042676689181011
 30
0.0
 40
0.25
 41
5.547070601558278
 71
     5
 72
     5
  1
{\fArial|b0|i0|c0|p34;TG204-DIN}
 73
     1
 44
1.0
1001
ACAD
1000
MTEXTBEGIN
1070
    73
1070
     1
1070
    44
1040
1.0
1070
    74
1070
     0
1000
MTEXTEND
1000
ACAD_MTEXT_DEFINED_HEIGHT_BEGIN
1070
    46
1040
0.6485353007791446
1000
ACAD_MTEXT_DEFINED_HEIGHT_END
  0
MTEXT
  5
F06E
330
1A
100
AcDbEntity
  8
0
100
AcDbMText
 10
18.60714337829562
 20
-1.994999981471475
 30
0.0
 40
0.125
 41
0.6342866817448503
 71
     5
 72
     5
  1
{\fArial|b0|i0|c0|p34;1}
 73
     1
 44
1.0
1001
ACAD
1000
MTEXTBEGIN
1070
    73
1070
     1
1070
    44
1040
1.0
1070
    74
1070
     0
1000
MTEXTEND
1000
ACAD_MTEXT_DEFINED_HEIGHT_BEGIN
1070
    46
1040
0.2499999999999993
1000
ACAD_MTEXT_DEFINED_HEIGHT_END
  0
MTEXT
  5
F06F
330
1A
100
AcDbEntity
  8
0
100
AcDbMText
 10
21.10379440244416
 20
-1.992072481377458
 30
0.0
 40
0.125
 41
4.359015366552219
 71
     5
 72
     5
  1
{\fArial|b0|i0|c0|p34;INITIAL RELEASE}
 73
     1
 44
1.0
1001
ACAD
1000
MTEXTBEGIN
1070
    73
1070
     1
1070
    44
1040
1.0
1070
    74
1070
     0
1000
MTEXTEND
1000
ACAD_MTEXT_DEFINED_HEIGHT_BEGIN
1070
    46
1040
0.1292633015006892
1000
ACAD_MTEXT_DEFINED_HEIGHT_END
  0
MTEXT
  5
F070
330
1A
100
AcDbEntity
  8
0
100
AcDbMText
 10
23.66165106157172
 20
-1.994999981471475
 30
0.0
 40
0.125
 41
0.7566979517029218
 71
     5
 72
     5
  1
{\fArial|b0|i0|c0|p34;04/08}
 73
     1
 44
1.0
1001
ACAD
1000
MTEXTBEGIN
1070
    73
1070
     1
1070
    44
1040
1.0
1070
    74
1070
     0
1000
MTEXTEND
1000
ACAD_MTEXT_DEFINED_HEIGHT_BEGIN
1070
    46
1040
0.25
1000
ACAD_MTEXT_DEFINED_HEIGHT_END
  0
MTEXT
  5
F2A9
330
1A
100
AcDbEntity
  8
TERMINALS
100
AcDbMText
 10
20.35357168540817
 20
6.746826072826286
 30
0.0
 40
0.1610000000000001
 41
0.0
 71
     5
 72
     1
  1
{\fArial|b0|i0|c0|p34;+}
  7
SIMPLEX
 11
0.0000000000000008
 21
1.0
 31
0.0
 73
     1
 44
1.0
1001
ACAD
1000
MTEXTBEGIN
1070
    73
1070
     1
1070
    44
1040
1.0
1070
    74
1070
     0
1000
MTEXTEND
  0
MTEXT
  5
F2AA
330
1A
100
AcDbEntity
  8
TERMINALS
100
AcDbMText
 10
19.01615390064998
 20
6.759648210199785
 30
0.0
 40
0.1610000000000001
 41
0.0
 71
     5
 72
     1
  1
{\fArial|b0|i0|c0|p34;-}
  7
SIMPLEX
 73
     1
 44
1.0
1001
ACAD
1000
MTEXTBEGIN
1070
    73
1070
     1
1070
    44
1040
1.0
1070
    74
1070
     0
1000
MTEXTEND
  0
MTEXT
  5
F2AB
330
1A
100
AcDbEntity
  8
TERMINALS
100
AcDbMText
 10
10.86806069259893
 20
6.142593984786151
 30
0.0
 40
0.1610000000000001
 41
0.0
 71
     5
 72
     1
  1
{\fArial|b0|i0|c0|p34;+}
  7
SIMPLEX
 11
0.0000000000000008
 21
1.0
 31
0.0
 73
     1
 44
1.0
1001
ACAD
1000
MTEXTBEGIN
1070
    73
1070
     1
1070
    44
1040
1.0
1070
    74
1070
     0
1000
MTEXTEND
  0
MTEXT
  5
F2AC
330
1A
100
AcDbEntity
  8
TERMINALS
100
AcDbMText
 10
10.86806069259893
 20
7.367593984786152
 30
0.0
 40
0.1610000000000001
 41
0.0
 71
     5
 72
     1
  1
{\fArial|b0|i0|c0|p34;-}
  7
SIMPLEX
 11
0.0000000000000008
 21
1.0
 31
0.0
 73
     1
 44
1.0
1001
ACAD
1000
MTEXTBEGIN
1070
    73
1070
     1
1070
    44
1040
1.0
1070
    74
1070
     0
1000
MTEXTEND
  0
MTEXT
  5
F2CB
330
1A
100
AcDbEntity
  8
0
100
AcDbMText
 10
18.60714337829562
 20
-2.388951426303159
 30
0.0
 40
0.125
 41
0.6342866817448503
 71
     5
 72
     5
  1
{\fArial|b0|i0|c0|p34;2}
 73
     1
 44
1.0
1001
ACAD
1000
MTEXTBEGIN
1070
    73
1070
     1
1070
    44
1040
1.0
1070
    74
1070
     0
1000
MTEXTEND
1000
ACAD_MTEXT_DEFINED_HEIGHT_BEGIN
1070
    46
1040
0.2499999999999993
1000
ACAD_MTEXT_DEFINED_HEIGHT_END
  0
MTEXT
  5
F2CC
330
1A
100
AcDbEntity
  8
0
100
AcDbMText
 10
21.10379440244416
 20
-2.386012623294548
 30
0.0
 40
0.125
 41
4.359015366552219
 71
     5
 72
     5
  1
{\fArial|b0|i0|c0|p34;DIMENSIONS REMOVED, TERMINAL \PDESIGNATION CORRECTED}
 73
     1
 44
1.0
1001
ACAD
1000
MTEXTBEGIN
1070
    73
1070
     1
1070
    44
1040
1.0
1070
    74
1070
     0
1000
MTEXTEND
1000
ACAD_MTEXT_DEFINED_HEIGHT_BEGIN
1070
    46
1040
0.1292633015006892
1000
ACAD_MTEXT_DEFINED_HEIGHT_END
  0
MTEXT
  5
F2CD
330
1A
100
AcDbEntity
  8
0
100
AcDbMText
 10
23.66165106157173
 20
-2.388951426303159
 30
0.0
 40
0.125
 41
0.7566979517029218
 71
     5
 72
     5
  1
{\fArial|b0|i0|c0|p34;11/08}
 73
     1
 44
1.0
1001
ACAD
1000
MTEXTBEGIN
1070
    73
1070
     1
1070
    44
1040
1.0
1070
    74
1070
     0
1000
MTEXTEND
1000
ACAD_MTEXT_DEFINED_HEIGHT_BEGIN
1070
    46
1040
0.25
1000
ACAD_MTEXT_DEFINED_HEIGHT_END
  0
LINE
  5
F2CE
330
1A
100
AcDbEntity
  8
0
100
AcDbLine
 10
18.2900000374232
 20
-2.649999981471474
 30
0.0
 11
24.0400000374232
 21
-2.649999981471474
 31
0.0
  0
VIEWPORT
  5
1E9B
102
{ACAD_XDICTIONARY
360
F324
102
}
330
17
100
AcDbEntity
 67
     1
  8
0
100
AcDbViewport
 10
8.103231597845601
 20
4.5
 30
0.0
 40
16.2064631956912
 41
9.500897666068222
 68
     1
 69
     1
 12
8.103231597845601
 22
4.5
 13
0.0
 23
0.0
 14
0.025
 24
0.025
 15
0.05
 25
0.05
 16
0.0
 26
0.0
 36
1.0
 17
0.0
 27
0.0
 37
0.0
 42
50.0
 43
0.0
 44
0.0
 45
9.500897666068222
 50
0.0
 51
0.0
 72
 20000
 90
    33056
  1

281
     0
 71
     1
 74
     0
110
0.0
120
0.0
130
0.0
111
1.0
121
0.0
131
0.0
112
0.0
122
1.0
132
0.0
 79
     0
146
0.0
1001
GENIUS_GENOBJ-N-SDF_13
1002
{
1000
OWNER
1000
GEN
1002
}
1001
GENIUS_GENODEF_13
1002
{
1000
HIER
1070
     0
1002
}
1002
{
1000
MANEDIT
1070
     0
1002
}
1002
{
1000
NOSEL
1070
     0
1002
}
1002
{
1000
BEHIND
1070
     0
1002
}
1002
{
1000
OTHER
1070
     0
1002
}
1002
{
1000
REACTOR
1002
}
1001
GENIUS_GENSCREG_15
1000
PF
1040
1.0
1000
DF
1040
1.0
1000
MIN
1011
0.0
1021
-0.2504488330341115
1031
0.0
1000
MAX
1011
16.2064631956912
1021
9.250448833034111
1031
0.0
1000
FLAGS
1070
     2
  0
ENDSEC
  0
SECTION
  2
OBJECTS
  0
DICTIONARY
  5
C
330
0
100
AcDbDictionary
281
     1
  3
ACAD_2007HEADERVARS_RT
350
F322
  3
ACAD_COLOR
350
61A1
  3
ACAD_GROUP
350
D
  3
ACAD_LAYOUT
350
6078
  3
ACAD_MATERIAL
350
61A0
  3
ACAD_MLINESTYLE
350
E
  3
ACAD_PLOTSETTINGS
350
6079
  3
ACAD_PLOTSTYLENAME
350
6076
  3
ACAD_TABLESTYLE
350
61A2
  3
ACAD_VISUALSTYLE
350
EA8E
  3
AcadDim
350
AA24
  3
AcDbVariableDictionary
350
61AF
  3
AcmDictionary
350
EB66
  3
AMG
350
EAA5
  3
AMGSNAPSETTINGS
350
EBB6
  3
ASE_INDEX_DICTIONARY
350
D640
  3
DWGPROPS
350
F321
  3
MAPISURF_MODULE
350
F256
  0
DICTIONARY
  5
9494
330
2
100
AcDbDictionary
280
     1
281
     1
  3
ACAD_LAYERFILTERS
360
EBB5
  3
ACAD_LAYERSTATES
360
D90F
  3
ACLYDICTIONARY
360
EBB4
  0
DICTIONARY
  5
70D3
330
1A
100
AcDbDictionary
280
     1
281
     1
  3
ACAD_INDEX
360
F2F8
  3
ACAD_SORTENTS
360
70D4
  0
DICTIONARY
  5
F2B9
330
F2B4
100
AcDbDictionary
280
     1
281
     1
  3
ACAD_SORTENTS
360
F2BA
  0
DICTIONARY
  5
F2C5
330
F2C0
100
AcDbDictionary
280
     1
281
     1
  3
ACAD_SORTENTS
360
F2C6
  0
DICTIONARY
  5
F324
330
1E9B
100
AcDbDictionary
280
     1
281
     1
  3
ACAD_XREC_ROUNDTRIP
360
F325
  0
DICTIONARY
  5
F322
102
{ACAD_REACTORS
330
C
102
}
330
C
100
AcDbDictionary
281
     1
  3
DIMARCSYM
350
F323
  0
DICTIONARY
  5
61A1
102
{ACAD_REACTORS
330
C
102
}
330
C
100
AcDbDictionary
281
     1
  0
DICTIONARY
  5
D
102
{ACAD_REACTORS
330
C
102
}
330
C
100
AcDbDictionary
281
     1
  0
DICTIONARY
  5
6078
102
{ACAD_REACTORS
330
C
102
}
330
C
100
AcDbDictionary
281
     1
  3
Layout1
350
607B
  3
Model
350
607A
  0
DICTIONARY
  5
61A0
102
{ACAD_REACTORS
330
C
102
}
330
C
100
AcDbDictionary
281
     1
  3
ByBlock
350
EA8D
  3
ByLayer
350
EA8C
  3
Global
350
D90C
  0
DICTIONARY
  5
E
102
{ACAD_REACTORS
330
C
102
}
330
C
100
AcDbDictionary
281
     1
  3
STANDARD
350
13
  0
DICTIONARY
  5
6079
102
{ACAD_REACTORS
330
C
102
}
330
C
100
AcDbDictionary
281
     1
  3
laser
350
615D
  3
pdf
350
619D
  0
ACDBDICTIONARYWDFLT
  5
6076
102
{ACAD_REACTORS
330
C
102
}
330
C
100
AcDbDictionary
281
     1
  3
Normal
350
6077
100
AcDbDictionaryWithDefault
340
6077
  0
DICTIONARY
  5
61A2
102
{ACAD_REACTORS
330
C
102
}
330
C
100
AcDbDictionary
281
     1
  3
Standard
350
61A3
  0
DICTIONARY
  5
EA8E
102
{ACAD_REACTORS
330
C
102
}
330
C
100
AcDbDictionary
281
     1
  3
2dWireframe
350
EA94
  3
3D Hidden
350
EA96
  3
3dWireframe
350
EA95
  3
Basic
350
EA93
  3
Brighten
350
EA9A
  3
ColorChange
350
EA9E
  3
Conceptual
350
EA97
  3
Dim
350
EA99
  3
Facepattern
350
EA9D
  3
Flat
350
EA8F
  3
FlatWithEdges
350
EA90
  3
Gouraud
350
EA91
  3
GouraudWithEdges
350
EA92
  3
Linepattern
350
EA9C
  3
Realistic
350
EA98
  3
Thicken
350
EA9B
  0
XRECORD
  5
AA24
102
{ACAD_REACTORS
330
C
102
}
330
C
100
AcDbXrecord
280
     1
 90
   990106
  3

 60
     0
 61
     0
 62
     1
 63
     3
 64
     0
 65
     0
 66
     0
 67
     3
 68
     1
 69
     0
 70
     0
 71
     0
 72
     0
 40
0.0
170
     0
340
0
  0
DICTIONARY
  5
61AF
102
{ACAD_REACTORS
330
C
102
}
330
C
100
AcDbDictionary
281
     1
  3
CTABLESTYLE
350
61B0
  3
DIMASSOC
350
61DA
  3
INDEXCTL
350
F320
  3
PROJECTNAME
350
61DB
  3
SORTENTS
350
F31F
  0
DICTIONARY
  5
EB66
102
{ACAD_REACTORS
330
C
102
}
330
C
100
AcDbDictionary
281
     1
  3
AcmStdDictionary
350
EB76
  3
AMDTSECTSYM_ARROWCOLOR
350
EB96
  0
DICTIONARY
  5
EAA5
102
{ACAD_REACTORS
330
C
102
}
330
C
100
AcDbDictionary
281
     1
  3
AcMgSettings
350
EAA6
  0
DICTIONARY
  5
EBB6
102
{ACAD_REACTORS
330
C
102
}
330
C
100
AcDbDictionary
281
     1
  3
DIMENSION
350
EBBB
  3
FEA
350
EBBA
  3
HATCH (1)
350
EBB7
  3
HATCH (2)
350
EBB8
  3
SIMPLE WELD
350
EBBC
  3
SYMBOLS
350
EBB9
  0
DICTIONARY
  5
D640
102
{ACAD_REACTORS
330
C
102
}
330
C
100
AcDbDictionary
281
     1
  3
ASEBlockHierarchyIndexRecord
350
D641
1001
DCO15
1040
1541152066.432
  0
XRECORD
  5
F321
102
{ACAD_REACTORS
330
C
102
}
330
C
100
AcDbXrecord
280
     1
  1
DWGPROPS COOKIE
  2

  3

  4

  6

  7

  8
amartinez
  9

300
AmdtFileType=84
301
=
302
=
303
=
304
=
305
=
306
=
307
=
308
=
309
=
 40
4.530324560185185
 41
2450037.614102546
 42
2454784.463806794
  1

 90
        1
  0
DICTIONARY
  5
EBB5
102
{ACAD_REACTORS
330
9494
102
}
330
9494
100
AcDbDictionary
281
     1
  0
DICTIONARY
  5
D90F
102
{ACAD_REACTORS
330
9494
102
}
330
9494
100
AcDbDictionary
281
     1
  0
DICTIONARY
  5
EBB4
102
{ACAD_REACTORS
330
9494
102
}
330
9494
100
AcDbDictionary
281
     1
1001
ACAD
1000
<All
  0
DICTIONARY
  5
F2F8
102
{ACAD_REACTORS
330
70D3
102
}
330
70D3
100
AcDbDictionary
281
     1
  3
*A1
350
F2F9
  0
SORTENTSTABLE
  5
70D4
102
{ACAD_REACTORS
330
70D3
102
}
330
70D3
100
AcDbSortentsTable
330
1A
331
EF6E
  5
EF6E
331
EF47
  5
EF47
331
E947
  5
E947
331
E928
  5
E928
331
D5E0
  5
BCB1
331
E8F2
  5
E8F2
331
D5A2
  5
D5B0
331
E8D3
  5
E8D3
331
D583
  5
D59F
331
E8B4
  5
E8B4
331
D564
  5
D57F
331
D497
  5
D4B2
331
EFA5
  5
EFA5
331
B77F
  5
B82F
331
B760
  5
B810
331
B749
  5
B785
331
B70B
  5
B747
331
B6EC
  5
B728
331
B6D5
  5
B711
331
B6B6
  5
B6F0
331
B697
  5
B6D6
331
EF6F
  5
EF6F
331
EF48
  5
EF48
331
E96F
  5
E96F
331
E948
  5
E948
331
D6DF
  5
D72B
331
E929
  5
E929
331
E8F3
  5
E8F3
331
D5E1
  5
B832
331
E8D4
  5
E8D4
331
D584
  5
D5A0
331
E8B5
  5
E8B5
331
D565
  5
D580
331
EFA6
  5
EFA6
331
B81F
  5
BCB5
331
B780
  5
B830
331
B761
  5
B811
331
B74A
  5
B786
331
B70C
  5
B74B
331
B6ED
  5
B729
331
B6D6
  5
B712
331
B6B7
  5
B6F1
331
DA20
  5
DA26
331
EF49
  5
EF49
331
E92A
  5
E92A
331
E949
  5
E949
331
E970
  5
E970
331
E8F4
  5
E8F4
331
D5A4
  5
D5B1
331
E8D5
  5
E8D5
331
D585
  5
D5A1
331
E8B6
  5
E8B6
331
D566
  5
D581
331
EFA7
  5
EFA7
331
B820
  5
BCB6
331
B781
  5
B831
331
B762
  5
B812
331
B74B
  5
B787
331
B72C
  5
B769
331
B70D
  5
B74C
331
B6EE
  5
B72A
331
B6B8
  5
B6F2
331
B6D7
  5
B713
331
DA40
  5
DA46
331
DA21
  5
DA27
331
D91A
  5
D96F
331
EF4A
  5
EF4A
331
E94A
  5
E94A
331
E92B
  5
E92B
331
D6E1
  5
D72C
331
E8F5
  5
E8F5
331
D5A5
  5
D5B2
331
E8D6
  5
E8D6
331
E8B7
  5
E8B7
331
D567
  5
D582
331
D586
  5
D5A2
331
EFA8
  5
EFA8
331
CFA8
  5
D0AB
331
B782
  5
B833
331
B763
  5
B813
331
B74C
  5
B789
331
B6EF
  5
B72B
331
B6D8
  5
B714
331
B6B9
  5
B6F3
331
B70E
  5
B74D
331
DA88
  5
DA8E
331
DA22
  5
DA28
331
DA41
  5
DA47
331
D91B
  5
D993
331
EF8A
  5
EF8A
331
EF4B
  5
EF4B
331
E94B
  5
E94B
331
D6E2
  5
D72D
331
E92C
  5
E92C
331
E8F6
  5
E8F6
331
D5A6
  5
D5B3
331
E8D7
  5
E8D7
331
D587
  5
D5A5
331
D5E4
  5
D609
331
EFA9
  5
EFA9
331
B783
  5
B834
331
B764
  5
B814
331
B72E
  5
B76A
331
B6F0
  5
B72C
331
B6D9
  5
B715
331
B6BA
  5
B6F4
331
B74D
  5
B78A
331
DA89
  5
DA8F
331
DA42
  5
DA48
331
DA23
  5
DA29
331
DAA0
  5
DAA6
331
D91C
  5
DA00
331
EF8B
  5
EF8B
331
EF4C
  5
EF4C
331
E94C
  5
E94C
331
E92D
  5
E92D
331
E8F7
  5
E8F7
331
D5A7
  5
D5B4
331
D6E3
  5
D72E
331
EFAA
  5
EFAA
331
B765
  5
B815
331
B74E
  5
B78B
331
B72F
  5
B76B
331
B6F1
  5
B72D
331
B6DA
  5
B716
331
B6BB
  5
B6F5
331
B784
  5
B835
331
DD00
  5
DE75
331
DA8A
  5
DA90
331
DAA1
  5
DAA7
331
DA43
  5
DA49
331
DA24
  5
DA2A
331
D91D
  5
DA01
331
D7F6
  5
D926
331
EFAB
  5
EFAB
331
D6E4
  5
D72F
331
EF4D
  5
EF4D
331
D5E6
  5
D60D
331
E94D
  5
E94D
331
E92E
  5
E92E
331
EF8C
  5
EF8C
331
B824
  5
BCB7
331
B785
  5
B836
331
B766
  5
B816
331
B730
  5
B76C
331
B6F2
  5
B72E
331
B6DB
  5
B717
331
B6BC
  5
B6F6
331
B69D
  5
B6D7
331
E040
  5
E040
331
DD01
  5
DE77
331
DAA2
  5
DAA8
331
DA44
  5
DA4A
331
DA25
  5
DA2B
331
D7F7
  5
D928
331
DA8B
  5
DA91
331
EFAC
  5
EFAC
331
EF8D
  5
EF8D
331
EF4E
  5
EF4E
331
D5E7
  5
D618
331
E94E
  5
E94E
331
E92F
  5
E92F
331
B786
  5
B837
331
B767
  5
B817
331
B750
  5
B78D
331
B731
  5
B76D
331
B712
  5
B74E
331
B6F3
  5
B72F
331
B6DC
  5
B718
331
B6BD
  5
B6F7
331
B69E
  5
B6D8
331
E041
  5
E041
331
DD02
  5
DE79
331
DAA3
  5
DAA9
331
DA45
  5
DA4B
331
DA26
  5
DA2C
331
D7F8
  5
B704
331
DA8C
  5
DA92
331
EFAD
  5
EFAD
331
EF8E
  5
EF8E
331
EF4F
  5
EF4F
331
E94F
  5
E94F
331
CFAD
  5
D0AE
331
B787
  5
B838
331
B768
  5
B81B
331
B751
  5
B78E
331
B732
  5
B76E
331
B713
  5
B74F
331
B6F4
  5
B730
331
B6DD
  5
B719
331
B6BE
  5
B6F8
331
B69F
  5
B6D9
331
E098
  5
E098
331
E042
  5
E042
331
DAA4
  5
DAAA
331
DA46
  5
DA4C
331
DA27
  5
DA2D
331
DA8D
  5
DA93
331
EFAE
  5
EFAE
331
EF8F
  5
EF8F
331
EF50
  5
EF50
331
B788
  5
B839
331
B769
  5
B81D
331
B752
  5
B78F
331
B733
  5
B76F
331
B714
  5
B750
331
B6F5
  5
B731
331
B6DE
  5
B71A
331
B6BF
  5
B6F9
331
B681
  5
B6BF
331
B6A0
  5
B6DA
331
E840
  5
E840
331
E099
  5
E099
331
E043
  5
E043
331
DAA5
  5
DAAB
331
DA47
  5
DA4D
331
DA28
  5
DA2E
331
DA8E
  5
DA94
331
EF90
  5
EF90
331
EFAF
  5
EFAF
331
EF51
  5
EF51
331
B789
  5
B83A
331
B76A
  5
B81E
331
B734
  5
B770
331
B715
  5
B751
331
B6F6
  5
B732
331
B6C0
  5
B6FA
331
B6A1
  5
B6DB
331
B6DF
  5
B71B
331
E860
  5
E860
331
E841
  5
E841
331
E09A
  5
E09A
331
E044
  5
E044
331
DAA6
  5
DAAC
331
DA48
  5
DA4E
331
DA29
  5
DA2F
331
DA8F
  5
DA95
331
EF91
  5
EF91
331
EF52
  5
EF52
331
B78A
  5
B83B
331
B754
  5
B790
331
B735
  5
B771
331
B6F7
  5
B733
331
B6C1
  5
B6FB
331
B6A2
  5
B6DC
331
B716
  5
B752
331
E861
  5
E861
331
E842
  5
E842
331
E09B
  5
E09B
331
E045
  5
E045
331
DAA7
  5
DAAD
331
E880
  5
E880
331
DA2A
  5
DA30
331
DA49
  5
DA4F
331
D7AE
  5
B707
331
DA90
  5
DA96
331
EF92
  5
EF92
331
EF53
  5
EF53
331
B78B
  5
B83C
331
B736
  5
B772
331
B717
  5
B753
331
B6F8
  5
B734
331
B6C2
  5
B6FC
331
B6A3
  5
B6DD
331
B755
  5
B791
331
E862
  5
E862
331
E843
  5
E843
331
E046
  5
E046
331
DAA8
  5
DAAE
331
E881
  5
E881
331
DA4A
  5
DA50
331
DA2B
  5
DA31
331
DA91
  5
DA97
331
EF93
  5
EF93
331
EF54
  5
EF54
331
CFB2
  5
D0AF
331
B756
  5
B792
331
B737
  5
B773
331
B718
  5
B754
331
B6F9
  5
B735
331
B6C3
  5
B6FD
331
B6A4
  5
B6DE
331
B78C
  5
B83E
331
E863
  5
E863
331
E844
  5
E844
331
E882
  5
E882
331
DAA9
  5
DAAF
331
E047
  5
E047
331
DA4B
  5
DA51
331
DA2C
  5
DA32
331
D7B0
  5
D91A
331
DA92
  5
DA98
331
E086
  5
E086
331
EF55
  5
EF55
331
B78D
  5
B83F
331
B76E
  5
B81F
331
B757
  5
B793
331
B738
  5
B774
331
B719
  5
B755
331
B6FA
  5
B736
331
B6C4
  5
B6FE
331
B6A5
  5
B6DF
331
B686
  5
B6C0
331
E883
  5
E883
331
E864
  5
E864
331
E087
  5
E087
331
E048
  5
E048
331
DA93
  5
DA99
331
DAAA
  5
DAB0
331
DA4C
  5
DA52
331
D926
  5
DA02
331
DA2D
  5
DA33
331
E845
  5
E845
331
EF56
  5
EF56
331
B8E5
  5
BCBA
331
B78E
  5
B856
331
B739
  5
B775
331
B71A
  5
B756
331
B6FB
  5
B737
331
B6C5
  5
B6FF
331
B6A6
  5
B6E0
331
B687
  5
B6C1
331
E884
  5
E884
331
E865
  5
E865
331
E088
  5
E088
331
E846
  5
E846
331
E049
  5
E049
331
DA94
  5
DA9A
331
DAAB
  5
DAB1
331
DA2E
  5
DA34
331
D7B2
  5
D91B
331
D78B
  5
D867
331
EF57
  5
EF57
331
B8E6
  5
BCBB
331
B78F
  5
B857
331
B770
  5
B820
331
B73A
  5
B776
331
B71B
  5
B757
331
B6FC
  5
B738
331
B6C6
  5
B700
331
B6A7
  5
B6E1
331
E885
  5
E885
331
E866
  5
E866
331
E847
  5
E847
331
E089
  5
E089
331
E828
  5
E828
331
E04A
  5
E04A
331
DA95
  5
DA9B
331
DAAC
  5
DAB2
331
DA2F
  5
DA35
331
B8E7
  5
BCBC
331
B790
  5
B858
331
B771
  5
B821
331
B73B
  5
B777
331
B71C
  5
B758
331
B6FD
  5
B739
331
B6C7
  5
B701
331
E886
  5
E886
331
E867
  5
E867
331
E848
  5
E848
331
E08A
  5
E08A
331
E829
  5
E829
331
E04B
  5
E04B
331
DA96
  5
DA9C
331
DAAD
  5
DAB3
331
DA30
  5
DA36
331
CFB7
  5
D0B0
331
B772
  5
B822
331
B73C
  5
B778
331
B71D
  5
B759
331
B6FE
  5
B73A
331
E887
  5
E887
331
E868
  5
E868
331
E849
  5
E849
331
E08B
  5
E08B
331
E82A
  5
E82A
331
E04C
  5
E04C
331
DA97
  5
DA9D
331
DFDD
  5
DCFD
331
DA31
  5
DA37
331
D7E4
  5
D91D
331
B792
  5
B85A
331
B773
  5
B823
331
B73D
  5
B779
331
B6FF
  5
B73B
331
B71E
  5
B75A
331
E888
  5
E888
331
E869
  5
E869
331
E84A
  5
E84A
331
E82B
  5
E82B
331
E04D
  5
E04D
331
DA98
  5
DA9E
331
DA32
  5
DA38
331
D993
  5
DA05
331
DFDE
  5
DCFF
331
EFB0
  5
EFB0
331
B793
  5
BCB2
331
B73E
  5
B77A
331
B71F
  5
B75B
331
B774
  5
B824
331
E889
  5
E889
331
E86A
  5
E86A
331
E84B
  5
E84B
331
E08D
  5
E08D
331
E82C
  5
E82C
331
E04E
  5
E04E
331
DFDF
  5
DD01
331
DA99
  5
DA9F
331
DA33
  5
DA39
331
DBF0
  5
DBF0
331
EFB1
  5
EFB1
331
F058
  5
F058
331
B775
  5
B825
331
B73F
  5
B77B
331
B794
  5
BCB3
331
E88A
  5
E88A
331
E86B
  5
E86B
331
E84C
  5
E84C
331
E08E
  5
E08E
331
E82D
  5
E82D
331
DFE0
  5
DE74
331
DA9A
  5
DAA0
331
DBF1
  5
DBF1
331
DA34
  5
DA3A
331
E04F
  5
E04F
331
EFB2
  5
EFB2
331
F059
  5
F059
331
B776
  5
B826
331
E88B
  5
E88B
331
E86C
  5
E86C
331
E08F
  5
E08F
331
E82E
  5
E82E
331
E050
  5
E050
331
DFE1
  5
DE76
331
DA9B
  5
DAA1
331
DBF2
  5
DBF2
331
DA7C
  5
DA82
331
DA35
  5
DA3B
331
E84D
  5
E84D
331
EFB3
  5
EFB3
331
F05A
  5
F05A
331
B777
  5
B827
331
E88C
  5
E88C
331
E86D
  5
E86D
331
E84E
  5
E84E
331
E090
  5
E090
331
E82F
  5
E82F
331
E051
  5
E051
331
DFE2
  5
DE78
331
DA9C
  5
DAA2
331
DBF3
  5
DBF3
331
DA7D
  5
DA83
331
DA36
  5
DA3C
331
EFB4
  5
EFB4
331
F05B
  5
F05B
331
CF9E
  5
CFD0
331
E88D
  5
E88D
331
E86E
  5
E86E
331
E84F
  5
E84F
331
E830
  5
E830
331
E052
  5
E052
331
DA9D
  5
DAA3
331
DFE3
  5
DE7A
331
DA7E
  5
DA84
331
DA37
  5
DA3D
331
EFB5
  5
EFB5
331
F05C
  5
F05C
331
E88E
  5
E88E
331
E86F
  5
E86F
331
E850
  5
E850
331
E831
  5
E831
331
DA9E
  5
DAA4
331
E053
  5
E053
331
DA7F
  5
DA85
331
DA38
  5
DA3E
331
D7CC
  5
D91C
331
EFB6
  5
EFB6
331
F05D
  5
F05D
331
E88F
  5
E88F
331
E870
  5
E870
331
E851
  5
E851
331
E093
  5
E093
331
DA80
  5
DA86
331
DA9F
  5
DAA5
331
E832
  5
E832
331
DA39
  5
DA3F
331
EFB7
  5
EFB7
331
F05E
  5
F05E
331
E890
  5
E890
331
E871
  5
E871
331
E852
  5
E852
331
DA81
  5
DA87
331
E094
  5
E094
331
DA3A
  5
DA40
331
E833
  5
E833
331
EFB8
  5
EFB8
331
F05F
  5
F05F
331
E891
  5
E891
331
E872
  5
E872
331
E853
  5
E853
331
DA82
  5
DA88
331
E095
  5
E095
331
DA3B
  5
DA41
331
E834
  5
E834
331
D190
  5
D2F6
331
EFB9
  5
EFB9
331
F060
  5
F060
331
E892
  5
E892
331
E873
  5
E873
331
E854
  5
E854
331
E096
  5
E096
331
DA83
  5
DA89
331
E038
  5
E038
331
DA3C
  5
DA42
331
E835
  5
E835
331
F061
  5
F061
331
E893
  5
E893
331
E874
  5
E874
331
E097
  5
E097
331
E836
  5
E836
331
DA84
  5
DA8A
331
E039
  5
E039
331
DA3D
  5
DA43
331
DA1E
  5
DA24
331
E855
  5
E855
331
D420
  5
D425
331
F062
  5
F062
331
F2A9
  5
F2A9
331
E894
  5
E894
331
E875
  5
E875
331
E856
  5
E856
331
E837
  5
E837
331
DA85
  5
DA8B
331
E03A
  5
E03A
331
DA3E
  5
DA44
331
DA1F
  5
DA25
331
CFBC
  5
D0F4
331
D421
  5
D426
331
F063
  5
F063
331
F2AA
  5
F2AA
331
E895
  5
E895
331
E876
  5
E876
331
E857
  5
E857
331
E838
  5
E838
331
E03B
  5
E03B
331
DA86
  5
DA8C
331
DCFC
  5
DCFC
331
DA3F
  5
DA45
331
D478
  5
D2F9
331
F064
  5
F064
331
F2AB
  5
F2AB
331
E896
  5
E896
331
E877
  5
E877
331
E858
  5
E858
331
E839
  5
E839
331
E03C
  5
E03C
331
DA87
  5
DA8D
331
DCFD
  5
DCFE
331
D498
  5
D4B3
331
D479
  5
D2FA
331
D423
  5
D427
331
D404
  5
D455
331
F2CB
  5
F2CB
331
F065
  5
F065
331
F2AC
  5
F2AC
331
E897
  5
E897
331
E878
  5
E878
331
E859
  5
E859
331
E83A
  5
E83A
331
E03D
  5
E03D
331
DCFE
  5
DD00
331
D499
  5
D4B4
331
D47A
  5
D2FB
331
D45B
  5
D43E
331
D424
  5
D42A
331
D405
  5
D456
331
F066
  5
F066
331
F2CC
  5
F2CC
331
E879
  5
E879
331
E85A
  5
E85A
331
E83B
  5
E83B
331
E03E
  5
E03E
331
DCFF
  5
DD02
331
D548
  5
D563
331
D49A
  5
D4B5
331
D45C
  5
D43F
331
D425
  5
D42B
331
E898
  5
E898
331
F067
  5
F067
331
F2CD
  5
F2CD
331
E87A
  5
E87A
331
E85B
  5
E85B
331
E83C
  5
E83C
331
E03F
  5
E03F
331
D568
  5
D583
331
D549
  5
D564
331
E8B8
  5
E8B8
331
D49B
  5
D4B6
331
D45D
  5
D440
331
D426
  5
D42C
331
D407
  5
D458
331
CFC9
  5
D0F7
331
E899
  5
E899
331
F068
  5
F068
331
F2CE
  5
F2CE
331
E87B
  5
E87B
331
E85C
  5
E85C
331
E83D
  5
E83D
331
E067
  5
E067
331
D588
  5
D5A6
331
D569
  5
D584
331
E8D8
  5
E8D8
331
D54A
  5
D565
331
E8B9
  5
E8B9
331
D533
  5
D54E
331
D49C
  5
D4B7
331
D45E
  5
D441
331
D427
  5
D42D
331
D408
  5
D459
331
E89A
  5
E89A
331
F069
  5
F069
331
E87C
  5
E87C
331
E83E
  5
E83E
331
E85D
  5
E85D
331
D5A8
  5
D5B5
331
D589
  5
D5A7
331
E8F8
  5
E8F8
331
D56A
  5
D585
331
E8D9
  5
E8D9
331
D54B
  5
D566
331
E8BA
  5
E8BA
331
D534
  5
D54F
331
D49D
  5
D4B8
331
D45F
  5
D442
331
D428
  5
D42F
331
D409
  5
D457
331
D1FA
  5
D30D
331
E89B
  5
E89B
331
F06A
  5
F06A
331
E87D
  5
E87D
331
E85E
  5
E85E
331
E83F
  5
E83F
331
D5C0
  5
D602
331
D5A9
  5
D5C0
331
D58A
  5
D5A8
331
E8F9
  5
E8F9
331
E910
  5
E910
331
D56B
  5
D586
331
E8DA
  5
E8DA
331
D54C
  5
D567
331
E8BB
  5
E8BB
331
D535
  5
D550
331
D49E
  5
D4B9
331
D460
  5
D443
331
D429
  5
D439
331
E89C
  5
E89C
331
F06B
  5
F06B
331
E87E
  5
E87E
331
E85F
  5
E85F
331
E930
  5
E930
331
D5AA
  5
D5C1
331
D58B
  5
D5A9
331
E8FA
  5
E8FA
331
D56C
  5
D587
331
E8DB
  5
E8DB
331
D54D
  5
D568
331
E8BC
  5
E8BC
331
D536
  5
D551
331
D461
  5
D444
331
D42A
  5
D43A
331
D40B
  5
D45A
331
D49F
  5
D4BA
331
E89D
  5
E89D
331
E911
  5
E911
331
F06C
  5
F06C
331
E87F
  5
E87F
331
E950
  5
E950
331
E931
  5
E931
331
D5AB
  5
D5C5
331
D58C
  5
D5AB
331
E8FB
  5
E8FB
331
D56D
  5
D588
331
E8DC
  5
E8DC
331
D54E
  5
D569
331
E8BD
  5
E8BD
331
D4A0
  5
D4BB
331
D462
  5
D445
331
D42B
  5
D43B
331
D40C
  5
D45B
331
CFCE
  5
D0F8
331
D537
  5
D552
331
E89E
  5
E89E
331
E912
  5
E912
331
F06D
  5
F06D
331
D728
  5
D731
331
D602
  5
D619
331
E951
  5
E951
331
D5C3
  5
D603
331
E932
  5
E932
331
D5AC
  5
D5D1
331
D58D
  5
D30E
331
E8FC
  5
E8FC
331
E913
  5
E913
331
D56E
  5
D589
331
E8DD
  5
E8DD
331
D54F
  5
D56A
331
E8BE
  5
E8BE
331
D538
  5
D553
331
D4A1
  5
D4BC
331
D463
  5
D446
331
D42C
  5
D43C
331
D40D
  5
D45C
331
E89F
  5
E89F
331
F06E
  5
F06E
331
D729
  5
D732
331
D603
  5
D61A
331
E952
  5
E952
331
E933
  5
E933
331
D5AD
  5
D5D3
331
D58E
  5
D385
331
E8FD
  5
E8FD
331
E914
  5
E914
331
D56F
  5
D58A
331
E8DE
  5
E8DE
331
D550
  5
D56B
331
E8BF
  5
E8BF
331
D539
  5
D554
331
D4A2
  5
D4BD
331
D464
  5
D447
331
D42D
  5
D43D
331
D40E
  5
D45D
331
E8A0
  5
E8A0
331
F06F
  5
F06F
331
D72A
  5
D733
331
D604
  5
D6BF
331
E953
  5
E953
331
E934
  5
E934
331
D5AE
  5
D5DD
331
D58F
  5
D386
331
E8FE
  5
E8FE
331
E915
  5
E915
331
D570
  5
D58B
331
E8DF
  5
E8DF
331
D551
  5
D56C
331
E8C0
  5
E8C0
331
D53A
  5
D555
331
D4A3
  5
D4BE
331
D465
  5
D448
331
D40F
  5
D45E
331
D0F1
  5
D1DE
331
E8A1
  5
E8A1
331
F070
  5
F070
331
D72B
  5
D73B
331
D605
  5
D6D2
331
E954
  5
E954
331
D5C6
  5
D604
331
E935
  5
E935
331
D590
  5
D41B
331
E8FF
  5
E8FF
331
E916
  5
E916
331
D571
  5
D58C
331
E8E0
  5
E8E0
331
D552
  5
D56D
331
E8C1
  5
E8C1
331
D53B
  5
D556
331
D4A4
  5
D4BF
331
D466
  5
D449
331
D42F
  5
D46A
331
D410
  5
D464
331
E8A2
  5
E8A2
331
E955
  5
E955
331
D72C
  5
D78B
331
E936
  5
E936
331
E900
  5
E900
331
E917
  5
E917
331
D606
  5
D6D3
331
E8E1
  5
E8E1
331
D591
  5
D388
331
E8C2
  5
E8C2
331
D572
  5
D58D
331
E8A3
  5
E8A3
331
D553
  5
D56E
331
D53C
  5
D557
331
D4A5
  5
D4C0
331
D486
  5
D4A1
331
D467
  5
D44A
331
D411
  5
D465
331
D342
  5
D41C
331
F053
  5
F053
331
E956
  5
E956
331
E937
  5
E937
331
E901
  5
E901
331
E918
  5
E918
331
D72D
  5
D79D
331
E8E2
  5
E8E2
331
D592
  5
D3B8
331
E8C3
  5
E8C3
331
D573
  5
D58E
331
E8A4
  5
E8A4
331
D554
  5
D56F
331
D53D
  5
D558
331
D4A6
  5
D4C1
331
D487
  5
D4A2
331
D468
  5
D44C
331
D412
  5
D466
331
D343
  5
D41D
331
D0F4
  5
D1F9
331
D431
  5
D46E
331
F054
  5
F054
331
EA5E
  5
EA5E
331
D72E
  5
D7AE
331
E957
  5
E957
331
E938
  5
E938
331
D6CF
  5
D6D8
331
E902
  5
E902
331
E919
  5
E919
331
D5D1
  5
D605
331
E8E3
  5
E8E3
331
D593
  5
D387
331
E8C4
  5
E8C4
331
D574
  5
D58F
331
E8A5
  5
E8A5
331
D555
  5
D570
331
D53E
  5
D559
331
D4A7
  5
D4C2
331
D469
  5
D44D
331
D432
  5
D46F
331
D413
  5
D467
331
D344
  5
D41E
331
D0F5
  5
D1FC
331
D488
  5
D4A3
331
B688
  5
B6C7
331
F055
  5
F055
331
EA5F
  5
EA5F
331
D72F
  5
D7B2
331
E958
  5
E958
331
D6D0
  5
D6D9
331
E939
  5
E939
331
D609
  5
D6D4
331
E903
  5
E903
331
E91A
  5
E91A
331
E8E4
  5
E8E4
331
D5D2
  5
D606
331
E8C5
  5
E8C5
331
D575
  5
D590
331
E8A6
  5
E8A6
331
D556
  5
D571
331
D4A8
  5
D4C3
331
D489
  5
D4A4
331
D46A
  5
D44E
331
D414
  5
D468
331
D345
  5
D41F
331
D0F6
  5
D1FD
331
D53F
  5
D55A
331
B6A8
  5
B6E2
331
B689
  5
B6CD
331
F056
  5
F056
331
EA60
  5
EA60
331
D730
  5
D7B4
331
E959
  5
E959
331
D6D1
  5
D6DA
331
E93A
  5
E93A
331
D60A
  5
D6D5
331
E904
  5
E904
331
E91B
  5
E91B
331
D5D3
  5
D60A
331
E8E5
  5
E8E5
331
D595
  5
D303
331
E8C6
  5
E8C6
331
E8A7
  5
E8A7
331
D557
  5
D572
331
D540
  5
D55B
331
D4A9
  5
D4C4
331
D48A
  5
D4A5
331
D415
  5
D469
331
D346
  5
D421
331
D576
  5
D591
331
B6C8
  5
B702
331
B6A9
  5
B6E3
331
B68A
  5
B6D3
331
F057
  5
F057
331
D731
  5
D7E4
331
E95A
  5
E95A
331
D6D2
  5
D6DB
331
E93B
  5
E93B
331
E91C
  5
E91C
331
D60B
  5
D6D6
331
E905
  5
E905
331
E8E6
  5
E8E6
331
E8C7
  5
E8C7
331
D577
  5
D592
331
E8A8
  5
E8A8
331
D558
  5
D573
331
D541
  5
D55C
331
D4AA
  5
D4C5
331
D48B
  5
D4A6
331
D5B5
  5
D5DE
331
B6E0
  5
B71C
331
B6C9
  5
B703
331
B6AA
  5
B6E4
331
B68B
  5
B6D4
331
EF3C
  5
EF3C
331
D732
  5
D7F6
331
E95B
  5
E95B
331
D6D3
  5
D6DC
331
E93C
  5
E93C
331
E91D
  5
E91D
331
E906
  5
E906
331
D5B6
  5
D5E4
331
E8E7
  5
E8E7
331
D597
  5
D305
331
E8C8
  5
E8C8
331
D578
  5
D593
331
E8A9
  5
E8A9
331
D559
  5
D574
331
D542
  5
D55D
331
D4AB
  5
D4C6
331
D48C
  5
D4A7
331
D189
  5
D2ED
331
D60C
  5
B83D
331
B700
  5
B73C
331
B6E1
  5
B71D
331
B6CA
  5
B705
331
B6AB
  5
B6E5
331
EF64
  5
EF64
331
EF3D
  5
EF3D
331
E95C
  5
E95C
331
D6D4
  5
D6DD
331
E93D
  5
E93D
331
E91E
  5
E91E
331
D60D
  5
B91F
331
E907
  5
E907
331
D5B7
  5
D5E6
331
E8E8
  5
E8E8
331
D598
  5
D308
331
E8C9
  5
E8C9
331
D579
  5
D594
331
E8AA
  5
E8AA
331
D55A
  5
D575
331
D543
  5
D55E
331
D4AC
  5
D4C7
331
D48D
  5
D4A8
331
D18A
  5
D2EE
331
D733
  5
D7F7
331
B720
  5
B75C
331
B701
  5
B73D
331
B6E2
  5
B71E
331
B6CB
  5
B706
331
B6AC
  5
B6E6
331
EF65
  5
EF65
331
EF3E
  5
EF3E
331
E95D
  5
E95D
331
E93E
  5
E93E
331
E908
  5
E908
331
E91F
  5
E91F
331
D6D5
  5
D6DE
331
E8E9
  5
E8E9
331
D599
  5
D307
331
E8CA
  5
E8CA
331
D57A
  5
D595
331
E8AB
  5
E8AB
331
D55B
  5
D576
331
D544
  5
D55F
331
D4AD
  5
D4C8
331
D48E
  5
D4A9
331
D18B
  5
D2EF
331
D3F2
  5
D44F
331
B740
  5
B77C
331
B721
  5
B75D
331
B702
  5
B73E
331
B6E3
  5
B71F
331
B6CC
  5
B708
331
B6AD
  5
B6E7
331
EF66
  5
EF66
331
EF3F
  5
EF3F
331
E95E
  5
E95E
331
E93F
  5
E93F
331
E909
  5
E909
331
E920
  5
E920
331
D6D6
  5
D6DF
331
E8EA
  5
E8EA
331
D59A
  5
D306
331
E8CB
  5
E8CB
331
D57B
  5
D596
331
E8AC
  5
E8AC
331
D55C
  5
D577
331
D545
  5
D560
331
D4AE
  5
D4C9
331
D3F3
  5
D450
331
D18C
  5
D2F2
331
D48F
  5
D4AA
331
B758
  5
B794
331
B741
  5
B77D
331
B722
  5
B75E
331
B703
  5
B73F
331
B6E4
  5
B720
331
B6CD
  5
B709
331
B6AE
  5
B6E8
331
EF67
  5
EF67
331
EF40
  5
EF40
331
E95F
  5
E95F
331
E940
  5
E940
331
E90A
  5
E90A
331
E8EB
  5
E8EB
331
E921
  5
E921
331
D6D7
  5
D6E0
331
E8CC
  5
E8CC
331
D57C
  5
D597
331
E8AD
  5
E8AD
331
D55D
  5
D578
331
D546
  5
D561
331
D4AF
  5
D4CA
331
D471
  5
D1DF
331
D3F4
  5
D451
331
D18D
  5
D2F3
331
D490
  5
D4AB
331
EF9E
  5
EF9E
331
B778
  5
B828
331
B759
  5
B809
331
B742
  5
B77E
331
B723
  5
B75F
331
B704
  5
B740
331
B6E5
  5
B721
331
B6CE
  5
B70A
331
B6AF
  5
B6E9
331
EF68
  5
EF68
331
EF41
  5
EF41
331
E90B
  5
E90B
331
E922
  5
E922
331
E8EC
  5
E8EC
331
E941
  5
E941
331
E8CD
  5
E8CD
331
D57D
  5
D598
331
E8AE
  5
E8AE
331
D55E
  5
D579
331
D4B0
  5
D4CB
331
D491
  5
D4AC
331
D472
  5
D1FA
331
D3F5
  5
D452
331
D18E
  5
D2F4
331
D547
  5
D562
331
EF9F
  5
EF9F
331
B779
  5
B829
331
B75A
  5
B80A
331
B743
  5
B77F
331
B724
  5
B760
331
B705
  5
B741
331
B6E6
  5
B722
331
B6B0
  5
B6EA
331
B691
  5
B6D5
331
B6CF
  5
B70B
331
EF69
  5
EF69
331
E942
  5
E942
331
E90C
  5
E90C
331
E923
  5
E923
331
E8ED
  5
E8ED
331
EF42
  5
EF42
331
E8CE
  5
E8CE
331
E8AF
  5
E8AF
331
D55F
  5
D57A
331
D4B1
  5
D4CC
331
D492
  5
D4AD
331
D473
  5
D2F8
331
D41D
  5
D422
331
D3F6
  5
D453
331
D18F
  5
D2F5
331
D57E
  5
D599
331
EFA0
  5
EFA0
331
B77A
  5
B82A
331
B75B
  5
B80B
331
B744
  5
B780
331
B725
  5
B761
331
B6E7
  5
B723
331
B6D0
  5
B70C
331
B6B1
  5
B6EB
331
B706
  5
B742
331
EF6A
  5
EF6A
331
EF43
  5
EF43
331
E943
  5
E943
331
E924
  5
E924
331
D62B
  5
D6D7
331
E90D
  5
E90D
331
E8EE
  5
E8EE
331
D59E
  5
D5AC
331
E8CF
  5
E8CF
331
D57F
  5
D59A
331
E8B0
  5
E8B0
331
D560
  5
D57B
331
D4B2
  5
D4CD
331
D493
  5
D4AE
331
D474
  5
D1FE
331
D41E
  5
D423
331
D3F7
  5
D454
331
D5BD
  5
D5E7
331
EFA1
  5
EFA1
331
B77B
  5
B82B
331
B75C
  5
B80C
331
B726
  5
B765
331
B707
  5
B743
331
B6E8
  5
B724
331
B6D1
  5
B70D
331
B6B2
  5
B6EC
331
B745
  5
B781
331
1B8B
  5
1B8B
331
EF6B
  5
EF6B
331
EF44
  5
EF44
331
E944
  5
E944
331
E90E
  5
E90E
331
E925
  5
E925
331
D5DD
  5
D60B
331
E8EF
  5
E8EF
331
D59F
  5
D5AD
331
E8D0
  5
E8D0
331
D580
  5
D59C
331
E8B1
  5
E8B1
331
D561
  5
D57C
331
D494
  5
D4AF
331
D475
  5
D301
331
D41F
  5
D424
331
D6DB
  5
D6E5
331
EFA2
  5
EFA2
331
B75D
  5
B80D
331
B746
  5
B782
331
B727
  5
B767
331
B708
  5
B744
331
B6E9
  5
B725
331
B6D2
  5
B70E
331
B6B3
  5
B6ED
331
B77C
  5
B82C
331
EF6C
  5
EF6C
331
EF45
  5
EF45
331
E945
  5
E945
331
D6DC
  5
D6E8
331
E926
  5
E926
331
D5DE
  5
D60C
331
D773
  5
D7F8
331
EFA3
  5
EFA3
331
E8F0
  5
E8F0
331
D5A0
  5
D5AE
331
E8D1
  5
E8D1
331
D581
  5
D59D
331
E8B2
  5
E8B2
331
D562
  5
D57D
331
D495
  5
D4B0
331
E90F
  5
E90F
331
B77D
  5
B82D
331
B75E
  5
B80E
331
B747
  5
B783
331
B728
  5
B768
331
B709
  5
B745
331
B6EA
  5
B726
331
B6D3
  5
B70F
331
B6B4
  5
B6EE
331
CFA3
  5
CFD1
331
EF6D
  5
EF6D
331
EF46
  5
EF46
331
E946
  5
E946
331
E927
  5
E927
331
E8F1
  5
E8F1
331
D5A1
  5
D5AF
331
E8D2
  5
E8D2
331
D582
  5
D59E
331
E8B3
  5
E8B3
331
D563
  5
D57E
331
D496
  5
D4B1
331
EFA4
  5
EFA4
331
B77E
  5
B82E
331
B75F
  5
B80F
331
B748
  5
B784
331
B70A
  5
B746
331
B6EB
  5
B727
331
B6D4
  5
B710
331
B6B5
  5
B6EF
331
649A
  5
6C46
  0
SORTENTSTABLE
  5
F2BA
102
{ACAD_REACTORS
330
F2B9
102
}
330
F2B9
100
AcDbSortentsTable
330
F2B4
  0
SORTENTSTABLE
  5
F2C6
102
{ACAD_REACTORS
330
F2C5
102
}
330
F2C5
100
AcDbSortentsTable
330
F2C0
  0
XRECORD
  5
F325
102
{ACAD_REACTORS
330
F324
102
}
330
F324
100
AcDbXrecord
280
     1
102
SHADEPLOT
 70
     0
  0
XRECORD
  5
F323
102
{ACAD_REACTORS
330
F322
102
}
330
F322
100
AcDbXrecord
280
     1
 70
     1
  0
LAYOUT
  5
607B
102
{ACAD_XDICTIONARY
360
F328
102
}
102
{ACAD_REACTORS
330
6078
102
}
330
6078
100
AcDbPlotSettings
  1

  2
HP LaserJet 4V/4MV PostScript
  4

  6

 40
0.0
 41
0.0
 42
0.0
 43
0.0
 44
0.0
 45
0.0
 46
0.0
 47
0.0
 48
0.0
 49
0.0
140
0.0
141
0.0
142
1.0
143
1.0
 70
   688
 72
     0
 73
     0
 74
     5
  7
monochrome.ctb
 75
    16
147
1.0
148
0.0
149
0.0
100
AcDbLayout
  1
Layout1
 70
     1
 71
     1
 10
0.0
 20
0.0
 11
12.0
 21
9.0
 12
0.0
 22
0.0
 32
0.0
 14
1.000000000000000E+20
 24
1.000000000000000E+20
 34
1.000000000000000E+20
 15
-1.000000000000000E+20
 25
-1.000000000000000E+20
 35
-1.000000000000000E+20
146
0.0
 13
0.0
 23
0.0
 33
0.0
 16
1.0
 26
0.0
 36
0.0
 17
0.0
 27
1.0
 37
0.0
 76
     0
330
17
331
1E9B
  0
LAYOUT
  5
607A
102
{ACAD_XDICTIONARY
360
F326
102
}
102
{ACAD_REACTORS
330
6078
102
}
330
6078
100
AcDbPlotSettings
  1

  2
Acrobat Distiller
  4
Tabloid
  6

 40
3.174999952316283
 41
3.174999952316283
 42
3.17498779296875
 43
3.17498779296875
 44
279.3999938964844
 45
431.7999877929686
 46
0.0
 47
0.0
 48
0.0
 49
0.0
140
0.0
141
0.0
142
1.0
143
1.0
 70
 11952
 72
     0
 73
     1
 74
     2
  7
monochrome.ctb
 75
    16
147
1.0
148
0.0
149
0.0
100
AcDbLayout
  1
Model
 70
     1
 71
     0
 10
0.0
 20
0.0
 11
12.0
 21
9.0
 12
0.0
 22
0.0
 32
0.0
 14
0.0
 24
0.0
 34
0.0
 15
0.0
 25
0.0
 35
0.0
146
0.0
 13
0.0
 23
0.0
 33
0.0
 16
1.0
 26
0.0
 36
0.0
 17
0.0
 27
1.0
 37
0.0
 76
     0
330
1A
331
EA7F
1001
ACAD_PSEXT
1000
Acrobat Distiller
1000
AdobePS Acrobat Distiller
1000
C:\Program Files\Adobe\Acrobat 4.0\PDF Output\*.pdf
1000

1070
     0
  0
MATERIAL
  5
EA8D
102
{ACAD_XDICTIONARY
360
F078
102
}
102
{ACAD_REACTORS
330
61A0
102
}
330
61A0
100
AcDbMaterial
  1
ByBlock
  0
MATERIAL
  5
EA8C
102
{ACAD_XDICTIONARY
360
F076
102
}
102
{ACAD_REACTORS
330
61A0
102
}
330
61A0
100
AcDbMaterial
  1
ByLayer
  0
MATERIAL
  5
D90C
102
{ACAD_XDICTIONARY
360
F074
102
}
102
{ACAD_REACTORS
330
61A0
102
}
330
61A0
100
AcDbMaterial
  1
Global
  0
MLINESTYLE
  5
13
102
{ACAD_REACTORS
330
E
102
}
330
E
100
AcDbMlineStyle
  2
STANDARD
 70
     0
  3

 62
     0
 51
90.0
 52
90.0
 71
     2
 49
0.5
 62
   256
  6
BYLAYER
 49
-0.5
 62
   256
  6
BYLAYER
  0
PLOTSETTINGS
  5
615D
102
{ACAD_XDICTIONARY
360
F32A
102
}
102
{ACAD_REACTORS
330
6079
102
}
330
6079
100
AcDbPlotSettings
  1
laser
  2
HP LaserJet 4V/4MV PostScript
  4
Tabloid
  6

 40
5.365749835968016
 41
5.408084392547606
 42
5.4080810546875
 43
5.365753173828125
 44
431.7999877929686
 45
279.3999938964844
 46
0.0
 47
0.0
 48
0.0
 49
0.0
140
0.0
141
0.0
142
1.0
143
1.0
 70
  1712
 72
     0
 73
     0
 74
     2
  7
monochrome.ctb
 75
    16
147
1.0
148
0.0
149
0.0
  0
PLOTSETTINGS
  5
619D
102
{ACAD_XDICTIONARY
360
F32C
102
}
102
{ACAD_REACTORS
330
6079
102
}
330
6079
100
AcDbPlotSettings
  1
pdf
  2
Acrobat PDFWriter
  4
Tabloid
  6

 40
7.143749713897705
 41
7.143756389617919
 42
7.143768310546875
 43
7.14373779296875
 44
431.7999877929686
 45
279.3999938964844
 46
0.0
 47
0.0
 48
0.0
 49
0.0
140
0.0
141
0.0
142
1.0
143
1.0
 70
  1712
 72
     0
 73
     0
 74
     2
  7
monochrome.ctb
 75
    16
147
1.0
148
0.0
149
0.0
  0
ACDBPLACEHOLDER
  5
6077
102
{ACAD_REACTORS
330
6076
102
}
330
6076
  0
TABLESTYLE
  5
61A3
102
{ACAD_XDICTIONARY
360
F32E
102
}
102
{ACAD_REACTORS
330
61A2
102
}
330
61A2
100
AcDbTableStyle
  3
Standard
 70
     0
 71
     0
 40
0.06
 41
0.06
280
     0
281
     0
  7
STANDARD
140
0.18
170
     2
 62
     0
 63
     7
283
     0
274
    -2
284
     1
 64
     0
275
    -2
285
     1
 65
     0
276
    -2
286
     1
 66
     0
277
    -2
287
     1
 67
     0
278
    -2
288
     1
 68
     0
279
    -2
289
     1
 69
     0
  7
STANDARD
140
0.25
170
     5
 62
     0
 63
     7
283
     0
274
    -2
284
     1
 64
     0
275
    -2
285
     1
 65
     0
276
    -2
286
     1
 66
     0
277
    -2
287
     1
 67
     0
278
    -2
288
     1
 68
     0
279
    -2
289
     1
 69
     0
  7
STANDARD
140
0.18
170
     5
 62
     0
 63
     7
283
     0
274
    -2
284
     1
 64
     0
275
    -2
285
     1
 65
     0
276
    -2
286
     1
 66
     0
277
    -2
287
     1
 67
     0
278
    -2
288
     1
 68
     0
279
    -2
289
     1
 69
     0
  0
VISUALSTYLE
  5
EA94
102
{ACAD_REACTORS
330
EA8E
102
}
330
EA8E
100
AcDbVisualStyle
  2
2dWireframe
 70
     4
 71
     0
 72
     2
 73
     0
 90
        0
 40
-0.6
 41
-30.0
 62
     5
 63
     7
 74
     1
 91
        4
 64
     7
 65
   257
 75
     1
175
     1
 42
1.0
 92
        0
 66
   257
 43
1.0
 76
     1
 77
     6
 78
     2
 67
     7
 79
     5
170
     0
171
     0
290
     0
174
     0
 93
        1
 44
0.0
173
     0
291
     0
 45
0.0
1001
ACAD
1000
AcDbSavedByObjectVersion
1070
     0
  0
VISUALSTYLE
  5
EA96
102
{ACAD_REACTORS
330
EA8E
102
}
330
EA8E
100
AcDbVisualStyle
  2
3D Hidden
 70
     6
 71
     1
 72
     2
 73
     2
 90
        0
 40
-0.6
 41
-30.0
 62
     5
 63
     7
 74
     2
 91
        2
 64
     7
 65
   257
 75
     2
175
     1
 42
40.0
 92
        0
 66
   257
 43
1.0
 76
     1
 77
     6
 78
     2
 67
     7
 79
     3
170
     0
171
     0
290
     0
174
     0
 93
        1
 44
0.0
173
     0
291
     0
 45
0.0
1001
ACAD
1000
AcDbSavedByObjectVersion
1070
     0
  0
VISUALSTYLE
  5
EA95
102
{ACAD_REACTORS
330
EA8E
102
}
330
EA8E
100
AcDbVisualStyle
  2
3dWireframe
 70
     5
 71
     0
 72
     2
 73
     0
 90
        0
 40
-0.6
 41
-30.0
 62
     5
 63
     7
 74
     1
 91
        4
 64
     7
 65
   257
 75
     1
175
     1
 42
1.0
 92
        0
 66
   257
 43
1.0
 76
     1
 77
     6
 78
     2
 67
     7
 79
     5
170
     0
171
     0
290
     0
174
     0
 93
        1
 44
0.0
173
     0
291
     0
 45
0.0
1001
ACAD
1000
AcDbSavedByObjectVersion
1070
     0
  0
VISUALSTYLE
  5
EA93
102
{ACAD_REACTORS
330
EA8E
102
}
330
EA8E
100
AcDbVisualStyle
  2
Basic
 70
     7
 71
     1
 72
     0
 73
     1
 90
        0
 40
-0.6
 41
-30.0
 62
     5
 63
     7
 74
     0
 91
        4
 64
     7
 65
   257
 75
     1
175
     1
 42
1.0
 92
        8
 66
     7
 43
1.0
 76
     1
 77
     6
 78
     2
 67
     7
 79
     5
170
     0
171
     0
290
     0
174
     0
 93
        1
 44
0.0
173
     0
291
     1
 45
0.0
1001
ACAD
1000
AcDbSavedByObjectVersion
1070
     0
  0
VISUALSTYLE
  5
EA9A
102
{ACAD_REACTORS
330
EA8E
102
}
330
EA8E
100
AcDbVisualStyle
  2
Brighten
 70
    12
 71
     2
 72
     2
 73
     0
 90
        0
 40
-0.6
 41
-30.0
 62
     5
 63
     7
 74
     1
 91
        4
 64
     7
 65
   257
 75
     1
175
     1
 42
1.0
 92
        8
 66
     7
 43
1.0
 76
     1
 77
     6
 78
     2
 67
     7
 79
     5
170
     0
171
     0
290
     0
174
     0
 93
        1
 44
50.0
173
     0
291
     1
 45
0.0
1001
ACAD
1000
AcDbSavedByObjectVersion
1070
     0
  0
VISUALSTYLE
  5
EA9E
102
{ACAD_REACTORS
330
EA8E
102
}
330
EA8E
100
AcDbVisualStyle
  2
ColorChange
 70
    16
 71
     2
 72
     2
 73
     3
 90
        0
 40
-0.6
 41
-30.0
 62
     5
 63
     8
 74
     1
 91
        4
 64
     7
 65
   257
 75
     1
175
     1
 42
1.0
 92
        8
 66
     8
 43
1.0
 76
     1
 77
     6
 78
     2
 67
     7
 79
     5
170
     0
171
     0
290
     0
174
     0
 93
        1
 44
0.0
173
     0
291
     1
 45
0.0
1001
ACAD
1000
AcDbSavedByObjectVersion
1070
     0
  0
VISUALSTYLE
  5
EA97
102
{ACAD_REACTORS
330
EA8E
102
}
330
EA8E
100
AcDbVisualStyle
  2
Conceptual
 70
     9
 71
     3
 72
     2
 73
     0
 90
        0
 40
-0.6
 41
-30.0
 62
     5
 63
     7
 74
     2
 91
        2
 64
     7
 65
   257
 75
     1
175
     1
 42
40.0
 92
        8
 66
     7
 43
1.0
 76
     1
 77
     6
 78
     2
 67
     7
 79
     3
170
     0
171
     0
290
     0
174
     0
 93
        1
 44
0.0
173
     0
291
     0
 45
0.0
1001
ACAD
1000
AcDbSavedByObjectVersion
1070
     0
  0
VISUALSTYLE
  5
EA99
102
{ACAD_REACTORS
330
EA8E
102
}
330
EA8E
100
AcDbVisualStyle
  2
Dim
 70
    11
 71
     2
 72
     2
 73
     0
 90
        0
 40
-0.6
 41
-30.0
 62
     5
 63
     7
 74
     1
 91
        4
 64
     7
 65
   257
 75
     1
175
     1
 42
1.0
 92
        8
 66
     7
 43
1.0
 76
     1
 77
     6
 78
     2
 67
     7
 79
     5
170
     0
171
     0
290
     0
174
     0
 93
        1
 44
-50.0
173
     0
291
     1
 45
0.0
1001
ACAD
1000
AcDbSavedByObjectVersion
1070
     0
  0
VISUALSTYLE
  5
EA9D
102
{ACAD_REACTORS
330
EA8E
102
}
330
EA8E
100
AcDbVisualStyle
  2
Facepattern
 70
    15
 71
     2
 72
     2
 73
     0
 90
        0
 40
-0.6
 41
-30.0
 62
     5
 63
     7
 74
     1
 91
        4
 64
     7
 65
   257
 75
     1
175
     1
 42
1.0
 92
        8
 66
     7
 43
1.0
 76
     1
 77
     6
 78
     2
 67
     7
 79
     5
170
     0
171
     0
290
     0
174
     0
 93
        1
 44
0.0
173
     0
291
     1
 45
0.0
1001
ACAD
1000
AcDbSavedByObjectVersion
1070
     0
  0
VISUALSTYLE
  5
EA8F
102
{ACAD_REACTORS
330
EA8E
102
}
330
EA8E
100
AcDbVisualStyle
  2
Flat
 70
     0
 71
     2
 72
     1
 73
     1
 90
        2
 40
-0.6
 41
30.0
 62
     5
 63
     7
 74
     0
 91
        4
 64
     7
 65
   257
 75
     1
175
     1
 42
1.0
 92
        8
 66
     7
 43
1.0
 76
     1
 77
     6
 78
     2
 67
     7
 79
     5
170
     0
171
     0
290
     0
174
     0
 93
       13
 44
0.0
173
     0
291
     1
 45
0.0
1001
ACAD
1000
AcDbSavedByObjectVersion
1070
     0
  0
VISUALSTYLE
  5
EA90
102
{ACAD_REACTORS
330
EA8E
102
}
330
EA8E
100
AcDbVisualStyle
  2
FlatWithEdges
 70
     1
 71
     2
 72
     1
 73
     1
 90
        2
 40
-0.6
 41
30.0
 62
     5
 63
     7
 74
     1
 91
        4
 64
     7
 65
   257
 75
     1
175
     1
 42
1.0
 92
        0
 66
   257
 43
1.0
 76
     1
 77
     6
 78
     2
 67
     7
 79
     5
170
     0
171
     0
290
     0
174
     0
 93
       13
 44
0.0
173
     0
291
     1
 45
0.0
1001
ACAD
1000
AcDbSavedByObjectVersion
1070
     0
  0
VISUALSTYLE
  5
EA91
102
{ACAD_REACTORS
330
EA8E
102
}
330
EA8E
100
AcDbVisualStyle
  2
Gouraud
 70
     2
 71
     2
 72
     2
 73
     1
 90
        2
 40
-0.6
 41
30.0
 62
     5
 63
     7
 74
     0
 91
        4
 64
     7
 65
   257
 75
     1
175
     1
 42
1.0
 92
        0
 66
     7
 43
1.0
 76
     1
 77
     6
 78
     2
 67
     7
 79
     5
170
     0
171
     0
290
     0
174
     0
 93
       13
 44
0.0
173
     0
291
     1
 45
0.0
1001
ACAD
1000
AcDbSavedByObjectVersion
1070
     0
  0
VISUALSTYLE
  5
EA92
102
{ACAD_REACTORS
330
EA8E
102
}
330
EA8E
100
AcDbVisualStyle
  2
GouraudWithEdges
 70
     3
 71
     2
 72
     2
 73
     1
 90
        2
 40
-0.6
 41
30.0
 62
     5
 63
     7
 74
     1
 91
        4
 64
     7
 65
   257
 75
     1
175
     1
 42
1.0
 92
        0
 66
   257
 43
1.0
 76
     1
 77
     6
 78
     2
 67
     7
 79
     5
170
     0
171
     0
290
     0
174
     0
 93
       13
 44
0.0
173
     0
291
     1
 45
0.0
1001
ACAD
1000
AcDbSavedByObjectVersion
1070
     0
  0
VISUALSTYLE
  5
EA9C
102
{ACAD_REACTORS
330
EA8E
102
}
330
EA8E
100
AcDbVisualStyle
  2
Linepattern
 70
    14
 71
     2
 72
     2
 73
     0
 90
        0
 40
-0.6
 41
-30.0
 62
     5
 63
     7
 74
     1
 91
        4
 64
     7
 65
   257
 75
     7
175
     7
 42
1.0
 92
        8
 66
     7
 43
1.0
 76
     1
 77
     6
 78
     2
 67
     7
 79
     5
170
     0
171
     0
290
     0
174
     0
 93
        1
 44
0.0
173
     0
291
     1
 45
0.0
1001
ACAD
1000
AcDbSavedByObjectVersion
1070
     0
  0
VISUALSTYLE
  5
EA98
102
{ACAD_REACTORS
330
EA8E
102
}
330
EA8E
100
AcDbVisualStyle
  2
Realistic
 70
     8
 71
     2
 72
     2
 73
     0
 90
        0
 40
-0.6
 41
-30.0
 62
     5
 63
     7
 74
     1
 91
        0
 64
     7
 65
   257
 75
     1
175
     1
 42
1.0
 92
        8
 66
     8
 43
1.0
 76
     1
 77
     6
 78
     2
 67
     7
 79
     5
170
     0
171
     0
290
     0
174
     0
 93
       13
 44
0.0
173
     0
291
     0
 45
0.0
1001
ACAD
1000
AcDbSavedByObjectVersion
1070
     0
  0
VISUALSTYLE
  5
EA9B
102
{ACAD_REACTORS
330
EA8E
102
}
330
EA8E
100
AcDbVisualStyle
  2
Thicken
 70
    13
 71
     2
 72
     2
 73
     0
 90
        0
 40
-0.6
 41
-30.0
 62
     5
 63
     7
 74
     1
 91
        4
 64
     7
 65
   257
 75
     1
175
     1
 42
1.0
 92
       12
 66
     7
 43
1.0
 76
     1
 77
     6
 78
     2
 67
     7
 79
     5
170
     0
171
     0
290
     0
174
     0
 93
        1
 44
0.0
173
     0
291
     1
 45
0.0
1001
ACAD
1000
AcDbSavedByObjectVersion
1070
     0
  0
DICTIONARYVAR
  5
61B0
102
{ACAD_REACTORS
330
61AF
102
}
330
61AF
100
DictionaryVariables
280
     0
  1
STANDARD
  0
DICTIONARYVAR
  5
61DA
102
{ACAD_REACTORS
330
61AF
102
}
330
61AF
100
DictionaryVariables
280
     0
  1
1
  0
DICTIONARYVAR
  5
F320
102
{ACAD_REACTORS
330
61AF
102
}
330
61AF
100
DictionaryVariables
280
     0
  1
1
  0
DICTIONARYVAR
  5
61DB
102
{ACAD_REACTORS
330
61AF
102
}
330
61AF
100
DictionaryVariables
280
     0
  1

  0
DICTIONARYVAR
  5
F31F
102
{ACAD_REACTORS
330
61AF
102
}
330
61AF
100
DictionaryVariables
280
     0
  1
127
  0
DICTIONARY
  5
EB76
102
{ACAD_REACTORS
330
EB66
102
}
330
EB66
100
AcDbDictionary
281
     1
  0
XRECORD
  5
EB96
102
{ACAD_REACTORS
330
EB66
102
}
330
EB66
100
AcDbXrecord
280
     1
 90
-1023410169
  0
DICTIONARY
  5
EAA6
102
{ACAD_REACTORS
330
EAA5
102
}
330
EAA5
100
AcDbDictionary
281
     1
  3
DWGSETTINGS
350
F169
  3
TRANSSETTINGS
350
F16A
  0
ACAMGFILTERDAT
  5
EBBB
102
{ACAD_REACTORS
330
EBB6
102
}
330
EBB6
100
AcAmgFilterDat
 70
    15
  1
DIMENSION,AMDT_*_DIM
  2
*
  3
*
  4
*
  5
*
290
     1
  0
ACAMGFILTERDAT
  5
EBBA
102
{ACAD_REACTORS
330
EBB6
102
}
330
EBB6
100
AcAmgFilterDat
 70
    15
  1
*
  2
AM_FEA-AM_*
  3
*
  4
*
  5
*
290
     1
  0
ACAMGFILTERDAT
  5
EBB7
102
{ACAD_REACTORS
330
EBB6
102
}
330
EBB6
100
AcAmgFilterDat
 70
    15
  1
HATCH
  2
*
  3
*
  4
*
  5
*
290
     1
  0
ACAMGFILTERDAT
  5
EBB8
102
{ACAD_REACTORS
330
EBB6
102
}
330
EBB6
100
AcAmgFilterDat
 70
    15
  1
LINE
  2
8,8N,*-8,*-8N,AM_8,AM_8N,*-AM_8,*-AM_8N
  3
*
  4
*
  5
INSERT,STDPART2D
290
     1
  0
ACAMGFILTERDAT
  5
EBBC
102
{ACAD_REACTORS
330
EBB6
102
}
330
EBB6
100
AcAmgFilterDat
 70
    15
  1
ARC
  2
AM_5
  3
*
  4
2
  5
INSERT
290
     0
  0
ACAMGFILTERDAT
  5
EBB9
102
{ACAD_REACTORS
330
EBB6
102
}
330
EBB6
100
AcAmgFilterDat
 70
    15
  1
ACMFCFRAME,ACMDATUMTARGET,ACMDATUMID,ACMWELDSYM,ACMSURFSYM,ACMFEATID,ACMPARTREF,ACMBALLOON,AMDTEDGESYM,AMGSCREWCALCTABLE
  2
*
  3
*
  4
*
  5
*
290
     1
  0
XRECORD
  5
D641
102
{ACAD_REACTORS
330
D640
102
}
330
D640
100
AcDbXrecord
280
     1
330
1B8B
330
0
330
0
330
0
330
0
330
0
330
0
330
B8E6
330
B8E7
330
D5D3
330
D609
330
0
  0
LAYER_INDEX
  5
F2F9
102
{ACAD_REACTORS
330
F2F8
102
}
330
F2F8
100
AcDbIndex
 40
2454784.463806794
100
AcDbLayerIndex
  8
0
360
F2FA
 90
       35
  8
TERMINALS
360
F2FB
 90
      857
  8
DIMENSIONS
360
F2FC
 90
        1
  8
DEFPOINTS
360
F2FD
 90
        0
  8
PART
360
F2FE
 90
      275
  8
NOTES
360
F2FF
 90
        6
  0
DICTIONARY
  5
F328
330
607B
100
AcDbDictionary
280
     1
281
     1
  3
ACAD_XREC_ROUNDTRIP
360
F329
  0
DICTIONARY
  5
F326
330
607A
100
AcDbDictionary
280
     1
281
     1
  3
ACAD_XREC_ROUNDTRIP
360
F327
  0
DICTIONARY
  5
F078
330
EA8D
100
AcDbDictionary
280
     1
281
     1
  3
ACAD_XREC_ROUNDTRIP
360
F079
  0
DICTIONARY
  5
F076
330
EA8C
100
AcDbDictionary
280
     1
281
     1
  3
ACAD_XREC_ROUNDTRIP
360
F077
  0
DICTIONARY
  5
F074
330
D90C
100
AcDbDictionary
280
     1
281
     1
  3
ACAD_XREC_ROUNDTRIP
360
F075
  0
DICTIONARY
  5
F32A
330
615D
100
AcDbDictionary
280
     1
281
     1
  3
ACAD_XREC_ROUNDTRIP
360
F32B
  0
DICTIONARY
  5
F32C
330
619D
100
AcDbDictionary
280
     1
281
     1
  3
ACAD_XREC_ROUNDTRIP
360
F32D
  0
DICTIONARY
  5
F32E
330
61A3
100
AcDbDictionary
280
     1
281
     1
  3
ACAD_XREC_ROUNDTRIP
360
F32F
  0
IDBUFFER
  5
F2FA
330
0
100
AcDbIdBuffer
330
1B8B
330
F053
330
F054
330
F055
330
F056
330
F057
330
F058
330
F059
330
F05A
330
F05B
330
F05C
330
F05D
330
F05E
330
F05F
330
F060
330
F061
330
F062
330
F063
330
F064
330
F065
330
F066
330
F067
330
F068
330
F069
330
F06A
330
F06B
330
F06C
330
F06D
330
F06E
330
F06F
330
F070
330
F2CB
330
F2CC
330
F2CD
330
F2CE
  0
IDBUFFER
  5
F2FB
330
0
100
AcDbIdBuffer
330
B81F
330
B820
330
B824
330
B8E6
330
B8E7
330
CF9E
330
CFA3
330
CFA8
330
CFAD
330
CFB2
330
CFB7
330
CFBC
330
CFC9
330
CFCE
330
D0F1
330
D0F4
330
D0F5
330
D0F6
330
D189
330
D18A
330
D18B
330
D18C
330
D18D
330
D18E
330
D18F
330
D190
330
D1FA
330
D342
330
D343
330
D344
330
D345
330
D346
330
D3F2
330
D3F3
330
D3F4
330
D3F5
330
D3F6
330
D3F7
330
D404
330
D405
330
D407
330
D408
330
D409
330
D40B
330
D40C
330
D40D
330
D40E
330
D40F
330
D410
330
D411
330
D412
330
D413
330
D414
330
D415
330
D41D
330
D41E
330
D41F
330
D420
330
D421
330
D423
330
D424
330
D425
330
D426
330
D427
330
D428
330
D429
330
D42A
330
D42B
330
D42C
330
D42D
330
D42F
330
D431
330
D432
330
D45B
330
D45C
330
D45D
330
D45E
330
D45F
330
D460
330
D461
330
D462
330
D463
330
D464
330
D465
330
D466
330
D467
330
D468
330
D469
330
D46A
330
D471
330
D472
330
D473
330
D474
330
D475
330
D478
330
D479
330
D47A
330
D486
330
D487
330
D488
330
D489
330
D48A
330
D48B
330
D48C
330
D48D
330
D48E
330
D48F
330
D490
330
D491
330
D492
330
D493
330
D494
330
D495
330
D496
330
D497
330
D498
330
D499
330
D49A
330
D49B
330
D49C
330
D49D
330
D49E
330
D49F
330
D4A0
330
D4A1
330
D4A2
330
D4A3
330
D4A4
330
D4A5
330
D4A6
330
D4A7
330
D4A8
330
D4A9
330
D4AA
330
D4AB
330
D4AC
330
D4AD
330
D4AE
330
D4AF
330
D4B0
330
D4B1
330
D4B2
330
D533
330
D534
330
D535
330
D536
330
D537
330
D538
330
D539
330
D53A
330
D53B
330
D53C
330
D53D
330
D53E
330
D53F
330
D540
330
D541
330
D542
330
D543
330
D544
330
D545
330
D546
330
D547
330
D548
330
D549
330
D54A
330
D54B
330
D54C
330
D54D
330
D54E
330
D54F
330
D550
330
D551
330
D552
330
D553
330
D554
330
D555
330
D556
330
D557
330
D558
330
D559
330
D55A
330
D55B
330
D55C
330
D55D
330
D55E
330
D55F
330
D560
330
D561
330
D562
330
D563
330
D564
330
D565
330
D566
330
D567
330
D568
330
D569
330
D56A
330
D56B
330
D56C
330
D56D
330
D56E
330
D56F
330
D570
330
D571
330
D572
330
D573
330
D574
330
D575
330
D576
330
D577
330
D578
330
D579
330
D57A
330
D57B
330
D57C
330
D57D
330
D57E
330
D57F
330
D580
330
D581
330
D582
330
D583
330
D584
330
D585
330
D586
330
D587
330
D588
330
D589
330
D58A
330
D58B
330
D58C
330
D58D
330
D58E
330
D58F
330
D590
330
D591
330
D592
330
D593
330
D595
330
D597
330
D598
330
D599
330
D59A
330
D59E
330
D59F
330
D5A0
330
D5A1
330
D5A2
330
D5A4
330
D5A5
330
D5A6
330
D5A7
330
D5A8
330
D5A9
330
D5AA
330
D5AB
330
D5AC
330
D5AD
330
D5AE
330
D5B5
330
D5B6
330
D5B7
330
D5BD
330
D5C0
330
D5C3
330
D5C6
330
D5D1
330
D5D2
330
D5D3
330
D5DD
330
D5DE
330
D5E4
330
D5E6
330
D5E7
330
D602
330
D603
330
D604
330
D605
330
D606
330
D609
330
D60A
330
D60B
330
D62B
330
D6CF
330
D6D0
330
D6D1
330
D6D2
330
D6D3
330
D6D4
330
D6D5
330
D6D6
330
D6D7
330
D6DB
330
D6DC
330
D6DF
330
D6E1
330
D6E2
330
D6E3
330
D6E4
330
D728
330
D729
330
D72A
330
D72B
330
D72C
330
D72D
330
D72E
330
D72F
330
D730
330
D731
330
D732
330
D733
330
D773
330
D78B
330
D7B0
330
D7B2
330
D7CC
330
D7E4
330
D7F6
330
D7F7
330
DA1E
330
DA1F
330
DA20
330
DA21
330
DA22
330
DA23
330
DA24
330
DA25
330
DA26
330
DA27
330
DA28
330
DA29
330
DA2A
330
DA2B
330
DA2C
330
DA2D
330
DA2E
330
DA2F
330
DA30
330
DA31
330
DA32
330
DA33
330
DA34
330
DA35
330
DA36
330
DA37
330
DA38
330
DA39
330
DA3A
330
DA3B
330
DA3C
330
DA3D
330
DA3E
330
DA3F
330
DA40
330
DA41
330
DA42
330
DA43
330
DA44
330
DA45
330
DA46
330
DA47
330
DA48
330
DA49
330
DA4A
330
DA4B
330
DA4C
330
DA7C
330
DA7D
330
DA7E
330
DA7F
330
DA80
330
DA81
330
DA82
330
DA83
330
DA84
330
DA85
330
DA86
330
DA87
330
DA88
330
DA89
330
DA8A
330
DA8B
330
DA8C
330
DA8D
330
DA8E
330
DA8F
330
DA90
330
DA91
330
DA92
330
DA93
330
DA94
330
DA95
330
DA96
330
DA97
330
DA98
330
DA99
330
DA9A
330
DA9B
330
DA9C
330
DA9D
330
DA9E
330
DA9F
330
DAA0
330
DAA1
330
DAA2
330
DAA3
330
DAA4
330
DAA5
330
DAA6
330
DAA7
330
DAA8
330
DAA9
330
DAAA
330
DAAB
330
DAAC
330
DAAD
330
E03F
330
E040
330
E041
330
E042
330
E043
330
E044
330
E045
330
E046
330
E047
330
E048
330
E049
330
E04A
330
E04B
330
E04C
330
E04D
330
E04E
330
E04F
330
E050
330
E051
330
E052
330
E053
330
E067
330
E086
330
E087
330
E088
330
E089
330
E08A
330
E08B
330
E08D
330
E08E
330
E08F
330
E090
330
E093
330
E094
330
E095
330
E096
330
E097
330
E098
330
E099
330
E09A
330
E09B
330
E828
330
E829
330
E82A
330
E82B
330
E82C
330
E82D
330
E82E
330
E82F
330
E830
330
E831
330
E832
330
E833
330
E834
330
E835
330
E836
330
E837
330
E838
330
E839
330
E83A
330
E83B
330
E83C
330
E83D
330
E83E
330
E83F
330
E840
330
E841
330
E842
330
E843
330
E844
330
E845
330
E846
330
E847
330
E848
330
E849
330
E84A
330
E84B
330
E84C
330
E84D
330
E84E
330
E84F
330
E850
330
E851
330
E852
330
E853
330
E854
330
E855
330
E856
330
E857
330
E858
330
E859
330
E85A
330
E85B
330
E85C
330
E85D
330
E85E
330
E85F
330
E860
330
E861
330
E862
330
E863
330
E864
330
E865
330
E866
330
E867
330
E868
330
E869
330
E86A
330
E86B
330
E86C
330
E86D
330
E86E
330
E86F
330
E870
330
E871
330
E872
330
E873
330
E874
330
E875
330
E876
330
E877
330
E878
330
E879
330
E87A
330
E87B
330
E87C
330
E87D
330
E87E
330
E87F
330
E880
330
E881
330
E882
330
E883
330
E884
330
E885
330
E886
330
E887
330
E888
330
E889
330
E88A
330
E88B
330
E88C
330
E88D
330
E88E
330
E88F
330
E890
330
E891
330
E892
330
E893
330
E894
330
E895
330
E896
330
E897
330
E898
330
E899
330
E89A
330
E89B
330
E89C
330
E89D
330
E89E
330
E89F
330
E8A0
330
E8A1
330
E8A2
330
E8A3
330
E8A4
330
E8A5
330
E8A6
330
E8A7
330
E8A8
330
E8A9
330
E8AA
330
E8AB
330
E8AC
330
E8AD
330
E8AE
330
E8AF
330
E8B0
330
E8B1
330
E8B2
330
E8B3
330
E8B4
330
E8B5
330
E8B6
330
E8B7
330
E8B8
330
E8B9
330
E8BA
330
E8BB
330
E8BC
330
E8BD
330
E8BE
330
E8BF
330
E8C0
330
E8C1
330
E8C2
330
E8C3
330
E8C4
330
E8C5
330
E8C6
330
E8C7
330
E8C8
330
E8C9
330
E8CA
330
E8CB
330
E8CC
330
E8CD
330
E8CE
330
E8CF
330
E8D0
330
E8D1
330
E8D2
330
E8D3
330
E8D4
330
E8D5
330
E8D6
330
E8D7
330
E8D8
330
E8D9
330
E8DA
330
E8DB
330
E8DC
330
E8DD
330
E8DE
330
E8DF
330
E8E0
330
E8E1
330
E8E2
330
E8E3
330
E8E4
330
E8E5
330
E8E6
330
E8E7
330
E8E8
330
E8E9
330
E8EA
330
E8EB
330
E8EC
330
E8ED
330
E8EE
330
E8EF
330
E8F0
330
E8F1
330
E8F2
330
E8F3
330
E8F4
330
E8F5
330
E8F6
330
E8F7
330
E8F8
330
E8F9
330
E8FA
330
E8FB
330
E8FC
330
E8FD
330
E8FE
330
E8FF
330
E900
330
E901
330
E902
330
E903
330
E904
330
E905
330
E906
330
E907
330
E908
330
E909
330
E90A
330
E90B
330
E90C
330
E90D
330
E90E
330
E90F
330
E910
330
E911
330
E912
330
E913
330
E914
330
E915
330
E916
330
E917
330
E918
330
E919
330
E91A
330
E91B
330
E91C
330
E91D
330
E91E
330
E91F
330
E920
330
E921
330
E922
330
E923
330
E924
330
E925
330
E926
330
E927
330
E928
330
E929
330
E92A
330
E92B
330
E92C
330
E92D
330
E92E
330
E92F
330
E930
330
E931
330
E932
330
E933
330
E934
330
E935
330
E936
330
E937
330
E938
330
E939
330
E93A
330
E93B
330
E93C
330
E93D
330
E93E
330
E93F
330
E940
330
E941
330
E942
330
E943
330
E944
330
E945
330
E946
330
E947
330
E948
330
E949
330
E94A
330
E94B
330
E94C
330
E94D
330
E94E
330
E94F
330
E950
330
E951
330
E952
330
E953
330
E954
330
E955
330
E956
330
E957
330
E958
330
E959
330
E95A
330
E95B
330
E95C
330
E95D
330
E95E
330
E95F
330
E96F
330
E970
330
EA5E
330
EA5F
330
EA60
330
EF3C
330
EF3D
330
EF3E
330
EF3F
330
EF40
330
EF41
330
EF42
330
EF43
330
EF44
330
EF45
330
EF46
330
EF47
330
EF48
330
EF49
330
EF4A
330
EF4B
330
EF4C
330
EF4D
330
EF4E
330
EF4F
330
EF50
330
EF51
330
EF52
330
EF53
330
EF54
330
EF55
330
EF56
330
EF57
330
EF64
330
EF65
330
EF66
330
EF67
330
EF68
330
EF69
330
EF6A
330
EF6B
330
EF6C
330
EF6D
330
EF6E
330
EF6F
330
EF8A
330
EF8B
330
EF8C
330
EF8D
330
EF8E
330
EF8F
330
EF90
330
EF91
330
EF92
330
EF93
330
EF9E
330
EF9F
330
EFA0
330
EFA1
330
EFA2
330
EFA3
330
EFA4
330
EFA5
330
EFA6
330
EFA7
330
EFA8
330
EFA9
330
EFAA
330
EFAB
330
EFAC
330
EFAD
330
EFAE
330
EFAF
330
EFB0
330
EFB1
330
EFB2
330
EFB3
330
EFB4
330
EFB5
330
EFB6
330
EFB7
330
EFB8
330
EFB9
330
F2A9
330
F2AA
330
F2AB
330
F2AC
  0
IDBUFFER
  5
F2FC
330
0
100
AcDbIdBuffer
330
649A
  0
IDBUFFER
  5
F2FD
330
0
100
AcDbIdBuffer
  0
IDBUFFER
  5
F2FE
330
0
100
AcDbIdBuffer
330
B681
330
B686
330
B687
330
B688
330
B689
330
B68A
330
B68B
330
B691
330
B697
330
B69D
330
B69E
330
B69F
330
B6A0
330
B6A1
330
B6A2
330
B6A3
330
B6A4
330
B6A5
330
B6A6
330
B6A7
330
B6A8
330
B6A9
330
B6AA
330
B6AB
330
B6AC
330
B6AD
330
B6AE
330
B6AF
330
B6B0
330
B6B1
330
B6B2
330
B6B3
330
B6B4
330
B6B5
330
B6B6
330
B6B7
330
B6B8
330
B6B9
330
B6BA
330
B6BB
330
B6BC
330
B6BD
330
B6BE
330
B6BF
330
B6C0
330
B6C1
330
B6C2
330
B6C3
330
B6C4
330
B6C5
330
B6C6
330
B6C7
330
B6C8
330
B6C9
330
B6CA
330
B6CB
330
B6CC
330
B6CD
330
B6CE
330
B6CF
330
B6D0
330
B6D1
330
B6D2
330
B6D3
330
B6D4
330
B6D5
330
B6D6
330
B6D7
330
B6D8
330
B6D9
330
B6DA
330
B6DB
330
B6DC
330
B6DD
330
B6DE
330
B6DF
330
B6E0
330
B6E1
330
B6E2
330
B6E3
330
B6E4
330
B6E5
330
B6E6
330
B6E7
330
B6E8
330
B6E9
330
B6EA
330
B6EB
330
B6EC
330
B6ED
330
B6EE
330
B6EF
330
B6F0
330
B6F1
330
B6F2
330
B6F3
330
B6F4
330
B6F5
330
B6F6
330
B6F7
330
B6F8
330
B6F9
330
B6FA
330
B6FB
330
B6FC
330
B6FD
330
B6FE
330
B6FF
330
B700
330
B701
330
B702
330
B703
330
B704
330
B705
330
B706
330
B707
330
B708
330
B709
330
B70A
330
B70B
330
B70C
330
B70D
330
B70E
330
B712
330
B713
330
B714
330
B715
330
B716
330
B717
330
B718
330
B719
330
B71A
330
B71B
330
B71C
330
B71D
330
B71E
330
B71F
330
B720
330
B721
330
B722
330
B723
330
B724
330
B725
330
B726
330
B727
330
B728
330
B72C
330
B72E
330
B72F
330
B730
330
B731
330
B732
330
B733
330
B734
330
B735
330
B736
330
B737
330
B738
330
B739
330
B73A
330
B73B
330
B73C
330
B73D
330
B73E
330
B73F
330
B740
330
B741
330
B742
330
B743
330
B744
330
B745
330
B746
330
B747
330
B748
330
B749
330
B74A
330
B74B
330
B74C
330
B74D
330
B74E
330
B750
330
B751
330
B752
330
B754
330
B755
330
B756
330
B757
330
B758
330
B759
330
B75A
330
B75B
330
B75C
330
B75D
330
B75E
330
B75F
330
B760
330
B761
330
B762
330
B763
330
B764
330
B765
330
B766
330
B767
330
B768
330
B769
330
B76A
330
B76E
330
B770
330
B771
330
B772
330
B773
330
B774
330
B775
330
B776
330
B777
330
B778
330
B779
330
B77A
330
B77B
330
B77C
330
B77D
330
B77E
330
B77F
330
B780
330
B781
330
B782
330
B783
330
B784
330
B785
330
B786
330
B787
330
B788
330
B789
330
B78A
330
B78B
330
B78C
330
B78D
330
B78E
330
B78F
330
B790
330
B792
330
B793
330
B794
330
B8E5
330
D5E0
330
D5E1
330
D60C
330
D60D
330
D7AE
330
D7F8
330
DBF0
330
DBF1
330
DBF2
330
DBF3
330
DCFC
330
DCFD
330
DCFE
330
DCFF
330
DD00
330
DD01
330
DD02
330
DFDD
330
DFDE
330
DFDF
330
DFE0
330
DFE1
330
DFE2
330
DFE3
330
E038
330
E039
330
E03A
330
E03B
330
E03C
330
E03D
330
E03E
  0
IDBUFFER
  5
F2FF
330
0
100
AcDbIdBuffer
330
D91A
330
D91B
330
D91C
330
D91D
330
D926
330
D993
  0
XRECORD
  5
F329
102
{ACAD_REACTORS
330
F328
102
}
330
F328
100
AcDbXrecord
280
     1
102
SHADEPLOT
 70
     0
102
SHADEPLOTRESLEVEL
 70
     2
102
SHADEPLOTCUSTOMDPI
 70
   300
  0
XRECORD
  5
F327
102
{ACAD_REACTORS
330
F326
102
}
330
F326
100
AcDbXrecord
280
     1
102
SHADEPLOT
 70
     0
102
SHADEPLOTRESLEVEL
 70
     2
102
SHADEPLOTCUSTOMDPI
 70
   300
  0
XRECORD
  5
F079
102
{ACAD_REACTORS
330
F078
102
}
330
F078
100
AcDbXrecord
280
     1
102
MATERIAL
148
0.0
149
0.0
149
0.0
 93
        0
 94
       63
282
     0
 72
     1
 77
     1
171
     1
175
     1
179
     1
273
     0
  0
XRECORD
  5
F077
102
{ACAD_REACTORS
330
F076
102
}
330
F076
100
AcDbXrecord
280
     1
102
MATERIAL
148
0.0
149
0.0
149
0.0
 93
        0
 94
       63
282
     0
 72
     1
 77
     1
171
     1
175
     1
179
     1
273
     0
  0
XRECORD
  5
F075
102
{ACAD_REACTORS
330
F074
102
}
330
F074
100
AcDbXrecord
280
     1
102
MATERIAL
148
0.0
149
0.0
149
0.0
 93
        0
 94
       63
282
     0
 72
     1
 77
     1
171
     1
175
     1
179
     1
273
     0
  0
XRECORD
  5
F32B
102
{ACAD_REACTORS
330
F32A
102
}
330
F32A
100
AcDbXrecord
280
     1
102
SHADEPLOT
 70
     0
102
SHADEPLOTRESLEVEL
 70
     2
102
SHADEPLOTCUSTOMDPI
 70
   300
  0
XRECORD
  5
F32D
102
{ACAD_REACTORS
330
F32C
102
}
330
F32C
100
AcDbXrecord
280
     1
102
SHADEPLOT
 70
     0
102
SHADEPLOTRESLEVEL
 70
     2
102
SHADEPLOTCUSTOMDPI
 70
   300
  0
XRECORD
  5
F32F
102
{ACAD_REACTORS
330
F32E
102
}
330
F32E
100
AcDbXrecord
280
     1
102
ACAD_ROUNDTRIP_PRE2007_TABLESTYLE
 90
        4
 91
        0
  1

 92
        4
 93
        0
  2

 94
        4
 95
        0
  3

  0
ENDSEC
  0
EOF
