  0
SECTION
  2
HEADER
  9
$ACADVER
  1
AC1015
  9
$ACADMAINTVER
 70
    20
  9
$DWGCODEPAGE
  3
ANSI_1252
  9
$INSBASE
 10
0.0
 20
0.0
 30
0.0
  9
$EXTMIN
 10
-11.53762697139574
 20
3.951928617225079
 30
0.0
  9
$EXTMAX
 10
15.18714794328974
 20
17.74291206705767
 30
0.0
  9
$LIMMIN
 10
0.0
 20
0.0
  9
$LIMMAX
 10
12.0
 20
9.0
  9
$ORTHOMODE
 70
     1
  9
$REGENMODE
 70
     1
  9
$FILLMODE
 70
     1
  9
$QTEXTMODE
 70
     0
  9
$MIRRTEXT
 70
     1
  9
$LTSCALE
 40
1.0
  9
$ATTMODE
 70
     1
  9
$TEXTSIZE
 40
0.2
  9
$TRACEWID
 40
0.05
  9
$TEXTSTYLE
  7
Standard
  9
$CLAYER
  8
Notes
  9
$CELTYPE
  6
ByLayer
  9
$CECOLOR
 62
   256
  9
$CELTSCALE
 40
1.0
  9
$DISPSILH
 70
     0
  9
$DIMSCALE
 40
1.0
  9
$DIMASZ
 40
0.18
  9
$DIMEXO
 40
0.0625
  9
$DIMDLI
 40
0.38
  9
$DIMRND
 40
0.0
  9
$DIMDLE
 40
0.0
  9
$DIMEXE
 40
0.18
  9
$DIMTP
 40
0.0
  9
$DIMTM
 40
0.0
  9
$DIMTXT
 40
0.18
  9
$DIMCEN
 40
0.09
  9
$DIMTSZ
 40
0.0
  9
$DIMTOL
 70
     0
  9
$DIMLIM
 70
     0
  9
$DIMTIH
 70
     1
  9
$DIMTOH
 70
     1
  9
$DIMSE1
 70
     0
  9
$DIMSE2
 70
     0
  9
$DIMTAD
 70
     0
  9
$DIMZIN
 70
     0
  9
$DIMBLK
  1

  9
$DIMASO
 70
     1
  9
$DIMSHO
 70
     1
  9
$DIMPOST
  1

  9
$DIMAPOST
  1

  9
$DIMALT
 70
     0
  9
$DIMALTD
 70
     2
  9
$DIMALTF
 40
25.4
  9
$DIMLFAC
 40
1.0
  9
$DIMTOFL
 70
     0
  9
$DIMTVP
 40
0.0
  9
$DIMTIX
 70
     0
  9
$DIMSOXD
 70
     0
  9
$DIMSAH
 70
     0
  9
$DIMBLK1
  1

  9
$DIMBLK2
  1

  9
$DIMSTYLE
  2
Standard
  9
$DIMCLRD
 70
   256
  9
$DIMCLRE
 70
   256
  9
$DIMCLRT
 70
   256
  9
$DIMTFAC
 40
1.0
  9
$DIMGAP
 40
0.09
  9
$DIMJUST
 70
     0
  9
$DIMSD1
 70
     0
  9
$DIMSD2
 70
     0
  9
$DIMTOLJ
 70
     1
  9
$DIMTZIN
 70
     0
  9
$DIMALTZ
 70
     0
  9
$DIMALTTZ
 70
     0
  9
$DIMUPT
 70
     0
  9
$DIMDEC
 70
     2
  9
$DIMTDEC
 70
     2
  9
$DIMALTU
 70
     2
  9
$DIMALTTD
 70
     2
  9
$DIMTXSTY
  7
Standard
  9
$DIMAUNIT
 70
     0
  9
$DIMADEC
 70
     0
  9
$DIMALTRND
 40
0.0
  9
$DIMAZIN
 70
     0
  9
$DIMDSEP
 70
    46
  9
$DIMATFIT
 70
     3
  9
$DIMFRAC
 70
     0
  9
$DIMLDRBLK
  1

  9
$DIMLUNIT
 70
     2
  9
$DIMLWD
 70
    -1
  9
$DIMLWE
 70
    -2
  9
$DIMTMOVE
 70
     0
  9
$LUNITS
 70
     2
  9
$LUPREC
 70
     4
  9
$SKETCHINC
 40
0.1
  9
$FILLETRAD
 40
0.066
  9
$AUNITS
 70
     0
  9
$AUPREC
 70
     0
  9
$MENU
  1
.
  9
$ELEVATION
 40
0.0
  9
$PELEVATION
 40
0.0
  9
$THICKNESS
 40
0.0
  9
$LIMCHECK
 70
     0
  9
$CHAMFERA
 40
0.5
  9
$CHAMFERB
 40
0.5
  9
$CHAMFERC
 40
1.0
  9
$CHAMFERD
 40
0.0
  9
$SKPOLY
 70
     0
  9
$TDCREATE
 40
2454571.568951991
  9
$TDUCREATE
 40
2454571.902285324
  9
$TDUPDATE
 40
2454784.454200208
  9
$TDUUPDATE
 40
2454784.787533542
  9
$TDINDWG
 40
0.2930506481
  9
$TDUSRTIMER
 40
0.2930504745
  9
$USRTIMER
 70
     1
  9
$ANGBASE
 50
0.0
  9
$ANGDIR
 70
     0
  9
$PDMODE
 70
     0
  9
$PDSIZE
 40
0.0
  9
$PLINEWID
 40
0.0
  9
$SPLFRAME
 70
     0
  9
$SPLINETYPE
 70
     6
  9
$SPLINESEGS
 70
     8
  9
$HANDSEED
  5
255D
  9
$SURFTAB1
 70
     6
  9
$SURFTAB2
 70
     6
  9
$SURFTYPE
 70
     6
  9
$SURFU
 70
     6
  9
$SURFV
 70
     6
  9
$UCSBASE
  2

  9
$UCSNAME
  2

  9
$UCSORG
 10
0.0
 20
0.0
 30
0.0
  9
$UCSXDIR
 10
1.0
 20
0.0
 30
0.0
  9
$UCSYDIR
 10
0.0
 20
1.0
 30
0.0
  9
$UCSORTHOREF
  2

  9
$UCSORTHOVIEW
 70
     0
  9
$UCSORGTOP
 10
0.0
 20
0.0
 30
0.0
  9
$UCSORGBOTTOM
 10
0.0
 20
0.0
 30
0.0
  9
$UCSORGLEFT
 10
0.0
 20
0.0
 30
0.0
  9
$UCSORGRIGHT
 10
0.0
 20
0.0
 30
0.0
  9
$UCSORGFRONT
 10
0.0
 20
0.0
 30
0.0
  9
$UCSORGBACK
 10
0.0
 20
0.0
 30
0.0
  9
$PUCSBASE
  2

  9
$PUCSNAME
  2

  9
$PUCSORG
 10
0.0
 20
0.0
 30
0.0
  9
$PUCSXDIR
 10
1.0
 20
0.0
 30
0.0
  9
$PUCSYDIR
 10
0.0
 20
1.0
 30
0.0
  9
$PUCSORTHOREF
  2

  9
$PUCSORTHOVIEW
 70
     0
  9
$PUCSORGTOP
 10
0.0
 20
0.0
 30
0.0
  9
$PUCSORGBOTTOM
 10
0.0
 20
0.0
 30
0.0
  9
$PUCSORGLEFT
 10
0.0
 20
0.0
 30
0.0
  9
$PUCSORGRIGHT
 10
0.0
 20
0.0
 30
0.0
  9
$PUCSORGFRONT
 10
0.0
 20
0.0
 30
0.0
  9
$PUCSORGBACK
 10
0.0
 20
0.0
 30
0.0
  9
$USERI1
 70
     0
  9
$USERI2
 70
     0
  9
$USERI3
 70
     0
  9
$USERI4
 70
     0
  9
$USERI5
 70
     0
  9
$USERR1
 40
0.0
  9
$USERR2
 40
0.0
  9
$USERR3
 40
0.0
  9
$USERR4
 40
0.0
  9
$USERR5
 40
0.0
  9
$WORLDVIEW
 70
     1
  9
$SHADEDGE
 70
     3
  9
$SHADEDIF
 70
    70
  9
$TILEMODE
 70
     1
  9
$MAXACTVP
 70
    64
  9
$PINSBASE
 10
0.0
 20
0.0
 30
0.0
  9
$PLIMCHECK
 70
     0
  9
$PEXTMIN
 10
1.000000000000000E+20
 20
1.000000000000000E+20
 30
1.000000000000000E+20
  9
$PEXTMAX
 10
-1.000000000000000E+20
 20
-1.000000000000000E+20
 30
-1.000000000000000E+20
  9
$PLIMMIN
 10
0.0
 20
0.0
  9
$PLIMMAX
 10
12.0
 20
9.0
  9
$UNITMODE
 70
     0
  9
$VISRETAIN
 70
     1
  9
$PLINEGEN
 70
     0
  9
$PSLTSCALE
 70
     1
  9
$TREEDEPTH
 70
  3020
  9
$CMLSTYLE
  2
Standard
  9
$CMLJUST
 70
     0
  9
$CMLSCALE
 40
1.0
  9
$PROXYGRAPHICS
 70
     1
  9
$MEASUREMENT
 70
     0
  9
$CELWEIGHT
370
    -1
  9
$ENDCAPS
280
     0
  9
$JOINSTYLE
280
     0
  9
$LWDISPLAY
290
     1
  9
$INSUNITS
 70
     1
  9
$HYPERLINKBASE
  1

  9
$STYLESHEET
  1

  9
$XEDIT
290
     1
  9
$CEPSNTYPE
380
     0
  9
$PSTYLEMODE
290
     1
  9
$FINGERPRINTGUID
  2
{488A8AA9-88B5-4973-BF6D-66395927BB1E}
  9
$VERSIONGUID
  2
{69E308EE-074B-4240-859A-D802975B07B5}
  9
$EXTNAMES
290
     1
  9
$PSVPSCALE
 40
0.0
  9
$OLESTARTUP
290
     0
  0
ENDSEC
  0
SECTION
  2
CLASSES
  0
CLASS
  1
ACDBDICTIONARYWDFLT
  2
AcDbDictionaryWithDefault
  3
ObjectDBX Classes
 90
        0
280
     0
281
     0
  0
CLASS
  1
VISUALSTYLE
  2
AcDbVisualStyle
  3
ObjectDBX Classes
 90
     4095
280
     0
281
     0
  0
CLASS
  1
MATERIAL
  2
AcDbMaterial
  3
ObjectDBX Classes
 90
     1024
280
     0
281
     0
  0
CLASS
  1
TABLESTYLE
  2
AcDbTableStyle
  3
ObjectDBX Classes
 90
     4095
280
     0
281
     0
  0
CLASS
  1
ACME_DOCUMENT
  2
AcMeDbDoc
  3
AcMeServices
 90
        0
280
     0
281
     0
  0
CLASS
  1
AMGSETTINGSOBJ
  2
AmgSettingsObj
  3
"AcadM|Product Description: AutoCAD Mechanical|Company: Autodesk"
 90
        0
280
     0
281
     0
  0
CLASS
  1
ACMESCOPE
  2
AcMeScope
  3
AcMeServices
 90
        0
280
     0
281
     0
  0
CLASS
  1
ACMECOMMANDHISTORY
  2
AcMeCommandHistory
  3
AcMeServices
 90
        0
280
     0
281
     0
  0
CLASS
  1
ACIMSYSVARMAN
  2
AcImSysVarManager
  3
AcMeServices
 90
        0
280
     0
281
     0
  0
CLASS
  1
ACIMREALSYSVAR
  2
AcImRealSysVar
  3
AcMeServices
 90
        0
280
     0
281
     0
  0
CLASS
  1
ACIMINTSYSVAR
  2
AcImIntSysVar
  3
AcMeServices
 90
        0
280
     0
281
     0
  0
CLASS
  1
ACMEDRAWINGMAN
  2
AcMeDrawingMan
  3
AcMeServices
 90
        0
280
     0
281
     0
  0
CLASS
  1
ACMEVIEW
  2
AcMeView
  3
AcMeServices
 90
        0
280
     0
281
     0
  0
CLASS
  1
ACDBENTITYCACHE
  2
AcMeEntityCache
  3
AcMeServices
 90
        0
280
     0
281
     0
  0
CLASS
  1
GSMANAGER
  2
AcMeGSManager
  3
AcMeServices
 90
        0
280
     0
281
     0
  0
CLASS
  1
AMDTINTERNALREACTOR
  2
AmdtInternalReactor
  3
AcMeServices
 90
        0
280
     0
281
     0
  0
CLASS
  1
ACMESTATEMGR
  2
AcMeStateMgr
  3
AcMeServices
 90
        0
280
     0
281
     0
  0
CLASS
  1
ACGREFMASTER
  2
AcGrefMaster
  3
AcAttribServices
 90
        0
280
     0
281
     0
  0
CLASS
  1
AM_DRAWING_MGR
  2
AcDmDwgMgr
  3
AcMechDwgViewMgmt
 90
        0
280
     0
281
     0
  0
CLASS
  1
AM_DWG_DOCUMENT
  2
AcDmDwgDocument
  3
AcMechDwgViewMgmt
 90
        0
280
     0
281
     0
  0
CLASS
  1
AM_DWG_SHEET
  2
AcDmSheet
  3
AcMechDwgViewMgmt
 90
        0
280
     0
281
     0
  0
CLASS
  1
AM_VIEWDIMPARMAP
  2
AcDmViewDimParMap
  3
AcMechDwgViewMgmt
 90
        0
280
     0
281
     0
  0
CLASS
  1
AM_DWGMGR_NAME
  2
AcDmDwgMgrName
  3
AcMechDwgViewMgmt
 90
        0
280
     0
281
     0
  0
CLASS
  1
ACME_DATABASE
  2
AcMeDbDatabase
  3
AcMeServices
 90
        0
280
     0
281
     0
  0
CLASS
  1
ACRFINSADJUSTERMGR
  2
AcRfInsAdjusterMgr
  3
AcMeServices
 90
        0
280
     0
281
     0
  0
CLASS
  1
ACGREFACADMASTER
  2
AcGrefacadMaster
  3
AcGrefServices
 90
        0
280
     0
281
     0
  0
CLASS
  1
AMDTMENUSTATEMGR
  2
AmdtMenuStateMgr
  3
McadcomServices
 90
        0
280
     0
281
     0
  0
CLASS
  1
AMDTMCOMMENUSTATE
  2
AmdtMcomMenuState
  3
McadcomServices
 90
        0
280
     0
281
     0
  0
CLASS
  1
AMIMASTER
  2
AmiMaster
  3
AmiServices
 90
        0
280
     0
281
     0
  0
CLASS
  1
ASAPP
  2
AcAsAppObject
  3
AutoSurfServices
 90
        0
280
     0
281
     0
  0
CLASS
  1
IM_STATIC_MAN
  2
AcImStaticVarManager
  3
AcMeServices
 90
        0
280
     0
281
     0
  0
CLASS
  1
ACIMSTRSYSVAR
  2
AcImStrSysVar
  3
AcMeServices
 90
        0
280
     0
281
     0
  0
CLASS
  1
ACIMDBLSTATICVAR
  2
AcImDblStaticVar
  3
AcMeServices
 90
        0
280
     0
281
     0
  0
CLASS
  1
ACIMSTRSTATICVAR
  2
AcImStrStaticVar
  3
AcMeServices
 90
        0
280
     0
281
     0
  0
CLASS
  1
ACIMINTSTATICVAR
  2
AcImIntStaticVar
  3
AcMeServices
 90
        0
280
     0
281
     0
  0
CLASS
  1
ACASGREFMASTER
  2
AcAsGrefMaster
  3
AutoSurfResolverServices
 90
        0
280
     0
281
     0
  0
CLASS
  1
ACADGREFMODULE
  2
AcAdGrefModule
  3
AdGrefServices
 90
        0
280
     0
281
     0
  0
CLASS
  1
AMDTMAPISURFMOUDULE
  2
AmdtMApiSurfModule
  3
MApiSurfServices
 90
        0
280
     0
281
     0
  0
CLASS
  1
MAPIAMMOUDLE
  2
MApiAmModule
  3
MApiAmServices
 90
        0
280
     0
281
     0
  0
CLASS
  1
AMDTADMENUSTATE
  2
AmdtAdMenuState
  3
DesignerServices
 90
        0
280
     0
281
     0
  0
CLASS
  1
ADAPPL
  2
AcAdAppl
  3
DesignerServices
 90
        0
280
     0
281
     0
  0
CLASS
  1
DEPMGR
  2
AcAdDepMgr
  3
DesignerServices
 90
        0
280
     0
281
     0
  0
CLASS
  1
PARAMMGR
  2
AcAdParamMgr
  3
DesignerServices
 90
        0
280
     0
281
     0
  0
CLASS
  1
PARAMSCOPE
  2
AcAdParamScope
  3
DesignerServices
 90
        0
280
     0
281
     0
  0
CLASS
  1
NAMEDAPPL
  2
AcAdNamedAppl
  3
DesignerServices
 90
        0
280
     0
281
     0
  0
CLASS
  1
AMDTDMMENUSTATE
  2
AmdtDmMenuState
  3
AcMechDwgViewMgmt
 90
        0
280
     0
281
     0
  0
CLASS
  1
MAPIADMODULE
  2
MApiAdModule
  3
MApiAdServices
 90
        0
280
     0
281
     0
  0
CLASS
  1
AMDTAMMENUSTATE
  2
AmdtAmMenuState
  3
DesignerAssemblies
 90
        0
280
     0
281
     0
  0
CLASS
  1
ACAMPROJECT
  2
AcAmProject
  3
DesignerAssemblies
 90
        0
280
     0
281
     0
  0
CLASS
  1
ACAMGRCOMPDEF
  2
AcAmGrCompDef
  3
DesignerAssemblies
 90
        0
280
     0
281
     0
  0
CLASS
  1
ACCMCONTEXT
  2
AcCmContext
  3
DesignerAssemblies
 90
        0
280
     0
281
     0
  0
CLASS
  1
ACAMCOMPDEF
  2
AcAmCompDef
  3
DesignerAssemblies
 90
        0
280
     0
281
     0
  0
CLASS
  1
ACAMCOMPDEFMGR
  2
AcAmCompDefMgr
  3
DesignerAssemblies
 90
        0
280
     0
281
     0
  0
CLASS
  1
AMCONTEXTMGR
  2
AcAmContextMgr
  3
DesignerAssemblies
 90
        0
280
     0
281
     0
  0
CLASS
  1
ACAMCONTEXTMODELER
  2
AcAmContextModeler
  3
DesignerAssemblies
 90
        0
280
     0
281
     0
  0
CLASS
  1
ACMDATADICTIONARY
  2
AcmDataDictionary
  3
"AcmSymBB|Product Description: AutoCAD Mechanical|Company: Autodesk"
 90
        0
280
     0
281
     0
  0
CLASS
  1
ACMDATAENTRYBLOCK
  2
AcmDataEntryBlock
  3
"AcmSymBB|Product Description: AutoCAD Mechanical|Company: Autodesk"
 90
        0
280
     0
281
     0
  0
CLASS
  1
ACRFATTGENMGR
  2
AcRfAttGeneralMgr
  3
AcAttribServices
 90
        0
280
     0
281
     0
  0
CLASS
  1
ACRFOBJATTMGR
  2
AcRfObjAttGroupMgr
  3
AcAttribServices
 90
        0
280
     0
281
     0
  0
CLASS
  1
ACRFMCADAPIATTHOLDER
  2
AcRfMCADAPIAttHolder
  3
AcAttribServices
 90
        0
280
     0
281
     0
  0
CLASS
  1
AMDTSYSATTR
  2
AmdtSystemAttribute
  3
AcAttribServices
 90
        0
280
     0
281
     0
  0
CLASS
  1
CATALOGSTATE
  2
AcAmCatalogState
  3
DesignerAssemblies
 90
        0
280
     0
281
     0
  0
CLASS
  1
ACAMGRCOMPDEFSET
  2
AcAmGrCompDefSet
  3
DesignerAssemblies
 90
        0
280
     0
281
     0
  0
CLASS
  1
AMDTBROWSERDBTAB
  2
AmdtBrowserDbTab
  3
McadcomServices
 90
        0
280
     0
281
     0
  0
CLASS
  1
CBROWSERAPPOBJECT
  2
CBrowserAppObject
  3
McadcomServices
 90
        0
280
     0
281
     0
  0
CLASS
  1
DM_PLACEHOLDER
  2
AcDmSelsetPlaceholder
  3
AcMechDwgViewMgmt
 90
        0
280
     0
281
     0
  0
CLASS
  1
ACMSTANDARDANSI
  2
AcmStandardANSI
  3
"Amdt_StdImp|Product Description: AutoCAD Mechanical|Company: Autodesk"
 90
        0
280
     0
281
     0
  0
CLASS
  1
AMGOBJPROPCFG
  2
AmgObjPropCfg
  3
"AmgLay|Product Description: AutoCAD Mechanical|Company: Autodesk"
 90
        1
280
     0
281
     0
  0
CLASS
  1
ACMSURFSTANDARDANSI
  2
AcmSurfTextStdANSI
  3
"Amdt_StdImp|Product Description: AutoCAD Mechanical|Company: Autodesk"
 90
        0
280
     0
281
     0
  0
CLASS
  1
ACMFCFSTANDARDANSI
  2
AcmFCFStdANSI
  3
"Amdt_StdImp|Product Description: AutoCAD Mechanical|Company: Autodesk"
 90
        0
280
     0
281
     0
  0
CLASS
  1
ACMWELDSTANDARDANSI
  2
AcmWeldingStdANSI
  3
"Amdt_StdImp|Product Description: AutoCAD Mechanical|Company: Autodesk"
 90
        0
280
     0
281
     0
  0
CLASS
  1
ACMIDSTANDARDANSI
  2
AcmIdStdANSI
  3
"Amdt_StdImp|Product Description: AutoCAD Mechanical|Company: Autodesk"
 90
        0
280
     0
281
     0
  0
CLASS
  1
ACMDATUMSTANDARDANSI
  2
AcmDatumStdANSI
  3
"Amdt_StdImp|Product Description: AutoCAD Mechanical|Company: Autodesk"
 90
        0
280
     0
281
     0
  0
CLASS
  1
ACMBOMSTANDARDANSI
  2
AcmBOMStdANSI
  3
"Amdt_StdImp|Product Description: AutoCAD Mechanical|Company: Autodesk"
 90
        0
280
     0
281
     0
  0
CLASS
  1
ACMDETAILSTANDARDANSI
  2
AmdtDetailSymStdANSI
  3
"Amdt_StdImp|Product Description: AutoCAD Mechanical|Company: Autodesk"
 90
        0
280
     0
281
     0
  0
CLASS
  1
ACMSECTIONSTANDARDANSI
  2
AmdtSectionSymStdANSI
  3
"Amdt_StdImp|Product Description: AutoCAD Mechanical|Company: Autodesk"
 90
        0
280
     0
281
     0
  0
CLASS
  1
ACMCENTERLINESTANDARDANSI
  2
AmdtCenterLineStdANSI
  3
"Amdt_StdImp|Product Description: AutoCAD Mechanical|Company: Autodesk"
 90
        0
280
     0
281
     0
  0
CLASS
  1
ACMTHREADLINESTANDARDANSI
  2
AmdtThreadLineStdANSI
  3
"Amdt_StdImp|Product Description: AutoCAD Mechanical|Company: Autodesk"
 90
        0
280
     0
281
     0
  0
CLASS
  1
ACMNOTESTANDARDANSI
  2
AmdtNoteStdANSI
  3
"Amdt_StdImp|Product Description: AutoCAD Mechanical|Company: Autodesk"
 90
        0
280
     0
281
     0
  0
CLASS
  1
ACMTAPERSTANDARDANSI
  2
AcmTaperStdANSI
  3
"Amdt_StdImp|Product Description: AutoCAD Mechanical|Company: Autodesk"
 90
        0
280
     0
281
     0
  0
CLASS
  1
AMDTNOTETEMPLATEDB
  2
AmdtNoteTemplateDB
  3
AMDT_STDIMP_MODULE_NAME
 90
        0
280
     0
281
     0
  0
CLASS
  1
ACAMGLAYSTD
  2
AcAmgLayStd
  3
"AmgLay|Product Description: AutoCAD Mechanical|Company: Autodesk"
 90
        0
280
     0
281
     0
  0
CLASS
  1
ACAMGDIMSTD
  2
AcAmgDimStd
  3
"AmgDim|Product Description: AutoCAD Mechanical|Company: Autodesk"
 90
        0
280
     0
281
     0
  0
CLASS
  1
ACAMGHOLECHARTSTDANSI
  2
AcAmgHoleChartStdANSI
  3
ACMSYMBB_MODULE_NAME
 90
        0
280
     0
281
     0
  0
CLASS
  1
ACAMGTITLESTD
  2
AcAmgTitleStd
  3
"AmgTitle|Product Description: AutoCAD Mechanical|Company: Autodesk"
 90
        0
280
     0
281
     0
  0
CLASS
  1
LAYER_INDEX
  2
AcDbLayerIndex
  3
ObjectDBX Classes
 90
        0
280
     0
281
     0
  0
CLASS
  1
IDBUFFER
  2
AcDbIdBuffer
  3
ObjectDBX Classes
 90
        0
280
     0
281
     0
  0
CLASS
  1
DICTIONARYVAR
  2
AcDbDictionaryVar
  3
ObjectDBX Classes
 90
        0
280
     0
281
     0
  0
CLASS
  1
ACAMGFILTERDAT
  2
AcAmgFilterDat
  3
"AcadM|Product Description: AutoCAD Mechanical|Company: Autodesk"
 90
        0
280
     0
281
     0
  0
CLASS
  1
SORTENTSTABLE
  2
AcDbSortentsTable
  3
ObjectDBX Classes
 90
        0
280
     0
281
     0
  0
CLASS
  1
ACDBPLACEHOLDER
  2
AcDbPlaceHolder
  3
ObjectDBX Classes
 90
        0
280
     0
281
     0
  0
CLASS
  1
LAYOUT
  2
AcDbLayout
  3
ObjectDBX Classes
 90
        0
280
     0
281
     0
  0
ENDSEC
  0
SECTION
  2
TABLES
  0
TABLE
  2
VPORT
  5
8
330
0
100
AcDbSymbolTable
 70
     1
  0
VPORT
  5
29
330
8
100
AcDbSymbolTableRecord
100
AcDbViewportTableRecord
  2
*Active
 70
     0
 10
0.0
 20
0.0
 11
1.0
 21
1.0
 12
-9.98750989531155
 22
2.64326402796786
 13
0.0
 23
0.0
 14
0.5
 24
0.5
 15
0.5
 25
0.5
 16
0.0
 26
0.0
 36
1.0
 17
11.81153669476477
 27
9.842342693200382
 37
0.0
 40
17.21707269294485
 41
1.8627648839556
 42
50.0
 43
0.0
 44
0.0
 50
0.0
 51
0.0
 71
     0
 72
   100
 73
     1
 74
     3
 75
     0
 76
     0
 77
     0
 78
     0
281
     0
 65
     0
110
0.0
120
0.0
130
0.0
111
1.0
121
0.0
131
0.0
112
0.0
122
1.0
132
0.0
 79
     0
146
0.0
  0
ENDTAB
  0
TABLE
  2
LTYPE
  5
5
330
0
100
AcDbSymbolTable
 70
    18
  0
LTYPE
  5
14
330
5
100
AcDbSymbolTableRecord
100
AcDbLinetypeTableRecord
  2
ByBlock
 70
     0
  3

 72
    65
 73
     0
 40
0.0
  0
LTYPE
  5
15
330
5
100
AcDbSymbolTableRecord
100
AcDbLinetypeTableRecord
  2
ByLayer
 70
     0
  3

 72
    65
 73
     0
 40
0.0
  0
LTYPE
  5
16
330
5
100
AcDbSymbolTableRecord
100
AcDbLinetypeTableRecord
  2
Continuous
 70
     0
  3
Solid line
 72
    65
 73
     0
 40
0.0
  0
LTYPE
  5
661
330
5
100
AcDbSymbolTableRecord
100
AcDbLinetypeTableRecord
  2
HIDDEN
 70
     0
  3
Hidden __ __ __ __ __ __ __ __ __ __ __ __ __ _
 72
    65
 73
     2
 40
0.375
 49
0.25
 74
     0
 49
-0.125
 74
     0
  0
LTYPE
  5
662
330
5
100
AcDbSymbolTableRecord
100
AcDbLinetypeTableRecord
  2
PHANTOM2
 70
     0
  3
Phantom (.5x) ___ _ _ ___ _ _ ___ _ _ ___ _ _
 72
    65
 73
     6
 40
1.25
 49
0.625
 74
     0
 49
-0.125
 74
     0
 49
0.125
 74
     0
 49
-0.125
 74
     0
 49
0.125
 74
     0
 49
-0.125
 74
     0
  0
LTYPE
  5
663
330
5
100
AcDbSymbolTableRecord
100
AcDbLinetypeTableRecord
  2
CENTER
 70
     0
  3
Center ____ _ ____ _ ____ _ ____ _ ____ _ ____
 72
    65
 73
     4
 40
2.0
 49
1.25
 74
     0
 49
-0.25
 74
     0
 49
0.25
 74
     0
 49
-0.25
 74
     0
  0
LTYPE
  5
6B2
330
5
100
AcDbSymbolTableRecord
100
AcDbLinetypeTableRecord
  2
ASULTYPE
 70
     0
  3
Solid line
 72
    65
 73
     2
 40
3.0
 49
2.5
 74
     0
 49
0.5
 74
     0
  0
LTYPE
  5
6B3
330
5
100
AcDbSymbolTableRecord
100
AcDbLinetypeTableRecord
  2
ASVLTYPE
 70
     0
  3
__ __ __ __ __ __ __ __ __ __ __ __ __ __ __ __ __ __ __ __ __
 72
    65
 73
     2
 40
0.75
 49
0.5
 74
     0
 49
-0.25
 74
     0
  0
LTYPE
  5
6FE
330
5
100
AcDbSymbolTableRecord
100
AcDbLinetypeTableRecord
  2
AM_ISO02W050
 70
     0
  3
__ __ __ __ __ __ __ __ __ __ __ __ __ __ __
 72
    65
 73
     2
 40
7.5
 49
6.0
 74
     0
 49
-1.5
 74
     0
  0
LTYPE
  5
6FF
330
5
100
AcDbSymbolTableRecord
100
AcDbLinetypeTableRecord
  2
AM_ISO08W050
 70
     0
  3
____ . ____ . ____ . ____ . ____ . ____ . ____
 72
    65
 73
     4
 40
18.0
 49
12.0
 74
     0
 49
-1.5
 74
     0
 49
3.0
 74
     0
 49
-1.5
 74
     0
  0
LTYPE
  5
700
330
5
100
AcDbSymbolTableRecord
100
AcDbLinetypeTableRecord
  2
AM_ISO09W050
 70
     0
  3
_____ . . _____ . . _____ . . ____ .. ____
 72
    65
 73
     6
 40
22.5
 49
12.0
 74
     0
 49
-1.5
 74
     0
 49
3.0
 74
     0
 49
-1.5
 74
     0
 49
3.0
 74
     0
 49
-1.5
 74
     0
  0
LTYPE
  5
701
330
5
100
AcDbSymbolTableRecord
100
AcDbLinetypeTableRecord
  2
Amconstr
 70
     0
  3
_______________________
 72
    65
 73
     2
 40
9999.0
 49
9999.0
 74
     0
 49
0.0
 74
     0
  0
LTYPE
  5
702
330
5
100
AcDbSymbolTableRecord
100
AcDbLinetypeTableRecord
  2
AM_ISO08W050x2
 70
     0
  3
__ . __ . __ . __ . __ . __
 72
    65
 73
     4
 40
9.0
 49
6.0
 74
     0
 49
-0.75
 74
     0
 49
1.5
 74
     0
 49
-0.75
 74
     0
  0
LTYPE
  5
703
330
5
100
AcDbSymbolTableRecord
100
AcDbLinetypeTableRecord
  2
AM_ISO02W050x2
 70
     0
  3
 _ _ _ _ _ _ _ _ _ _ _ _
 72
    65
 73
     2
 40
3.75
 49
3.0
 74
     0
 49
-0.75
 74
     0
  0
LTYPE
  5
706
330
5
100
AcDbSymbolTableRecord
100
AcDbLinetypeTableRecord
  2
Amzigzag
 70
     0
  3
/\/-/\/-/\/-/\/-/\/-/\/
 72
    65
 73
     2
 40
11.0001
 49
0.0001
 74
     4
 75
   136
340
705
 46
0.04
 50
0.0
 44
0.0
 45
0.0
 49
-11.0
 74
     0
  0
LTYPE
  5
707
330
5
100
AcDbSymbolTableRecord
100
AcDbLinetypeTableRecord
  2
CENTER2
 70
     0
  3
Center (.5x) ___ _ ___ _ ___ _ ___ _ ___ _ ___
 72
    65
 73
     4
 40
1.125
 49
0.75
 74
     0
 49
-0.125
 74
     0
 49
0.125
 74
     0
 49
-0.125
 74
     0
  0
LTYPE
  5
708
330
5
100
AcDbSymbolTableRecord
100
AcDbLinetypeTableRecord
  2
HIDDEN2
 70
     0
  3
Hidden (.5x) _ _ _ _ _ _ _ _ _ _ _ _ _ _ _ _ _
 72
    65
 73
     2
 40
0.1875
 49
0.125
 74
     0
 49
-0.0625
 74
     0
  0
LTYPE
  5
709
330
5
100
AcDbSymbolTableRecord
100
AcDbLinetypeTableRecord
  2
Amzigzag2
 70
     0
  3
/\/-/\/-/\/-/\/-/\/-/\/
 72
    65
 73
     2
 40
0.4401
 49
0.0001
 74
     4
 75
   136
340
705
 46
0.0016
 50
0.0
 44
0.0
 45
0.0
 49
-0.4400000000000002
 74
     0
  0
LTYPE
  5
718
330
5
100
AcDbSymbolTableRecord
100
AcDbLinetypeTableRecord
  2
ACANSTGB
 70
     0
  3
__ . . __ . .
 72
    65
 73
     6
 40
0.35433070866
 49
0.15748031496
 74
     0
 49
-0.03937007874
 74
     0
 49
0.03937007874
 74
     0
 49
-0.03937007874
 74
     0
 49
0.03937007874
 74
     0
 49
-0.03937007874
 74
     0
  0
LTYPE
  5
719
330
5
100
AcDbSymbolTableRecord
100
AcDbLinetypeTableRecord
  2
ACANSTGL
 70
     0
  3
_ _ _ _ _
 72
    65
 73
     2
 40
0.11811023622
 49
0.07874015748
 74
     0
 49
-0.03937007874
 74
     0
  0
ENDTAB
  0
TABLE
  2
LAYER
  5
2
102
{ACAD_XDICTIONARY
360
76B
102
}
330
0
100
AcDbSymbolTable
 70
     9
  0
LAYER
  5
10
330
2
100
AcDbSymbolTableRecord
100
AcDbLayerTableRecord
  2
0
 70
     0
 62
     7
  6
Continuous
370
    -3
390
F
  0
LAYER
  5
768
330
2
100
AcDbSymbolTableRecord
100
AcDbLayerTableRecord
  2
Part
 70
     0
 62
     1
  6
Continuous
370
    -3
390
F
1001
AcAecLayerStandard
1000

1000

  0
LAYER
  5
778
330
2
100
AcDbSymbolTableRecord
100
AcDbLayerTableRecord
  2
Label
 70
     0
 62
    30
  6
Continuous
370
    -3
390
F
1001
AcAecLayerStandard
1000

1000

  0
LAYER
  5
9CF
330
2
100
AcDbSymbolTableRecord
100
AcDbLayerTableRecord
  2
Defpoints
 70
     0
 62
     7
  6
Continuous
290
     0
370
    -3
390
F
  0
LAYER
  5
E06
330
2
100
AcDbSymbolTableRecord
100
AcDbLayerTableRecord
  2
Dimensions
 70
     0
 62
     4
  6
Continuous
370
    -3
390
F
1001
AcAecLayerStandard
1000

1000

  0
LAYER
  5
E07
330
2
100
AcDbSymbolTableRecord
100
AcDbLayerTableRecord
  2
Notes
 70
     0
 62
     3
  6
Continuous
370
    -3
390
F
1001
AcAecLayerStandard
1000

1000

  0
LAYER
  5
10C6
330
2
100
AcDbSymbolTableRecord
100
AcDbLayerTableRecord
  2
Schematics
 70
     0
 62
   220
  6
Continuous
370
    -3
390
F
1001
AcAecLayerStandard
1000

1000

  0
LAYER
  5
23E2
330
2
100
AcDbSymbolTableRecord
100
AcDbLayerTableRecord
  2
clips
 70
     0
 62
    20
  6
Continuous
370
    -3
390
F
1001
AcAecLayerStandard
1000

1000

  0
LAYER
  5
23E3
330
2
100
AcDbSymbolTableRecord
100
AcDbLayerTableRecord
  2
IPT
 70
     0
 62
     8
  6
Continuous
370
    -3
390
F
1001
AcAecLayerStandard
1000

1000

  0
ENDTAB
  0
TABLE
  2
STYLE
  5
3
330
0
100
AcDbSymbolTable
 70
     6
  0
STYLE
  5
11
330
3
100
AcDbSymbolTableRecord
100
AcDbTextStyleTableRecord
  2
Standard
 70
     0
 40
0.0
 41
1.0
 50
0.0
 71
     0
 42
0.2
  3
ARIAL.TTF
  4

1001
ACAD
1000
Arial
1071
       34
  0
STYLE
  5
705
330
3
100
AcDbSymbolTableRecord
100
AcDbTextStyleTableRecord
  2

 70
     1
 40
0.0
 41
1.0
 50
0.0
 71
     0
 42
0.2
  3
genltshp.shx
  4

  0
STYLE
  5
70A
330
3
100
AcDbSymbolTableRecord
100
AcDbTextStyleTableRecord
  2
ACANSTS
 70
     0
 40
1.0
 41
1.0
 50
0.0
 71
     0
 42
0.2
  3
romans.shx
  4

  0
STYLE
  5
717
330
3
100
AcDbSymbolTableRecord
100
AcDbTextStyleTableRecord
  2
ACANSGDT
 70
     0
 40
0.0
 41
1.0
 50
0.0
 71
     0
 42
0.2
  3
amgdt.shx
  4

  0
STYLE
  5
779
330
3
100
AcDbSymbolTableRecord
100
AcDbTextStyleTableRecord
  2
ADESK1
 70
     0
 40
0.0
 41
1.0
 50
0.0
 71
     0
 42
0.12
  3
romans.shx
  4

  0
STYLE
  5
BD5
330
3
100
AcDbSymbolTableRecord
100
AcDbTextStyleTableRecord
  2
ARIALNARROW
 70
     0
 40
0.0
 41
1.0
 50
0.0
 71
     0
 42
0.06
  3
ARIALN.TTF
  4

1001
ACAD
1000
Arial Narrow
1071
       34
  0
ENDTAB
  0
TABLE
  2
VIEW
  5
6
330
0
100
AcDbSymbolTable
 70
     0
  0
ENDTAB
  0
TABLE
  2
UCS
  5
7
330
0
100
AcDbSymbolTable
 70
     0
  0
ENDTAB
  0
TABLE
  2
APPID
  5
9
330
0
100
AcDbSymbolTable
 70
    20
  0
APPID
  5
12
330
9
100
AcDbSymbolTableRecord
100
AcDbRegAppTableRecord
  2
ACAD
 70
     0
  0
APPID
  5
62B
330
9
100
AcDbSymbolTableRecord
100
AcDbRegAppTableRecord
  2
GENIUS_GENDIM_13
 70
     0
  0
APPID
  5
62C
330
9
100
AcDbSymbolTableRecord
100
AcDbRegAppTableRecord
  2
GENIUS_GENDTOL_13
 70
     0
  0
APPID
  5
62D
330
9
100
AcDbSymbolTableRecord
100
AcDbRegAppTableRecord
  2
GENIUS_GE3DTOL_13
 70
     0
  0
APPID
  5
630
330
9
100
AcDbSymbolTableRecord
100
AcDbRegAppTableRecord
  2
MCAD_NO_VIS
 70
     0
  0
APPID
  5
631
330
9
100
AcDbSymbolTableRecord
100
AcDbRegAppTableRecord
  2
ACAD_TEMP_GRAPHIC
 70
     0
  0
APPID
  5
665
330
9
100
AcDbSymbolTableRecord
100
AcDbRegAppTableRecord
  2
AD_DRAW
 70
     0
  0
APPID
  5
668
330
9
100
AcDbSymbolTableRecord
100
AcDbRegAppTableRecord
  2
ACATTRIBSERVICES
 70
     0
  0
APPID
  5
6B4
330
9
100
AcDbSymbolTableRecord
100
AcDbRegAppTableRecord
  2
ASURF_PCURVE_APPNAME
 70
     0
  0
APPID
  5
6B9
330
9
100
AcDbSymbolTableRecord
100
AcDbRegAppTableRecord
  2
AMG_3D2D_5.0
 70
     0
  0
APPID
  5
6EA
330
9
100
AcDbSymbolTableRecord
100
AcDbRegAppTableRecord
  2
DESIGNERASSEMBLIES
 70
     0
  0
APPID
  5
6F5
330
9
100
AcDbSymbolTableRecord
100
AcDbRegAppTableRecord
  2
ACADM_DIM_EDIT
 70
     0
  0
APPID
  5
6F6
330
9
100
AcDbSymbolTableRecord
100
AcDbRegAppTableRecord
  2
AMDT_DM_ADJ
 70
     0
  0
APPID
  5
73F
330
9
100
AcDbSymbolTableRecord
100
AcDbRegAppTableRecord
  2
ACAD_EXEMPT_FROM_CAD_STANDARDS
 70
     0
  0
APPID
  5
769
330
9
100
AcDbSymbolTableRecord
100
AcDbRegAppTableRecord
  2
AcAecLayerStandard
 70
     0
  0
APPID
  5
76A
330
9
100
AcDbSymbolTableRecord
100
AcDbRegAppTableRecord
  2
ACAD_PSEXT
 70
     0
  0
APPID
  5
77E
330
9
100
AcDbSymbolTableRecord
100
AcDbRegAppTableRecord
  2
ACAD_DSTYLE_DIMJOGGED_JOGANGLE_SYMBOL
 70
     0
  0
APPID
  5
1B4E
330
9
100
AcDbSymbolTableRecord
100
AcDbRegAppTableRecord
  2
DCO15
 70
     0
  0
APPID
  5
208E
330
9
100
AcDbSymbolTableRecord
100
AcDbRegAppTableRecord
  2
ACAD_DSTYLE_DIM_LINETYPE
 70
     0
  0
APPID
  5
2097
330
9
100
AcDbSymbolTableRecord
100
AcDbRegAppTableRecord
  2
ACAD_DSTYLE_DIMARC_LENGTH_SYMBOL
 70
     0
  0
ENDTAB
  0
TABLE
  2
DIMSTYLE
  5
A
330
0
100
AcDbSymbolTable
 70
    11
100
AcDbDimStyleTable
 71
     1
340
27
  0
DIMSTYLE
105
27
330
A
100
AcDbSymbolTableRecord
100
AcDbDimStyleTableRecord
  2
Standard
 70
     0
176
   256
177
   256
178
   256
271
     2
272
     2
340
11
371
    -1
1001
ACAD_DSTYLE_DIM_LINETYPE
1070
   380
1005
15
  0
DIMSTYLE
105
724
330
A
100
AcDbSymbolTableRecord
100
AcDbDimStyleTableRecord
  2
AM_ANSI
 70
     0
  4
mm
 41
0.1
 42
0.05
 43
0.5
 44
0.1
 47
0.1
 48
0.1
 78
     7
 79
     2
140
0.12
141
0.0
146
0.71
147
0.06
176
   256
177
   256
178
     2
274
     4
284
     7
340
11
371
    -1
372
    -1
1001
ACAD_DSTYLE_DIMARC_LENGTH_SYMBOL
1070
   379
1070
     1
  0
DIMSTYLE
105
725
330
A
100
AcDbSymbolTableRecord
100
AcDbDimStyleTableRecord
  2
AM_ANSI$3
 70
     0
  4
mm
 41
0.1
 42
0.05
 43
0.5
 44
0.1
 47
0.1
 48
0.1
 78
     7
 79
     2
140
0.12
141
0.0
146
0.71
147
0.06
176
   256
177
   256
178
     2
274
     4
284
     7
288
     1
289
     0
340
11
371
    -1
372
    -1
1001
ACAD_DSTYLE_DIMARC_LENGTH_SYMBOL
1070
   379
1070
     1
  0
DIMSTYLE
105
726
330
A
100
AcDbSymbolTableRecord
100
AcDbDimStyleTableRecord
  2
AM_ANSI$4
 70
     0
  4
mm
 41
0.1
 42
0.05
 43
0.5
 44
0.1
 47
0.1
 48
0.1
 78
     7
 79
     2
140
0.12
141
0.0
146
0.71
147
0.06
176
   256
177
   256
178
     2
274
     4
284
     7
288
     1
289
     0
340
11
371
    -1
372
    -1
1001
ACAD_DSTYLE_DIMARC_LENGTH_SYMBOL
1070
   379
1070
     1
  0
DIMSTYLE
105
727
330
A
100
AcDbSymbolTableRecord
100
AcDbDimStyleTableRecord
  2
AM_ANSI$7
 70
     0
  4
mm
 41
0.1
 42
0.05
 43
0.5
 44
0.1
 47
0.1
 48
0.1
 78
     7
 79
     2
140
0.24
141
0.0
146
0.71
147
0.06
176
   256
177
   256
178
     2
274
     4
284
     7
340
11
371
    -1
372
    -1
1001
ACAD_DSTYLE_DIMARC_LENGTH_SYMBOL
1070
   379
1070
     1
  0
DIMSTYLE
105
728
330
A
100
AcDbSymbolTableRecord
100
AcDbDimStyleTableRecord
  2
AM_ANSI$SF
 70
     0
  4
mm
 41
0.1
 42
0.05
 43
0.5
 44
0.1
 47
0.1
 48
0.1
 75
     1
 76
     1
 78
     7
 79
     2
140
0.12
141
0.0
146
0.71
147
0.06
176
   256
177
   256
178
     2
274
     4
284
     7
340
11
371
    -1
372
    -1
1001
ACAD_DSTYLE_DIMARC_LENGTH_SYMBOL
1070
   379
1070
     1
  0
DIMSTYLE
105
72D
330
A
100
AcDbSymbolTableRecord
100
AcDbDimStyleTableRecord
  2
AM_ANSI$SH
 70
     0
  4
mm
 41
0.1
 42
0.05
 43
0.5
 44
0.1
 47
0.1
 48
0.1
 75
     1
 76
     1
 78
     7
 79
     2
140
0.12
141
0.0
146
0.71
147
0.06
173
     1
176
   256
177
   256
178
     2
274
     4
284
     7
340
11
343
729
371
    -1
372
    -1
1001
ACAD_DSTYLE_DIMARC_LENGTH_SYMBOL
1070
   379
1070
     1
  0
DIMSTYLE
105
77A
330
A
100
AcDbSymbolTableRecord
100
AcDbDimStyleTableRecord
  2
AM_BSI
 70
     0
  4
mm
 41
0.1574803149606299
 42
0.05
 43
0.5
 44
0.1
 47
0.1
 48
0.1
 73
     0
 74
     0
 77
     1
 78
     7
 79
     2
140
0.12
141
0.0
146
0.71
147
0.06
172
     1
176
   256
177
   256
178
     2
274
     4
283
     0
284
     7
340
11
371
    -1
372
    -1
  0
DIMSTYLE
105
77B
330
A
100
AcDbSymbolTableRecord
100
AcDbDimStyleTableRecord
  2
AM_DIN
 70
     0
  4
mm
 41
0.1
 42
0.05
 43
0.5
 44
0.1
 47
0.1
 48
0.1
 73
     0
 74
     0
 77
     1
 78
     7
 79
     2
140
0.12
141
0.0
146
0.71
147
0.06
172
     1
176
   256
177
   256
178
     2
274
     4
283
     0
284
     7
340
11
371
    -1
372
    -1
  0
DIMSTYLE
105
77C
330
A
100
AcDbSymbolTableRecord
100
AcDbDimStyleTableRecord
  2
AM_ISO
 70
     0
  4
mm
 41
0.1
 42
0.05
 43
0.5
 44
0.1
 47
0.1
 48
0.1
 73
     0
 74
     0
 77
     1
 78
     7
 79
     2
140
0.12
141
0.0
146
0.71
147
0.06
172
     1
176
   256
177
   256
178
     2
274
     4
283
     0
284
     7
340
11
371
    -1
372
    -1
  0
DIMSTYLE
105
77D
330
A
100
AcDbSymbolTableRecord
100
AcDbDimStyleTableRecord
  2
AM_JIS
 70
     0
  4
mm
 41
0.1
 42
0.05
 43
0.5
 44
0.1
 47
0.1
 48
0.1
 73
     0
 74
     0
 77
     3
 78
     7
 79
     2
140
0.12
141
0.0
146
0.71
147
0.06
172
     1
176
   256
177
   256
178
     2
274
     4
283
     0
284
     7
340
11
371
    -1
372
    -1
  0
ENDTAB
  0
TABLE
  2
BLOCK_RECORD
  5
1
330
0
100
AcDbSymbolTable
 70
    16
  0
BLOCK_RECORD
  5
1F
102
{ACAD_XDICTIONARY
360
730
102
}
330
1
100
AcDbSymbolTableRecord
100
AcDbBlockTableRecord
  2
*Model_Space
340
22
  0
BLOCK_RECORD
  5
1B
330
1
100
AcDbSymbolTableRecord
100
AcDbBlockTableRecord
  2
*Paper_Space
340
1E
  0
BLOCK_RECORD
  5
23
330
1
100
AcDbSymbolTableRecord
100
AcDbBlockTableRecord
  2
*Paper_Space0
340
26
  0
BLOCK_RECORD
  5
729
330
1
100
AcDbSymbolTableRecord
100
AcDbBlockTableRecord
  2
GENAXEH
340
0
  0
BLOCK_RECORD
  5
759
102
{ACAD_XDICTIONARY
360
75A
102
}
330
1
100
AcDbSymbolTableRecord
100
AcDbBlockTableRecord
  2
2termTB
340
0
  0
BLOCK_RECORD
  5
11EB
102
{ACAD_XDICTIONARY
360
11F1
102
}
330
1
100
AcDbSymbolTableRecord
100
AcDbBlockTableRecord
  2
A$C6A7A731C
340
0
1001
ACAD
1000
DesignCenter Data
1002
{
1070
     1
1070
     1
1002
}
  0
BLOCK_RECORD
  5
23E4
102
{ACAD_XDICTIONARY
360
247C
102
}
330
1
100
AcDbSymbolTableRecord
100
AcDbBlockTableRecord
  2
A$C1EBD6F55
340
0
1001
ACAD
1000
DesignCenter Data
1002
{
1070
     1
1070
     1
1002
}
  0
BLOCK_RECORD
  5
251B
102
{ACAD_XDICTIONARY
360
251C
102
}
330
1
100
AcDbSymbolTableRecord
100
AcDbBlockTableRecord
  2
A$C75AE1F7B
340
0
102
{BLKREFS
331
2525
102
}
1001
ACAD
1000
DesignCenter Data
1002
{
1070
     1
1070
     1
1002
}
  0
BLOCK_RECORD
  5
2524
102
{ACAD_XDICTIONARY
360
2526
102
}
330
1
100
AcDbSymbolTableRecord
100
AcDbBlockTableRecord
  2
A$C1A9A7DAB
340
0
102
{BLKREFS
331
252B
102
}
1001
ACAD
1000
DesignCenter Data
1002
{
1070
     1
1070
     1
1002
}
  0
ENDTAB
  0
ENDSEC
  0
SECTION
  2
BLOCKS
  0
BLOCK
  5
20
330
1F
100
AcDbEntity
  8
0
100
AcDbBlockBegin
  2
*Model_Space
 70
     0
 10
0.0
 20
0.0
 30
0.0
  3
*Model_Space
  1

  0
ENDBLK
  5
21
330
1F
100
AcDbEntity
  8
0
100
AcDbBlockEnd
  0
BLOCK
  5
1C
330
1B
100
AcDbEntity
 67
     1
  8
0
100
AcDbBlockBegin
  2
*Paper_Space
 70
     0
 10
0.0
 20
0.0
 30
0.0
  3
*Paper_Space
  1

  0
ENDBLK
  5
1D
330
1B
100
AcDbEntity
 67
     1
  8
0
100
AcDbBlockEnd
  0
BLOCK
  5
24
330
23
100
AcDbEntity
 67
     1
  8
0
100
AcDbBlockBegin
  2
*Paper_Space0
 70
     0
 10
0.0
 20
0.0
 30
0.0
  3
*Paper_Space0
  1

  0
ENDBLK
  5
25
330
23
100
AcDbEntity
 67
     1
  8
0
100
AcDbBlockEnd
  0
BLOCK
  5
72B
330
729
100
AcDbEntity
  8
0
100
AcDbBlockBegin
  2
GENAXEH
 70
     0
 10
0.0
 20
0.0
 30
0.0
  3
GENAXEH
  1

  0
LINE
  5
72A
330
729
100
AcDbEntity
  8
0
100
AcDbLine
 10
-1.0
 20
0.0
 30
0.0
 11
1.0
 21
0.0
 31
0.0
  0
ENDBLK
  5
72C
330
729
100
AcDbEntity
  8
0
100
AcDbBlockEnd
  0
BLOCK
  5
75C
330
759
100
AcDbEntity
  8
0
370
    13
100
AcDbBlockBegin
  2
2termTB
 70
     0
 10
0.0
 20
0.0
 30
0.0
  3
2termTB
  1

  0
LINE
  5
75D
330
759
100
AcDbEntity
  8
0
370
    13
100
AcDbLine
 10
0.2920000000000016
 20
-0.2631529999999991
 30
0.0
 11
0.2920000000000016
 21
0.2238170000000004
 31
0.0
  0
LINE
  5
75E
330
759
100
AcDbEntity
  8
0
370
    13
100
AcDbLine
 10
-0.097999999999999
 20
-0.2631529999999991
 30
0.0
 11
-0.097999999999999
 21
0.2238170000000004
 31
0.0
  0
LINE
  5
75F
330
759
100
AcDbEntity
  8
0
370
    13
100
AcDbLine
 10
-0.097999999999999
 20
-0.2631529999999991
 30
0.0
 11
0.2920000000000016
 21
-0.2631529999999991
 31
0.0
  0
LINE
  5
760
330
759
100
AcDbEntity
  8
0
370
    13
100
AcDbLine
 10
0.2920000000000016
 20
0.2238170000000004
 30
0.0
 11
-0.097999999999999
 21
0.2238170000000004
 31
0.0
  0
CIRCLE
  5
761
330
759
100
AcDbEntity
  8
0
370
    13
100
AcDbCircle
 10
0.1960000000000015
 20
0.0000000000000036
 30
0.0
 40
0.07
  0
LINE
  5
762
330
759
100
AcDbEntity
  8
0
370
    13
100
AcDbLine
 10
0.056060862667529
 20
0.0419187270438002
 30
0.0
 11
-0.0419187270437966
 21
-0.056060862667529
 31
0.0
  0
CIRCLE
  5
763
330
759
100
AcDbEntity
  8
0
370
    13
100
AcDbCircle
 10
0.0
 20
0.0
 30
0.0
 40
0.07
  0
LINE
  5
764
330
759
100
AcDbEntity
  8
0
370
    13
100
AcDbLine
 10
-0.056060862667529
 20
-0.0419187270437966
 30
0.0
 11
0.0419187270437931
 21
0.0560608626675325
 31
0.0
  0
LINE
  5
765
330
759
100
AcDbEntity
  8
0
370
    13
100
AcDbLine
 10
0.252060862667534
 20
0.0419187270437966
 30
0.0
 11
0.1540812729562049
 21
-0.056060862667529
 31
0.0
  0
LINE
  5
766
330
759
100
AcDbEntity
  8
0
370
    13
100
AcDbLine
 10
0.1399391373324725
 20
-0.0419187270437966
 30
0.0
 11
0.2379187270438017
 21
0.0560608626675325
 31
0.0
  0
CIRCLE
  5
1C43
330
759
100
AcDbEntity
  8
0
370
    13
100
AcDbCircle
 10
7.50721351886179
 20
-12.40614188176079
 30
0.0
 40
0.07
  0
LINE
  5
1C44
330
759
100
AcDbEntity
  8
0
370
    13
100
AcDbLine
 10
7.367274381529316
 20
-12.36422315471699
 30
0.0
 11
7.269294791817991
 21
-12.46220274442832
 31
0.0
  0
CIRCLE
  5
1C45
330
759
100
AcDbEntity
  8
0
370
    13
100
AcDbCircle
 10
7.311213518861787
 20
-12.40614188176079
 30
0.0
 40
0.07
  0
LINE
  5
1C46
330
759
100
AcDbEntity
  8
0
370
    13
100
AcDbLine
 10
7.255152656194258
 20
-12.44806060880459
 30
0.0
 11
7.35313224590558
 21
-12.35008101909326
 31
0.0
  0
LINE
  5
1C47
330
759
100
AcDbEntity
  8
0
370
    13
100
AcDbLine
 10
7.563274381529321
 20
-12.364223154717
 30
0.0
 11
7.465294791817991
 21
-12.46220274442832
 31
0.0
  0
LINE
  5
1C48
330
759
100
AcDbEntity
  8
0
370
    13
100
AcDbLine
 10
7.451152656194261
 20
-12.44806060880459
 30
0.0
 11
7.54913224590559
 21
-12.35008101909326
 31
0.0
  0
ENDBLK
  5
767
330
759
100
AcDbEntity
  8
0
370
    13
100
AcDbBlockEnd
  0
BLOCK
  5
11F3
330
11EB
100
AcDbEntity
  8
0
100
AcDbBlockBegin
  2
A$C6A7A731C
 70
     0
 10
0.0
 20
0.0
 30
0.0
  3
A$C6A7A731C
  1

  0
LINE
  5
11EC
330
11EB
100
AcDbEntity
  8
Notes
100
AcDbLine
 10
-0.0000000127473072
 20
1.245239436155985
 30
0.0
 11
-0.0000000127473072
 21
-0.0000002219505184
 31
0.0
  0
LINE
  5
11ED
330
11EB
100
AcDbEntity
  8
Notes
100
AcDbLine
 10
-0.0000000127473072
 20
-0.0000002219505184
 30
0.0
 11
5.240167473394933
 21
-0.0000002219505175
 31
0.0
  0
LINE
  5
11EE
330
11EB
100
AcDbEntity
  8
Notes
100
AcDbLine
 10
5.240167473394933
 20
-0.0000002219505184
 30
0.0
 11
5.240167473394933
 21
1.245239436155985
 31
0.0
  0
LINE
  5
11EF
330
11EB
100
AcDbEntity
  8
Notes
100
AcDbLine
 10
5.240167473394933
 20
1.245239436155985
 30
0.0
 11
-0.0000000127473072
 21
1.245239436155985
 31
0.0
  0
MTEXT
  5
11F0
330
11EB
100
AcDbEntity
  8
Notes
100
AcDbMText
 10
0.2843377923562116
 20
1.032018750749497
 30
0.0
 40
0.7213951671996856
 41
39.706792877338
 71
     1
 72
     5
  1
{\fArial Narrow|b0|i0|c0|p34;SPA (TPRG)}
 73
     1
 44
1.0
1001
ACAD
1000
MTEXTBEGIN
1070
    73
1070
     1
1070
    44
1040
1.0
1070
    74
1070
     0
1000
MTEXTEND
  0
ENDBLK
  5
11F4
330
11EB
100
AcDbEntity
  8
0
100
AcDbBlockEnd
  0
BLOCK
  5
247E
330
23E4
100
AcDbEntity
  8
0
100
AcDbBlockBegin
  2
A$C1EBD6F55
 70
     0
 10
0.0
 20
0.0
 30
0.0
  3
A$C1EBD6F55
  1

  0
LINE
  5
23E5
330
23E4
100
AcDbEntity
  8
Part
100
AcDbLine
 10
-6.361432606290208
 20
-1.562499999999998
 30
0.0
 11
-3.115432606290207
 21
-1.562499999999998
 31
0.0
  0
LINE
  5
23E6
330
23E4
100
AcDbEntity
  8
Part
100
AcDbLine
 10
-3.051432606290207
 20
1.5625
 30
0.0
 11
-3.051432606290207
 21
-1.388499999999998
 31
0.0
  0
LINE
  5
23E7
330
23E4
100
AcDbEntity
  8
Part
100
AcDbLine
 10
-3.115432606290208
 20
-1.413499999999997
 30
0.0
 11
-3.115432606290207
 21
-1.562499999999998
 31
0.0
  0
ARC
  5
23E8
330
23E4
100
AcDbEntity
  8
Part
100
AcDbCircle
 10
-3.090432606290208
 20
-1.413499999999997
 30
0.0
 40
0.025
100
AcDbArc
 50
89.99999999999836
 51
180.0000000000003
  0
LINE
  5
23E9
330
23E4
100
AcDbEntity
  8
Part
100
AcDbLine
 10
-6.361432606290208
 20
-1.562499999999998
 30
0.0
 11
-6.361432606290208
 21
0.5875000000000004
 31
0.0
  0
HATCH
  5
23EA
330
23E4
100
AcDbEntity
  8
Notes
100
AcDbHatch
 10
0.0
 20
0.0
 30
0.0
210
0.0
220
0.0
230
1.0
  2
ANSI31
 70
     0
 71
     0
 91
        1
 92
        7
 72
     1
 73
     1
 93
      118
 10
-6.389432575426283
 20
-1.185999999999998
 42
0.0
 10
-6.402732596889721
 20
-1.185999999999998
 42
0.0
 10
-6.402732596889722
 20
-1.208284930873794
 42
-1.0
 10
-6.412732596889719
 20
-1.208284930873794
 42
0.0
 10
-6.412732596889719
 20
-1.185999999999996
 42
0.0
 10
-6.775432606290205
 20
-1.185999999999998
 42
-1.0
 10
-6.775432606290205
 20
-0.8539999999999974
 42
0.0
 10
-6.412732596889719
 20
-0.8539999999999974
 42
0.0
 10
-6.412732596889719
 20
-0.8317150691262025
 42
-1.0
 10
-6.402732596889722
 20
-0.8317150691262025
 42
0.0
 10
-6.402732596889723
 20
-0.8539999999999956
 42
0.0
 10
-6.389432575426284
 20
-0.8539999999999956
 42
0.0
 10
-6.389432575426284
 20
-0.7755000231479113
 42
-0.2360683847984863
 10
-6.399432606290208
 20
-0.755500000000005
 42
0.0
 10
-6.399432606290208
 20
-0.5605000000000011
 42
-0.2360683847984928
 10
-6.389432575426282
 20
-0.5404999768520949
 42
0.0
 10
-6.389432575426282
 20
-0.326257579541851
 42
-0.373646923313084
 10
-6.432432606290205
 20
-0.2767499999999874
 42
0.0
 10
-6.432432606290205
 20
-0.1687499999999904
 42
-0.3736469233130862
 10
-6.389432575426282
 20
-0.1192424204581268
 42
0.0
 10
-6.389432575426282
 20
0.4269706028961302
 42
-0.0005249484355921
 10
-6.389432575426282
 20
0.4270293971047146
 42
0.0
 10
-6.389432575426282
 20
0.5124999999999958
 42
0.414213562373095
 10
-6.464432575426278
 20
0.5874999999999951
 42
0.0
 10
-6.985939566510415
 20
0.5875000000000128
 42
0.0
 10
-7.022086597555649
 20
0.7924999999999969
 42
0.0
 10
-7.188379496197946
 20
0.792499999999988
 42
0.0
 10
-7.188379496197945
 20
0.7125000000000057
 42
0.4142135623730951
 10
-7.168379496197942
 20
0.6925000000000061
 42
0.0
 10
-7.125432575426279
 20
0.6925000000000044
 42
0.0
 10
-7.125432575426279
 20
0.7324999999999929
 42
0.0
 10
-7.072432575426275
 20
0.7325000000000017
 42
0.0
 10
-7.050043212542603
 20
0.6055236133250049
 42
-0.4663076581550256
 10
-7.123903794018523
 20
0.5174999999999877
 42
0.0
 10
-7.188379496197945
 20
0.5174999999999912
 42
0.0
 10
-7.195432575426279
 20
0.4774999999999832
 42
0.0
 10
-7.265432575426279
 20
0.4774999999999921
 42
0.0
 10
-7.26543257542628
 20
0.517499999999977
 42
0.0
 10
-7.289432575426281
 20
0.4934999999999761
 42
0.0
 10
-7.289432575426281
 20
0.4174999999999987
 42
0.0
 10
-6.63443257542628
 20
0.417500000000004
 42
-0.4142135623730951
 10
-6.559432575426277
 20
0.3425000000000011
 42
0.0
 10
-6.559432575426277
 20
0.0224999999999511
 42
-0.4142135623731199
 10
-6.634432575426287
 20
-0.0525000000000482
 42
0.0
 10
-6.989432575426277
 20
-0.0525000000000233
 42
0.0
 10
-6.989432575426278
 20
-0.1325000000000216
 42
0.0
 10
-6.789432575426282
 20
-0.1325000000000127
 42
0.0
 10
-6.78943257542628
 20
-0.2025000000000166
 42
0.0
 10
-6.854432575426279
 20
-0.2675000000000196
 42
0.0
 10
-6.989432575426276
 20
-0.2675000000000125
 42
0.0
 10
-6.989432575426277
 20
-0.5275000000000034
 42
-0.4142135623730951
 10
-7.06443257542628
 20
-0.6025000000000027
 42
0.0
 10
-7.099432575426282
 20
-0.6025000000000134
 42
0.0
 10
-7.099432575426284
 20
-0.6425000000000125
 42
0.0
 10
-6.89943257542628
 20
-0.6424999999999983
 42
0.0
 10
-6.899432575426279
 20
-0.7125000000000004
 42
0.0
 10
-6.964432575426279
 20
-0.7775000000000034
 42
0.0
 10
-7.099432575426284
 20
-0.7775000000000017
 42
0.0
 10
-7.099432575426284
 20
-0.7925000000000093
 42
0.0
 10
-7.31443257542628
 20
-0.792500000000004
 42
0.4142135623730951
 10
-7.389432575426282
 20
-0.8675000000000068
 42
0.0
 10
-7.389432575426283
 20
-1.792500000000003
 42
0.0
 10
-6.539432575426281
 20
-1.792500000000019
 42
0.0
 10
-6.539432575426282
 20
-1.742500000000005
 42
0.0
 10
-6.489432575426284
 20
-1.7425
 42
0.0
 10
-6.489432575426284
 20
-1.792500000000003
 42
0.0
 10
-6.439432575426279
 20
-1.792500000000019
 42
0.0
 10
-6.439432575426278
 20
-1.742499999999992
 42
0.0
 10
-6.389432575426282
 20
-1.742500000000006
 42
0.0
 10
-6.389432575426282
 20
-1.792500000000004
 42
0.0
 10
-6.339432575426278
 20
-1.79250000000001
 42
0.0
 10
-6.339432575426277
 20
-1.742499999999999
 42
0.0
 10
-6.289432575426281
 20
-1.742500000000006
 42
0.0
 10
-6.28943257542628
 20
-1.792500000000004
 42
0.0
 10
-6.239432575426283
 20
-1.792500000000011
 42
0.0
 10
-6.239432575426283
 20
-1.7425
 42
0.0
 10
-6.18943257542628
 20
-1.742500000000005
 42
0.0
 10
-6.18943257542628
 20
-1.792500000000002
 42
0.0
 10
-6.139432575426281
 20
-1.792500000000011
 42
0.0
 10
-6.139432575426282
 20
-1.742499999999998
 42
0.0
 10
-6.089432575426278
 20
-1.742500000000007
 42
0.0
 10
-6.089432575426278
 20
-1.792500000000003
 42
0.0
 10
-6.03943257542628
 20
-1.792500000000011
 42
0.0
 10
-6.039432575426279
 20
-1.7425
 42
0.0
 10
-5.989432575426277
 20
-1.742500000000013
 42
0.0
 10
-5.989432575426278
 20
-1.792500000000003
 42
0.0
 10
-5.939432575426279
 20
-1.79250000000001
 42
0.0
 10
-5.93943257542628
 20
-1.742499967416844
 42
0.0
 10
-5.890122203747685
 20
-1.734224103556678
 42
0.0
 10
-5.881902249099659
 20
-1.783543831444851
 42
0.0
 10
-5.8325918721383
 20
-1.775267966698073
 42
0.0
 10
-5.840811826786326
 20
-1.725948238809905
 42
0.0
 10
-5.791501449824978
 20
-1.717672374063127
 42
0.0
 10
-5.783281495176942
 20
-1.766992101951294
 42
0.0
 10
-5.73397111821559
 20
-1.758716237204531
 42
0.0
 10
-5.742191072863618
 20
-1.709396509316341
 42
0.0
 10
-5.69288069590226
 20
-1.70112064456957
 42
0.0
 10
-5.684660741254234
 20
-1.750440372457737
 42
0.0
 10
-5.635350364292874
 20
-1.742164507710967
 42
0.0
 10
-5.643570318940907
 20
-1.692844779822785
 42
0.0
 10
-5.59425994197955
 20
-1.684568915076001
 42
0.0
 10
-5.586039987331517
 20
-1.733888642964196
 42
0.0
 10
-5.536729610370165
 20
-1.725612778217396
 42
0.0
 10
-5.5449495650182
 20
-1.676293050329206
 42
0.0
 10
-5.49563918805684
 20
-1.668017185582444
 42
0.0
 10
-5.487419233408814
 20
-1.717336913470608
 42
0.0
 10
-5.438108856447455
 20
-1.709061048723832
 42
0.0
 10
-5.44632881109549
 20
-1.659741320835655
 42
0.0
 10
-5.397018434134132
 20
-1.651465456088878
 42
0.0
 10
-5.388798479486103
 20
-1.700785183977039
 42
0.0
 10
-5.339432575426278
 20
-1.692500000000002
 42
0.0
 10
-5.339432575426278
 20
-1.592499999999995
 42
0.0
 10
-6.68943257542628
 20
-1.592500000000008
 42
0.0
 10
-6.68943257542628
 20
-1.398101538522418
 42
-0.4400105308918409
 10
-6.6078958947202
 20
-1.323386936165537
 42
0.0
 10
-6.399432606290212
 20
-1.341625110664505
 42
0.0
 10
-6.399432606290214
 20
-1.284499999999999
 42
-0.2360683847985967
 10
-6.389432575426282
 20
-1.264499976852086
 42
0.0
 97
        0
 75
     0
 76
     1
 52
0.0
 41
0.25
 77
     0
 78
     1
 53
45.0
 43
0.6041709829277142
 44
-9.72398443799619
 45
-0.0220970869120796
 46
0.0220970869120796
 79
     0
 47
0.0081689379855959
 98
        1
 10
-7.11071100898525
 20
-1.213322679247392
1001
ACAD
1010
0.0
1020
0.0
1030
0.0
  0
LINE
  5
23EB
330
23E4
100
AcDbEntity
  8
Part
100
AcDbLine
 10
-6.399432606290208
 20
-0.7555000000000032
 30
0.0
 11
-6.399432606290208
 21
-0.5605000000000011
 31
0.0
  0
ARC
  5
23EC
330
23E4
100
AcDbEntity
  8
Part
100
AcDbCircle
 10
-6.374432606290208
 20
-0.5605000000000011
 30
0.0
 40
0.025
100
AcDbArc
 50
90.00000000000261
 51
180.0
  0
ARC
  5
23ED
330
23E4
100
AcDbEntity
  8
Part
100
AcDbCircle
 10
-6.374432606290208
 20
-0.7555000000000032
 30
0.0
 40
0.025
100
AcDbArc
 50
180.0
 51
270.0000000000027
  0
LINE
  5
23EE
330
23E4
100
AcDbEntity
  8
Part
100
AcDbLine
 10
-3.051432606290207
 20
1.5625
 30
0.0
 11
-6.861432606290208
 21
1.5625
 31
0.0
  0
LINE
  5
23EF
330
23E4
100
AcDbEntity
  8
Part
100
AcDbLine
 10
-3.051432606290207
 20
-1.388499999999998
 30
0.0
 11
-3.090432606290207
 21
-1.388499999999996
 31
0.0
  0
LINE
  5
23F0
330
23E4
100
AcDbEntity
  8
Part
100
AcDbLine
 10
-6.361432606290208
 20
0.5875000000000004
 30
0.0
 11
-6.861432606290208
 21
0.5875000000000004
 31
0.0
  0
LINE
  5
23F1
330
23E4
100
AcDbEntity
  8
Part
100
AcDbLine
 10
-6.861432606290208
 20
1.5625
 30
0.0
 11
-6.861432606290208
 21
0.5875000000000004
 31
0.0
  0
LINE
  5
23F2
330
23E4
100
AcDbEntity
  8
Part
100
AcDbLine
 10
-3.051432606290207
 20
-1.388499999999998
 30
0.0
 11
-2.823432606290207
 21
-1.388499999999998
 31
0.0
  0
LINE
  5
23F3
330
23E4
100
AcDbEntity
  8
Part
100
AcDbLine
 10
-3.051432606290207
 20
-1.296499999999998
 30
0.0
 11
-2.823432606290207
 21
-1.296499999999998
 31
0.0
  0
LINE
  5
23F4
330
23E4
100
AcDbEntity
  8
Part
100
AcDbLine
 10
-2.823432606290207
 20
-1.491999999999997
 30
0.0
 11
-2.823432606290207
 21
-1.388499999999998
 31
0.0
  0
LINE
  5
23F5
330
23E4
100
AcDbEntity
  8
Part
100
AcDbLine
 10
-2.823432606290207
 20
-1.296499999999998
 30
0.0
 11
-2.823432606290207
 21
-1.192999999999997
 31
0.0
  0
ARC
  5
23F6
330
23E4
100
AcDbEntity
  8
Part
100
AcDbCircle
 10
-2.773432606290207
 20
-1.192999999999997
 30
0.0
 40
0.05
100
AcDbArc
 50
90.0
 51
180.0
  0
ARC
  5
23F7
330
23E4
100
AcDbEntity
  8
Part
100
AcDbCircle
 10
-2.773432606290207
 20
-1.491999999999997
 30
0.0
 40
0.05
100
AcDbArc
 50
180.0
 51
270.0
  0
HATCH
  5
23F8
330
23E4
100
AcDbEntity
  8
Part
100
AcDbHatch
 10
0.0
 20
0.0
 30
0.0
210
0.0
220
0.0
230
1.0
  2
SOLID
 70
     1
 71
     1
 91
        1
 92
        7
 72
     1
 73
     1
 93
        6
 10
-2.729432606290207
 20
-1.462999999999997
 42
0.4142135623730952
 10
-2.704432606290208
 20
-1.487999999999997
 42
0.0
 10
-2.677400605911892
 20
-1.487999999999997
 42
0.0
 10
-2.677400605911893
 20
-1.196999999999997
 42
0.0
 10
-2.704432606290208
 20
-1.196999999999997
 42
0.4142135623731055
 10
-2.729432606290209
 20
-1.221999999999997
 42
0.0
 97
        6
330
23FD
330
23FA
330
23F9
330
23FB
330
23FF
330
2402
 75
     0
 76
     1
 47
0.0022198402391061
 98
        1
 10
-2.706316919413363
 20
-1.330998088384381
1001
ACAD
1010
0.0
1020
0.0
1030
0.0
  0
LINE
  5
23F9
102
{ACAD_REACTORS
330
23F8
102
}
330
23E4
100
AcDbEntity
  8
Part
100
AcDbLine
 10
-2.729432606290207
 20
-1.462999999999997
 30
0.0
 11
-2.729432606290209
 21
-1.221999999999997
 31
0.0
  0
ARC
  5
23FA
102
{ACAD_REACTORS
330
23F8
102
}
330
23E4
100
AcDbEntity
  8
Part
100
AcDbCircle
 10
-2.704432606290208
 20
-1.221999999999997
 30
0.0
 40
0.025
100
AcDbArc
 50
90.0
 51
180.0
  0
ARC
  5
23FB
102
{ACAD_REACTORS
330
23F8
102
}
330
23E4
100
AcDbEntity
  8
Part
100
AcDbCircle
 10
-2.704432606290207
 20
-1.462999999999997
 30
0.0
 40
0.025
100
AcDbArc
 50
180.0
 51
270.0
  0
LINE
  5
23FC
330
23E4
100
AcDbEntity
  8
Part
100
AcDbLine
 10
-2.773432606290207
 20
-1.142999999999998
 30
0.0
 11
-2.667432606290208
 21
-1.142999999999998
 31
0.0
  0
LINE
  5
23FD
102
{ACAD_REACTORS
330
23F8
102
}
330
23E4
100
AcDbEntity
  8
Part
100
AcDbLine
 10
-2.704432606290208
 20
-1.196999999999997
 30
0.0
 11
-2.667432606290208
 21
-1.196999999999997
 31
0.0
  0
LINE
  5
23FE
330
23E4
100
AcDbEntity
  8
Part
100
AcDbLine
 10
-2.773432606290207
 20
-1.541999999999998
 30
0.0
 11
-2.667432606290208
 21
-1.541999999999998
 31
0.0
  0
LINE
  5
23FF
102
{ACAD_REACTORS
330
23F8
102
}
330
23E4
100
AcDbEntity
  8
Part
100
AcDbLine
 10
-2.704432606290207
 20
-1.487999999999997
 30
0.0
 11
-2.667432606290208
 21
-1.487999999999997
 31
0.0
  0
LINE
  5
2400
330
23E4
100
AcDbEntity
  8
Part
100
AcDbLine
 10
-2.667432606290208
 20
-1.541999999999998
 30
0.0
 11
-2.667432606290207
 21
-1.487999999999997
 31
0.0
  0
LINE
  5
2401
330
23E4
100
AcDbEntity
  8
Part
100
AcDbLine
 10
-2.667432606290208
 20
-1.196999999999997
 30
0.0
 11
-2.667432606290208
 21
-1.142999999999998
 31
0.0
  0
LINE
  5
2402
102
{ACAD_REACTORS
330
23F8
102
}
330
23E4
100
AcDbEntity
  8
Part
100
AcDbLine
 10
-2.677400605911893
 20
-1.196999999999997
 30
0.0
 11
-2.677400605911892
 21
-1.487999999999997
 31
0.0
  0
LINE
  5
2403
330
23E4
100
AcDbEntity
  8
Part
  6
Continuous
100
AcDbLine
 10
-6.246932606290187
 20
-1.381249999999992
 30
0.0
 11
-6.246932606290187
 21
-1.421999999999997
 31
0.0
  0
LINE
  5
2404
330
23E4
100
AcDbEntity
  8
Part
  6
Continuous
100
AcDbLine
 10
-6.246932606290187
 20
-1.452999999999994
 30
0.0
 11
-6.246932606290187
 21
-1.493749999999998
 31
0.0
  0
LINE
  5
2405
330
23E4
100
AcDbEntity
  8
Part
  6
Continuous
100
AcDbLine
 10
-6.21593260629018
 20
-1.493749999999998
 30
0.0
 11
-6.21593260629018
 21
-1.452999999999994
 31
0.0
  0
LINE
  5
2406
330
23E4
100
AcDbEntity
  8
Part
  6
Continuous
100
AcDbLine
 10
-6.21593260629018
 20
-1.421999999999997
 30
0.0
 11
-6.21593260629018
 21
-1.381249999999992
 31
0.0
  0
LINE
  5
2407
330
23E4
100
AcDbEntity
  8
Part
  6
Continuous
100
AcDbLine
 10
-6.175182606290178
 20
-1.452999999999994
 30
0.0
 11
-6.175182606290178
 21
-1.421999999999997
 31
0.0
  0
LINE
  5
2408
330
23E4
100
AcDbEntity
  8
Part
  6
Continuous
100
AcDbLine
 10
-6.246932606290187
 20
-1.493749999999998
 30
0.0
 11
-6.21593260629018
 21
-1.493749999999998
 31
0.0
  0
LINE
  5
2409
330
23E4
100
AcDbEntity
  8
Part
  6
Continuous
100
AcDbLine
 10
-6.287682606290189
 20
-1.452999999999994
 30
0.0
 11
-6.246932606290187
 21
-1.452999999999994
 31
0.0
  0
LINE
  5
240A
330
23E4
100
AcDbEntity
  8
Part
  6
Continuous
100
AcDbLine
 10
-6.21593260629018
 20
-1.452999999999994
 30
0.0
 11
-6.175182606290178
 21
-1.452999999999994
 31
0.0
  0
LINE
  5
240B
330
23E4
100
AcDbEntity
  8
Part
  6
Continuous
100
AcDbLine
 10
-6.175182606290178
 20
-1.421999999999997
 30
0.0
 11
-6.21593260629018
 21
-1.421999999999997
 31
0.0
  0
LINE
  5
240C
330
23E4
100
AcDbEntity
  8
Part
  6
Continuous
100
AcDbLine
 10
-6.246932606290187
 20
-1.421999999999997
 30
0.0
 11
-6.287682606290189
 21
-1.421999999999997
 31
0.0
  0
LINE
  5
240D
330
23E4
100
AcDbEntity
  8
Part
  6
Continuous
100
AcDbLine
 10
-6.21593260629018
 20
-1.381249999999992
 30
0.0
 11
-6.246932606290187
 21
-1.381249999999992
 31
0.0
  0
CIRCLE
  5
240E
330
23E4
100
AcDbEntity
  8
Part
  6
Continuous
100
AcDbCircle
 10
-6.231432606290154
 20
-1.437499999999998
 30
0.0
 40
0.1075
  0
LINE
  5
240F
330
23E4
100
AcDbEntity
  8
Part
100
AcDbLine
 10
-6.287682606290189
 20
-1.421999999999997
 30
0.0
 11
-6.287682606290189
 21
-1.452999999999994
 31
0.0
  0
LINE
  5
2410
330
23E4
100
AcDbEntity
  8
Part
  6
Continuous
100
AcDbLine
 10
-3.252119652234732
 20
-1.381249999999992
 30
0.0
 11
-3.252119652234732
 21
-1.421999999999997
 31
0.0
  0
LINE
  5
2411
330
23E4
100
AcDbEntity
  8
Part
  6
Continuous
100
AcDbLine
 10
-3.252119652234732
 20
-1.452999999999994
 30
0.0
 11
-3.252119652234732
 21
-1.493749999999998
 31
0.0
  0
LINE
  5
2412
330
23E4
100
AcDbEntity
  8
Part
  6
Continuous
100
AcDbLine
 10
-3.221119652234725
 20
-1.493749999999998
 30
0.0
 11
-3.221119652234725
 21
-1.452999999999994
 31
0.0
  0
LINE
  5
2413
330
23E4
100
AcDbEntity
  8
Part
  6
Continuous
100
AcDbLine
 10
-3.221119652234725
 20
-1.421999999999997
 30
0.0
 11
-3.221119652234725
 21
-1.381249999999992
 31
0.0
  0
LINE
  5
2414
330
23E4
100
AcDbEntity
  8
Part
  6
Continuous
100
AcDbLine
 10
-3.180369652234722
 20
-1.452999999999994
 30
0.0
 11
-3.180369652234722
 21
-1.421999999999997
 31
0.0
  0
LINE
  5
2415
330
23E4
100
AcDbEntity
  8
Part
  6
Continuous
100
AcDbLine
 10
-3.252119652234732
 20
-1.493749999999998
 30
0.0
 11
-3.221119652234725
 21
-1.493749999999998
 31
0.0
  0
LINE
  5
2416
330
23E4
100
AcDbEntity
  8
Part
  6
Continuous
100
AcDbLine
 10
-3.292869652234734
 20
-1.452999999999994
 30
0.0
 11
-3.252119652234732
 21
-1.452999999999994
 31
0.0
  0
LINE
  5
2417
330
23E4
100
AcDbEntity
  8
Part
  6
Continuous
100
AcDbLine
 10
-3.221119652234725
 20
-1.452999999999994
 30
0.0
 11
-3.180369652234722
 21
-1.452999999999994
 31
0.0
  0
LINE
  5
2418
330
23E4
100
AcDbEntity
  8
Part
  6
Continuous
100
AcDbLine
 10
-3.180369652234722
 20
-1.421999999999997
 30
0.0
 11
-3.221119652234725
 21
-1.421999999999997
 31
0.0
  0
LINE
  5
2419
330
23E4
100
AcDbEntity
  8
Part
  6
Continuous
100
AcDbLine
 10
-3.252119652234732
 20
-1.421999999999997
 30
0.0
 11
-3.292869652234734
 21
-1.421999999999997
 31
0.0
  0
LINE
  5
241A
330
23E4
100
AcDbEntity
  8
Part
  6
Continuous
100
AcDbLine
 10
-3.221119652234725
 20
-1.381249999999992
 30
0.0
 11
-3.252119652234732
 21
-1.381249999999992
 31
0.0
  0
CIRCLE
  5
241B
330
23E4
100
AcDbEntity
  8
Part
  6
Continuous
100
AcDbCircle
 10
-3.2366196522347
 20
-1.437499999999998
 30
0.0
 40
0.1075
  0
LINE
  5
241C
330
23E4
100
AcDbEntity
  8
Part
100
AcDbLine
 10
-3.292869652234734
 20
-1.421999999999997
 30
0.0
 11
-3.292869652234734
 21
-1.452999999999994
 31
0.0
  0
LINE
  5
241D
330
23E4
100
AcDbEntity
  8
Part
  6
Continuous
100
AcDbLine
 10
-6.757357092868253
 20
1.49826467393853
 30
0.0
 11
-6.757357092868253
 21
1.457514673938531
 31
0.0
  0
LINE
  5
241E
330
23E4
100
AcDbEntity
  8
Part
  6
Continuous
100
AcDbLine
 10
-6.757357092868253
 20
1.42651467393853
 30
0.0
 11
-6.757357092868253
 21
1.385764673938531
 31
0.0
  0
LINE
  5
241F
330
23E4
100
AcDbEntity
  8
Part
  6
Continuous
100
AcDbLine
 10
-6.726357092868248
 20
1.385764673938531
 30
0.0
 11
-6.726357092868248
 21
1.42651467393853
 31
0.0
  0
LINE
  5
2420
330
23E4
100
AcDbEntity
  8
Part
  6
Continuous
100
AcDbLine
 10
-6.726357092868248
 20
1.457514673938531
 30
0.0
 11
-6.726357092868248
 21
1.49826467393853
 31
0.0
  0
LINE
  5
2421
330
23E4
100
AcDbEntity
  8
Part
  6
Continuous
100
AcDbLine
 10
-6.685607092868244
 20
1.42651467393853
 30
0.0
 11
-6.685607092868244
 21
1.457514673938531
 31
0.0
  0
LINE
  5
2422
330
23E4
100
AcDbEntity
  8
Part
  6
Continuous
100
AcDbLine
 10
-6.757357092868253
 20
1.385764673938531
 30
0.0
 11
-6.726357092868248
 21
1.385764673938531
 31
0.0
  0
LINE
  5
2423
330
23E4
100
AcDbEntity
  8
Part
  6
Continuous
100
AcDbLine
 10
-6.798107092868256
 20
1.42651467393853
 30
0.0
 11
-6.757357092868253
 21
1.42651467393853
 31
0.0
  0
LINE
  5
2424
330
23E4
100
AcDbEntity
  8
Part
  6
Continuous
100
AcDbLine
 10
-6.726357092868248
 20
1.42651467393853
 30
0.0
 11
-6.685607092868244
 21
1.42651467393853
 31
0.0
  0
LINE
  5
2425
330
23E4
100
AcDbEntity
  8
Part
  6
Continuous
100
AcDbLine
 10
-6.685607092868244
 20
1.457514673938531
 30
0.0
 11
-6.726357092868248
 21
1.457514673938531
 31
0.0
  0
LINE
  5
2426
330
23E4
100
AcDbEntity
  8
Part
  6
Continuous
100
AcDbLine
 10
-6.757357092868253
 20
1.457514673938531
 30
0.0
 11
-6.798107092868256
 21
1.457514673938531
 31
0.0
  0
LINE
  5
2427
330
23E4
100
AcDbEntity
  8
Part
  6
Continuous
100
AcDbLine
 10
-6.726357092868248
 20
1.49826467393853
 30
0.0
 11
-6.757357092868253
 21
1.49826467393853
 31
0.0
  0
CIRCLE
  5
2428
330
23E4
100
AcDbEntity
  8
Part
  6
Continuous
100
AcDbCircle
 10
-6.741857092868223
 20
1.442014673938521
 30
0.0
 40
0.1075
  0
LINE
  5
2429
330
23E4
100
AcDbEntity
  8
Part
100
AcDbLine
 10
-6.798107092868256
 20
1.457514673938531
 30
0.0
 11
-6.798107092868256
 21
1.42651467393853
 31
0.0
  0
LINE
  5
242A
330
23E4
100
AcDbEntity
  8
Part
  6
Continuous
100
AcDbLine
 10
-3.301189296984389
 20
1.49826467393853
 30
0.0
 11
-3.301189296984389
 21
1.457514673938531
 31
0.0
  0
LINE
  5
242B
330
23E4
100
AcDbEntity
  8
Part
  6
Continuous
100
AcDbLine
 10
-3.301189296984389
 20
1.42651467393853
 30
0.0
 11
-3.301189296984389
 21
1.385764673938531
 31
0.0
  0
LINE
  5
242C
330
23E4
100
AcDbEntity
  8
Part
  6
Continuous
100
AcDbLine
 10
-3.270189296984383
 20
1.385764673938531
 30
0.0
 11
-3.270189296984383
 21
1.42651467393853
 31
0.0
  0
LINE
  5
242D
330
23E4
100
AcDbEntity
  8
Part
  6
Continuous
100
AcDbLine
 10
-3.270189296984383
 20
1.457514673938531
 30
0.0
 11
-3.270189296984383
 21
1.49826467393853
 31
0.0
  0
LINE
  5
242E
330
23E4
100
AcDbEntity
  8
Part
  6
Continuous
100
AcDbLine
 10
-3.22943929698438
 20
1.42651467393853
 30
0.0
 11
-3.22943929698438
 21
1.457514673938531
 31
0.0
  0
LINE
  5
242F
330
23E4
100
AcDbEntity
  8
Part
  6
Continuous
100
AcDbLine
 10
-3.301189296984389
 20
1.385764673938531
 30
0.0
 11
-3.270189296984383
 21
1.385764673938531
 31
0.0
  0
LINE
  5
2430
330
23E4
100
AcDbEntity
  8
Part
  6
Continuous
100
AcDbLine
 10
-3.341939296984392
 20
1.42651467393853
 30
0.0
 11
-3.301189296984389
 21
1.42651467393853
 31
0.0
  0
LINE
  5
2431
330
23E4
100
AcDbEntity
  8
Part
  6
Continuous
100
AcDbLine
 10
-3.270189296984383
 20
1.42651467393853
 30
0.0
 11
-3.22943929698438
 21
1.42651467393853
 31
0.0
  0
LINE
  5
2432
330
23E4
100
AcDbEntity
  8
Part
  6
Continuous
100
AcDbLine
 10
-3.22943929698438
 20
1.457514673938531
 30
0.0
 11
-3.270189296984383
 21
1.457514673938531
 31
0.0
  0
LINE
  5
2433
330
23E4
100
AcDbEntity
  8
Part
  6
Continuous
100
AcDbLine
 10
-3.301189296984389
 20
1.457514673938531
 30
0.0
 11
-3.341939296984392
 21
1.457514673938531
 31
0.0
  0
LINE
  5
2434
330
23E4
100
AcDbEntity
  8
Part
  6
Continuous
100
AcDbLine
 10
-3.270189296984383
 20
1.49826467393853
 30
0.0
 11
-3.301189296984389
 21
1.49826467393853
 31
0.0
  0
CIRCLE
  5
2435
330
23E4
100
AcDbEntity
  8
Part
  6
Continuous
100
AcDbCircle
 10
-3.285689296984357
 20
1.442014673938521
 30
0.0
 40
0.1075
  0
LINE
  5
2436
330
23E4
100
AcDbEntity
  8
Part
100
AcDbLine
 10
-3.341939296984392
 20
1.457514673938531
 30
0.0
 11
-3.341939296984392
 21
1.42651467393853
 31
0.0
  0
LINE
  5
2437
330
23E4
100
AcDbEntity
  8
Part
100
AcDbLine
 10
-6.361432606290208
 20
-0.5354999999999972
 30
0.0
 11
-6.374432606290208
 21
-0.5354999999999972
 31
0.0
  0
LINE
  5
2438
330
23E4
100
AcDbEntity
  8
Part
100
AcDbLine
 10
-6.361432606290208
 20
-0.7804999999999982
 30
0.0
 11
-6.374432606290206
 21
-0.7805000000000036
 31
0.0
  0
LINE
  5
2439
330
23E4
100
AcDbEntity
  8
Part
100
AcDbLine
 10
-6.361432606290208
 20
-1.437499999999998
 30
0.0
 11
-6.374432606290208
 21
-1.437500000000003
 31
0.0
  0
LINE
  5
243A
330
23E4
100
AcDbEntity
  8
Part
100
AcDbLine
 10
-6.361432606290216
 20
-1.259499999999997
 30
0.0
 11
-6.374432606290215
 21
-1.259499999999997
 31
0.0
  0
LINE
  5
243B
330
23E4
100
AcDbEntity
  8
Part
100
AcDbLine
 10
-6.39943260629021
 20
-1.412500000000004
 30
0.0
 11
-6.399432606290214
 21
-1.284499999999999
 31
0.0
  0
ARC
  5
243C
330
23E4
100
AcDbEntity
  8
Part
100
AcDbCircle
 10
-6.374432606290214
 20
-1.284499999999997
 30
0.0
 40
0.025
100
AcDbArc
 50
90.00000000000261
 51
180.0000000000023
  0
ARC
  5
243D
330
23E4
100
AcDbEntity
  8
Part
100
AcDbCircle
 10
-6.374432606290208
 20
-1.412500000000003
 30
0.0
 40
0.025
100
AcDbArc
 50
180.0000000000025
 51
270.0000000000027
  0
ARC
  5
243E
330
23E4
100
AcDbEntity
  8
Part
100
AcDbCircle
 10
-6.775432606290205
 20
-1.019999999999997
 30
0.0
 40
0.166
100
AcDbArc
 50
90.0
 51
270.0
  0
LINE
  5
243F
330
23E4
100
AcDbEntity
  8
Part
100
AcDbLine
 10
-6.361432606290208
 20
-0.8539999999999974
 30
0.0
 11
-6.402732596889722
 21
-0.8539999999999974
 31
0.0
  0
LINE
  5
2440
330
23E4
100
AcDbEntity
  8
Part
100
AcDbLine
 10
-6.412732596889719
 20
-0.8539999999999974
 30
0.0
 11
-6.775432606290205
 21
-0.8539999999999974
 31
0.0
  0
LINE
  5
2441
330
23E4
100
AcDbEntity
  8
Part
100
AcDbLine
 10
-6.361432606290208
 20
-1.185999999999998
 30
0.0
 11
-6.402732596889722
 21
-1.185999999999998
 31
0.0
  0
LINE
  5
2442
330
23E4
100
AcDbEntity
  8
Part
100
AcDbLine
 10
-6.412732596889719
 20
-1.185999999999998
 30
0.0
 11
-6.775432606290205
 21
-1.185999999999998
 31
0.0
  0
LINE
  5
2443
330
23E4
100
AcDbEntity
  8
Part
100
AcDbLine
 10
-6.402732596889722
 20
-0.8317150691262025
 30
0.0
 11
-6.402732596889722
 21
-1.208284930873794
 31
0.0
  0
LINE
  5
2444
330
23E4
100
AcDbEntity
  8
Part
100
AcDbLine
 10
-6.412732596889719
 20
-0.8317150691262025
 30
0.0
 11
-6.412732596889719
 21
-1.208284930873794
 31
0.0
  0
ARC
  5
2445
330
23E4
100
AcDbEntity
  8
Part
100
AcDbCircle
 10
-6.407732596889722
 20
-0.8317150691262025
 30
0.0
 40
0.0049999999999999
100
AcDbArc
 50
0.0
 51
180.0
  0
ARC
  5
2446
330
23E4
100
AcDbEntity
  8
Part
100
AcDbCircle
 10
-6.407732596889722
 20
-1.208284930873794
 30
0.0
 40
0.0049999999999999
100
AcDbArc
 50
180.0
 51
0.0
  0
ARC
  5
2447
330
23E4
100
AcDbEntity
  8
Part
100
AcDbCircle
 10
-6.361432596002233
 20
0.5299999999999994
 30
0.0
 40
0.028
100
AcDbArc
 50
100.404881318159
 51
259.5951186818409
  0
ARC
  5
2448
330
23E4
100
AcDbEntity
  8
Part
100
AcDbCircle
 10
-6.361432590858245
 20
0.4269999999999996
 30
0.0
 40
0.028
100
AcDbArc
 50
100.4048920201718
 51
259.59510797983
  0
ARC
  5
2449
330
23E4
100
AcDbEntity
  8
Part
100
AcDbCircle
 10
-6.361432585714258
 20
0.3239999999999998
 30
0.0
 40
0.028
100
AcDbArc
 50
100.4049027221827
 51
259.5950972778171
  0
ARC
  5
244A
330
23E4
100
AcDbEntity
  8
Part
100
AcDbCircle
 10
-6.361432580570268
 20
0.2210000000000036
 30
0.0
 40
0.028
100
AcDbArc
 50
100.4049134241938
 51
259.5950865758061
  0
ARC
  5
244B
330
23E4
100
AcDbEntity
  8
Part
100
AcDbCircle
 10
-6.361432575426283
 20
0.1180000000000039
 30
0.0
 40
0.028
100
AcDbArc
 50
100.4049241262061
 51
270.0
  0
LINE
  5
244C
330
23E4
100
AcDbEntity
  8
Part
100
AcDbLine
 10
-6.366489478323333
 20
0.5875000000000004
 30
0.0
 11
-6.366489478323333
 21
0.5575395704612589
 31
0.0
  0
LINE
  5
244D
330
23E4
100
AcDbEntity
  8
Part
100
AcDbLine
 10
-6.366489478323333
 20
0.5024604295387399
 30
0.0
 11
-6.366489478323333
 21
0.4545395695167099
 31
0.0
  0
LINE
  5
244E
330
23E4
100
AcDbEntity
  8
Part
100
AcDbLine
 10
-6.366489478323333
 20
0.3994604304833
 30
0.0
 11
-6.366489478323333
 21
0.3515395685721501
 31
0.0
  0
LINE
  5
244F
330
23E4
100
AcDbEntity
  8
Part
100
AcDbLine
 10
-6.366489478323333
 20
0.2964604314278496
 30
0.0
 11
-6.366489478323333
 21
0.2485395676276028
 31
0.0
  0
LINE
  5
2450
330
23E4
100
AcDbEntity
  8
Part
100
AcDbLine
 10
-6.366489478323333
 20
0.1934604323724045
 30
0.0
 11
-6.366489478323333
 21
0.1455395666830466
 31
0.0
  0
LINE
  5
2451
330
23E4
100
AcDbEntity
  8
Part
100
AcDbLine
 10
-6.361432606290208
 20
0.090000000000023
 30
0.0
 11
-6.361432606290208
 21
-0.5354999999999972
 31
0.0
  0
LINE
  5
2452
330
23E4
100
AcDbEntity
  8
Part
100
AcDbLine
 10
-6.361432606290208
 20
-0.1187499999999915
 30
0.0
 11
-6.382432606290206
 21
-0.1187499999999915
 31
0.0
  0
LINE
  5
2453
330
23E4
100
AcDbEntity
  8
Part
100
AcDbLine
 10
-6.361432606290206
 20
-0.3267499999999881
 30
0.0
 11
-6.382432606290206
 21
-0.3267499999999881
 31
0.0
  0
LINE
  5
2454
330
23E4
100
AcDbEntity
  8
Part
100
AcDbLine
 10
-6.432432606290205
 20
-0.1687499999999904
 30
0.0
 11
-6.432432606290205
 21
-0.2767499999999874
 31
0.0
  0
ARC
  5
2455
330
23E4
100
AcDbEntity
  8
Part
100
AcDbCircle
 10
-6.382432606290206
 20
-0.1687499999999904
 30
0.0
 40
0.05
100
AcDbArc
 50
90.0
 51
180.0000000000003
  0
ARC
  5
2456
330
23E4
100
AcDbEntity
  8
Part
100
AcDbCircle
 10
-6.382432606290206
 20
-0.2767499999999874
 30
0.0
 40
0.05
100
AcDbArc
 50
180.0000000000002
 51
270.0
  0
HATCH
  5
2457
330
23E4
100
AcDbEntity
  8
Part
100
AcDbHatch
 10
0.0
 20
0.0
 30
0.0
210
0.0
220
0.0
230
1.0
  2
SOLID
 70
     1
 71
     0
 91
        2
 92
        7
 72
     0
 73
     1
 93
        8
 10
-3.051432606290207
 20
0.8324999999999906
 10
-2.901432606290216
 20
0.8324999999999906
 10
-2.901432606290216
 20
0.867499999999989
 10
-3.016432606290197
 20
0.8674999999999997
 10
-3.016432606290144
 20
1.287499999999999
 10
-2.901432606290216
 20
1.28749999999999
 10
-2.901432606290216
 20
1.322499999999999
 10
-3.051432606290207
 20
1.322499999999999
 97
        0
 92
        7
 72
     0
 73
     1
 93
       11
 10
-2.416432606290197
 20
0.8674999999999997
 10
-2.416432606290197
 20
0.8324999999999995
 10
-2.356432606290197
 20
0.8324999999999906
 10
-2.356432606290197
 20
1.26249999999999
 10
-2.416432606290197
 20
1.262499999999999
 10
-2.416432606290197
 20
1.20749999999999
 10
-2.685523515381116
 20
1.28749999999999
 10
-2.901432606290216
 20
1.28749999999999
 10
-3.016432606290163
 20
1.287499999999999
 10
-3.016432606290197
 20
0.867499999999989
 10
-2.901432606290216
 20
0.8674999999999997
 97
        0
 75
     0
 76
     1
 47
0.0045914184288575
 98
        2
 10
-3.042236278491725
 20
1.016283503215339
 10
-2.775802744780187
 20
1.0254663341696
1001
ACAD
1010
0.0
1020
0.0
1030
0.0
  0
LINE
  5
2458
330
23E4
100
AcDbEntity
  8
Part
100
AcDbLine
 10
-3.051432606290207
 20
1.322499999999999
 30
0.0
 11
-2.901432606290216
 21
1.322499999999999
 31
0.0
  0
LINE
  5
2459
330
23E4
100
AcDbEntity
  8
Part
100
AcDbLine
 10
-2.901432606290216
 20
1.28749999999999
 30
0.0
 11
-2.685523515381116
 21
1.287499999999999
 31
0.0
  0
LINE
  5
245A
330
23E4
100
AcDbEntity
  8
Part
100
AcDbLine
 10
-2.356432606290197
 20
1.26249999999999
 30
0.0
 11
-2.356432606290197
 21
0.8324999999999906
 31
0.0
  0
LINE
  5
245B
330
23E4
100
AcDbEntity
  8
Part
100
AcDbLine
 10
-2.901432606290216
 20
0.8674999999999997
 30
0.0
 11
-2.901432606290216
 21
0.8324999999999906
 31
0.0
  0
LINE
  5
245C
330
23E4
100
AcDbEntity
  8
Part
100
AcDbLine
 10
-2.416432606290197
 20
1.26249999999999
 30
0.0
 11
-2.416432606290197
 21
1.207499999999999
 31
0.0
  0
LINE
  5
245D
330
23E4
100
AcDbEntity
  8
Part
100
AcDbLine
 10
-2.356432606290197
 20
0.8324999999999906
 30
0.0
 11
-2.416432606290197
 21
0.8324999999999995
 31
0.0
  0
LINE
  5
245E
330
23E4
100
AcDbEntity
  8
Part
100
AcDbLine
 10
-2.416432606290197
 20
0.8674999999999997
 30
0.0
 11
-2.901432606290216
 21
0.8674999999999997
 31
0.0
  0
LINE
  5
245F
330
23E4
100
AcDbEntity
  8
Part
100
AcDbLine
 10
-2.416432606290197
 20
1.207499999999999
 30
0.0
 11
-2.685523515381116
 21
1.287499999999999
 31
0.0
  0
LINE
  5
2460
330
23E4
100
AcDbEntity
  8
Part
100
AcDbLine
 10
-2.356432606290197
 20
1.26249999999999
 30
0.0
 11
-2.416432606290197
 21
1.26249999999999
 31
0.0
  0
LINE
  5
2461
330
23E4
100
AcDbEntity
  8
Part
100
AcDbLine
 10
-2.416432606290197
 20
0.8674999999999997
 30
0.0
 11
-2.416432606290197
 21
0.8324999999999995
 31
0.0
  0
LINE
  5
2462
330
23E4
100
AcDbEntity
  8
Part
100
AcDbLine
 10
-2.901432606290216
 20
0.8324999999999906
 30
0.0
 11
-3.051432606290207
 21
0.8324999999999906
 31
0.0
  0
LINE
  5
2463
330
23E4
100
AcDbEntity
  8
Part
100
AcDbLine
 10
-2.901432606290216
 20
1.28749999999999
 30
0.0
 11
-3.016432606290163
 21
1.287499999999999
 31
0.0
  0
LINE
  5
2464
330
23E4
100
AcDbEntity
  8
Part
100
AcDbLine
 10
-2.901432606290216
 20
0.8674999999999997
 30
0.0
 11
-3.016432606290197
 21
0.8674999999999997
 31
0.0
  0
LINE
  5
2465
330
23E4
100
AcDbEntity
  8
Part
100
AcDbLine
 10
-2.901432606290216
 20
1.322499999999999
 30
0.0
 11
-2.901432606290216
 21
1.28749999999998
 31
0.0
  0
LWPOLYLINE
  5
2466
330
23E4
100
AcDbEntity
  8
Notes
 48
0.25
100
AcDbPolyline
 90
       95
 70
     0
 43
0.0
 10
-5.93943257542628
 20
-1.742499967416847
 10
-5.93943257542628
 20
-1.792500000000011
 10
-5.989432575426277
 20
-1.792500000000003
 10
-5.989432575426277
 20
-1.742500000000013
 10
-6.039432575426281
 20
-1.742499999999999
 10
-6.039432575426281
 20
-1.792500000000011
 10
-6.089432575426278
 20
-1.792500000000003
 10
-6.089432575426278
 20
-1.742500000000006
 10
-6.139432575426282
 20
-1.742499999999999
 10
-6.139432575426282
 20
-1.792500000000011
 10
-6.18943257542628
 20
-1.792500000000003
 10
-6.18943257542628
 20
-1.742500000000006
 10
-6.239432575426284
 20
-1.742499999999999
 10
-6.239432575426284
 20
-1.792500000000011
 10
-6.289432575426281
 20
-1.792500000000003
 10
-6.289432575426281
 20
-1.742500000000006
 10
-6.339432575426278
 20
-1.742499999999999
 10
-6.339432575426278
 20
-1.792500000000011
 10
-6.389432575426282
 20
-1.792500000000003
 10
-6.389432575426282
 20
-1.742500000000006
 10
-6.43943257542628
 20
-1.742499999999992
 10
-6.43943257542628
 20
-1.792500000000018
 10
-6.489432575426284
 20
-1.792500000000003
 10
-6.489432575426284
 20
-1.742499999999999
 10
-6.539432575426281
 20
-1.742500000000006
 10
-6.539432575426281
 20
-1.792500000000018
 10
-7.389432575426282
 20
-1.792500000000003
 10
-7.389432575426282
 20
-0.8675000000000068
 42
-0.4142135623730951
 10
-7.31443257542628
 20
-0.792500000000004
 10
-7.099432575426283
 20
-0.7925000000000111
 10
-7.099432575426283
 20
-0.7775000000000034
 10
-6.964432575426278
 20
-0.7775000000000034
 10
-6.89943257542628
 20
-0.7124999999999986
 10
-6.89943257542628
 20
-0.6424999999999983
 10
-7.099432575426283
 20
-0.6425000000000125
 10
-7.099432575426283
 20
-0.6025000000000134
 10
-7.06443257542628
 20
-0.6025000000000027
 42
0.4142135623730951
 10
-6.989432575426277
 20
-0.5275000000000034
 10
-6.989432575426277
 20
-0.2675000000000125
 10
-6.854432575426279
 20
-0.2675000000000196
 10
-6.789432575426281
 20
-0.2025000000000148
 10
-6.789432575426281
 20
-0.1325000000000145
 10
-6.989432575426277
 20
-0.1325000000000216
 10
-6.989432575426277
 20
-0.0525000000000233
 10
-6.634432575426287
 20
-0.0525000000000482
 42
0.41421356237312
 10
-6.559432575426277
 20
0.0224999999999511
 10
-6.559432575426277
 20
0.3425000000000011
 42
0.4142135623730951
 10
-6.63443257542628
 20
0.417500000000004
 10
-7.289432575426281
 20
0.4174999999999969
 10
-7.289432575426281
 20
0.4934999999999761
 10
-7.26543257542628
 20
0.517499999999977
 10
-7.26543257542628
 20
0.4774999999999921
 10
-7.19543257542628
 20
0.477499999999985
 10
-7.188379496197945
 20
0.5174999999999912
 10
-7.123903794018523
 20
0.5174999999999877
 42
0.4663076581550256
 10
-7.050043212542603
 20
0.6055236133250049
 10
-7.072432575426275
 20
0.7325000000000017
 10
-7.125432575426279
 20
0.7324999999999946
 10
-7.125432575426279
 20
0.6925000000000026
 10
-7.168379496197942
 20
0.6925000000000061
 42
-0.4142135623730951
 10
-7.188379496197945
 20
0.7125000000000057
 10
-7.188379496197945
 20
0.7924999999999898
 10
-7.022086597555648
 20
0.7924999999999969
 10
-6.985939566510416
 20
0.5875000000000128
 10
-6.464432575426278
 20
0.5874999999999951
 42
-0.4142135623730951
 10
-6.389432575426282
 20
0.5124999999999958
 10
-6.389432575426282
 20
-1.342500000000008
 10
-6.6078958947202
 20
-1.323386936165537
 42
0.4400105308918409
 10
-6.68943257542628
 20
-1.398101538522418
 10
-6.68943257542628
 20
-1.592500000000008
 10
-5.339432575426278
 20
-1.592499999999994
 10
-5.339432575426278
 20
-1.692500000000002
 10
-5.388798479486104
 20
-1.700785183977039
 10
-5.397018434134131
 20
-1.651465456088878
 10
-5.446328811095489
 20
-1.659741320835657
 10
-5.438108856447455
 20
-1.709061048723832
 10
-5.487419233408814
 20
-1.71733691347061
 10
-5.49563918805684
 20
-1.668017185582442
 10
-5.544949565018199
 20
-1.676293050329206
 10
-5.536729610370165
 20
-1.725612778217396
 10
-5.586039987331516
 20
-1.733888642964195
 10
-5.59425994197955
 20
-1.684568915075999
 10
-5.643570318940908
 20
-1.692844779822785
 10
-5.635350364292874
 20
-1.742164507710967
 10
-5.684660741254233
 20
-1.750440372457738
 10
-5.692880695902259
 20
-1.70112064456957
 10
-5.742191072863618
 20
-1.709396509316341
 10
-5.733971118215591
 20
-1.758716237204531
 10
-5.783281495176942
 20
-1.766992101951295
 10
-5.791501449824976
 20
-1.717672374063127
 10
-5.840811826786327
 20
-1.725948238809905
 10
-5.8325918721383
 20
-1.775267966698073
 10
-5.881902249099659
 20
-1.783543831444852
 10
-5.890122203747686
 20
-1.734224103556677
 10
-5.939488485489099
 20
-1.742509350920812
  0
LINE
  5
2467
330
23E4
100
AcDbEntity
  8
clips
100
AcDbLine
 10
-3.02883054905953
 20
-1.562500000000003
 30
0.0
 11
-3.02883054905953
 21
-1.445502419725134
 31
0.0
  0
LINE
  5
2468
330
23E4
100
AcDbEntity
  8
clips
100
AcDbLine
 10
-2.997590894938851
 20
-1.592043340361261
 30
0.0
 11
-2.997590894938851
 21
-1.445502419725134
 31
0.0
  0
LINE
  5
2469
330
23E4
100
AcDbEntity
  8
clips
100
AcDbLine
 10
-2.997590894938851
 20
-1.592043340361261
 30
0.0
 11
-6.356516861612887
 21
-1.592043340361261
 31
0.0
  0
LINE
  5
246A
330
23E4
100
AcDbEntity
  8
clips
100
AcDbLine
 10
-2.512432606290221
 20
-1.562500000000003
 30
0.0
 11
-2.786959308452344
 21
-1.562500000000003
 31
0.0
  0
LINE
  5
246B
330
23E4
100
AcDbEntity
  8
clips
100
AcDbLine
 10
-2.512432606290221
 20
-1.592043340361275
 30
0.0
 11
-2.80167152128726
 21
-1.592043340361261
 31
0.0
  0
LINE
  5
246C
330
23E4
100
AcDbEntity
  8
clips
100
AcDbLine
 10
-2.512432606290221
 20
-1.592043340361275
 30
0.0
 11
-2.512432606290206
 21
-1.562500000000003
 31
0.0
  0
LINE
  5
246D
330
23E4
100
AcDbEntity
  8
clips
100
AcDbLine
 10
-2.786959308452344
 20
-1.562500000000003
 30
0.0
 11
-2.934695698340639
 21
-1.413252992002124
 31
0.0
  0
LINE
  5
246E
330
23E4
100
AcDbEntity
  8
clips
100
AcDbLine
 10
-2.80167152128726
 20
-1.592043340361261
 30
0.0
 11
-2.964153323244139
 21
-1.427900147106694
 31
0.0
  0
ARC
  5
246F
330
23E4
100
AcDbEntity
  8
clips
100
AcDbCircle
 10
-2.976238997510271
 20
-1.445502419725134
 30
0.0
 40
0.0525915515492647
100
AcDbArc
 50
37.82164283833636
 51
180.0
  0
ARC
  5
2470
330
23E4
100
AcDbEntity
  8
clips
100
AcDbCircle
 10
-2.976238997510271
 20
-1.445502419725134
 30
0.0
 40
0.0213518974285859
100
AcDbArc
 50
55.52660951372313
 51
180.0
  0
ARC
  5
2471
330
23E4
100
AcDbEntity
  8
IPT
100
AcDbCircle
 10
-2.773432606290206
 20
-1.492
 30
0.0
 40
0.05
100
AcDbArc
 50
180.0
 51
270.0
  0
LINE
  5
2472
330
23E4
100
AcDbEntity
  8
IPT
100
AcDbLine
 10
-2.773432606290206
 20
-1.541999999999998
 30
0.0
 11
-2.667432606290208
 21
-1.541999999999998
 31
0.0
  0
LINE
  5
2473
330
23E4
100
AcDbEntity
  8
IPT
100
AcDbLine
 10
-2.667432606290208
 20
-1.541999999999998
 30
0.0
 11
-2.667432606290208
 21
-1.488000000000003
 31
0.0
  0
LINE
  5
2474
330
23E4
100
AcDbEntity
  8
clips
100
AcDbLine
 10
-3.02883054905953
 20
-1.562500000000003
 30
0.0
 11
-3.339223045218548
 21
-1.562500000000003
 31
0.0
  0
LINE
  5
2475
330
23E4
100
AcDbEntity
  8
Notes
100
AcDbLine
 10
-6.432569629724826
 20
-1.590982275136532
 30
0.0
 11
-6.651863216633942
 21
-1.534695849122476
 31
0.0
  0
LINE
  5
2476
330
23E4
100
AcDbEntity
  8
Notes
100
AcDbLine
 10
-6.425111245000229
 20
-1.561924186808152
 30
0.0
 11
-6.644404831909345
 21
-1.505637760794099
 31
0.0
  0
LINE
  5
2477
330
23E4
100
AcDbEntity
  8
Notes
100
AcDbLine
 10
-6.654302855912715
 20
-1.472891295071022
 30
0.0
 11
-6.530371257219847
 21
-1.335098445183323
 31
0.0
  0
LINE
  5
2478
330
23E4
100
AcDbEntity
  8
Notes
100
AcDbLine
 10
-6.67660827664237
 20
-1.452829684814783
 30
0.0
 11
-6.567776832768248
 21
-1.331825881370173
 31
0.0
  0
ARC
  5
2479
330
23E4
100
AcDbEntity
  8
Notes
100
AcDbCircle
 10
-6.63943257542628
 20
-1.486265701908511
 30
0.0
 40
0.05
100
AcDbArc
 50
138.0316231566404
 51
255.6045585556358
  0
ARC
  5
247A
330
23E4
100
AcDbEntity
  8
Notes
100
AcDbCircle
 10
-6.63943257542628
 20
-1.486265701908511
 30
0.0
 40
0.02
100
AcDbArc
 50
138.0316231566404
 51
255.6045585556358
  0
LINE
  5
247B
330
23E4
100
AcDbEntity
  8
Notes
100
AcDbLine
 10
-6.425111245000229
 20
-1.561924186808152
 30
0.0
 11
-6.361432606290208
 21
-1.562499999999998
 31
0.0
  0
ENDBLK
  5
247F
330
23E4
100
AcDbEntity
  8
0
100
AcDbBlockEnd
  0
BLOCK
  5
251E
330
251B
100
AcDbEntity
  8
0
100
AcDbBlockBegin
  2
A$C75AE1F7B
 70
     0
 10
0.0
 20
0.0
 30
0.0
  3
A$C75AE1F7B
  1

  0
MTEXT
  5
251F
330
251B
100
AcDbEntity
  8
0
100
AcDbMText
 10
0.3171433408724198
 20
-0.7389514448316846
 30
0.0
 40
0.125
 41
0.6342866817448503
 71
     5
 72
     5
  1
2
 73
     1
 44
1.0
1001
ACAD
1000
MTEXTBEGIN
1070
    73
1070
     1
1070
    44
1040
1.0
1070
    74
1070
     0
1000
MTEXTEND
1000
ACAD_MTEXT_DEFINED_HEIGHT_BEGIN
1070
    46
1040
0.2499999999999993
1000
ACAD_MTEXT_DEFINED_HEIGHT_END
  0
MTEXT
  5
2520
330
251B
100
AcDbEntity
  8
0
100
AcDbMText
 10
2.81379436502096
 20
-0.7360126418230735
 30
0.0
 40
0.125
 41
4.359015366552219
 71
     5
 72
     5
  1
DIMENSIONS REMOVED, TERMINAL \PDESIGNATION CORRECTED
 73
     1
 44
1.0
1001
ACAD
1000
MTEXTBEGIN
1070
    73
1070
     1
1070
    44
1040
1.0
1070
    74
1070
     0
1000
MTEXTEND
1000
ACAD_MTEXT_DEFINED_HEIGHT_BEGIN
1070
    46
1040
0.1292633015006892
1000
ACAD_MTEXT_DEFINED_HEIGHT_END
  0
MTEXT
  5
2521
330
251B
100
AcDbEntity
  8
0
100
AcDbMText
 10
5.371651024148526
 20
-0.7389514448316846
 30
0.0
 40
0.125
 41
0.7566979517029218
 71
     5
 72
     5
  1
11/08
 73
     1
 44
1.0
1001
ACAD
1000
MTEXTBEGIN
1070
    73
1070
     1
1070
    44
1040
1.0
1070
    74
1070
     0
1000
MTEXTEND
1000
ACAD_MTEXT_DEFINED_HEIGHT_BEGIN
1070
    46
1040
0.25
1000
ACAD_MTEXT_DEFINED_HEIGHT_END
  0
LINE
  5
2522
330
251B
100
AcDbEntity
  8
0
100
AcDbLine
 10
0.0
 20
-1.0
 30
0.0
 11
5.75
 21
-1.0
 31
0.0
  0
ENDBLK
  5
2523
330
251B
100
AcDbEntity
  8
0
100
AcDbBlockEnd
  0
BLOCK
  5
2528
330
2524
100
AcDbEntity
  8
0
100
AcDbBlockBegin
  2
A$C1A9A7DAB
 70
     0
 10
0.0
 20
0.0
 30
0.0
  3
A$C1A9A7DAB
  1

  0
INSERT
  5
2525
330
2524
100
AcDbEntity
  8
0
100
AcDbBlockReference
  2
A$C75AE1F7B
 10
-0.000000000000004
 20
0.0
 30
0.0
  0
ENDBLK
  5
2529
330
2524
100
AcDbEntity
  8
0
100
AcDbBlockEnd
  0
ENDSEC
  0
SECTION
  2
ENTITIES
  0
LINE
  5
745
330
1F
100
AcDbEntity
  8
Part
100
AcDbLine
 10
-0.6041709829277142
 20
11.28648443799619
 30
0.0
 11
0.9468290170722855
 21
11.28648443799619
 31
0.0
  0
LINE
  5
746
330
1F
100
AcDbEntity
  8
Part
100
AcDbLine
 10
-0.6041709829277142
 20
11.28648443799619
 30
0.0
 11
-0.6041709829277142
 21
8.16148443799619
 31
0.0
  0
LINE
  5
747
330
1F
100
AcDbEntity
  8
Part
100
AcDbLine
 10
-0.6041709829277142
 20
8.16148443799619
 30
0.0
 11
0.9468290170722855
 21
8.16148443799619
 31
0.0
  0
LINE
  5
748
330
1F
100
AcDbEntity
  8
Part
100
AcDbLine
 10
0.9468290170722855
 20
11.28648443799619
 30
0.0
 11
0.9468290170722855
 21
8.16148443799619
 31
0.0
  0
LINE
  5
74D
102
{ACAD_REACTORS
330
A28
330
1D01
102
}
330
1F
100
AcDbEntity
  8
Part
100
AcDbLine
 10
0.8998290170722857
 20
11.28648443799619
 30
0.0
 11
0.8998290170722857
 21
8.16148443799619
 31
0.0
  0
LINE
  5
74E
102
{ACAD_REACTORS
330
A28
102
}
330
1F
100
AcDbEntity
  8
Part
100
AcDbLine
 10
-0.5571709829277142
 20
11.28648443799619
 30
0.0
 11
-0.5571709829277142
 21
8.16148443799619
 31
0.0
  0
LINE
  5
74F
330
1F
100
AcDbEntity
  8
Part
100
AcDbLine
 10
-0.5571709829277142
 20
8.559484437996188
 30
0.0
 11
0.8998290170722857
 21
8.559484437996188
 31
0.0
  0
LINE
  5
750
102
{ACAD_REACTORS
330
A28
102
}
330
1F
100
AcDbEntity
  8
Part
100
AcDbLine
 10
-0.5571709829277144
 20
8.203484437996188
 30
0.0
 11
0.8998290170722855
 21
8.203484437996188
 31
0.0
  0
LINE
  5
751
102
{ACAD_REACTORS
330
A28
102
}
330
1F
100
AcDbEntity
  8
Part
100
AcDbLine
 10
-0.5571709829277142
 20
8.51748443799619
 30
0.0
 11
0.8998290170722857
 21
8.517484437996186
 31
0.0
  0
MTEXT
  5
757
330
1F
100
AcDbEntity
  8
Label
100
AcDbMText
 10
-0.1788049956224695
 20
10.22904239258408
 30
0.0
 40
0.15
 41
0.3621891498354843
 71
     1
 72
     5
  1
{\fArial Narrow|b1|i0|c0|p34;\W0.7;IPT\fArial Narrow|b0|i0|c0|p34;²}
 73
     1
 44
1.0
1001
ACAD
1000
MTEXTBEGIN
1070
    73
1070
     1
1070
    44
1040
1.0
1070
    74
1070
     0
1000
MTEXTEND
  0
HATCH
  5
7B7
330
1F
100
AcDbEntity
  8
Part
100
AcDbHatch
 10
0.0
 20
0.0
 30
0.0
210
0.0
220
0.0
230
1.0
  2
SOLID
 70
     1
 71
     0
 91
        1
 92
        7
 72
     1
 73
     1
 93
        4
 10
0.7276464779903581
 20
9.238004682532075
 42
0.0706915278379923
 10
0.7392143450160479
 20
9.247553737588782
 42
0.0
 10
0.6720115561542134
 20
9.328964193460313
 42
0.0706915278379923
 10
0.6604436891285236
 20
9.3194151384036
 42
0.0
 97
        0
 75
     0
 76
     1
 47
0.0008232588311789
 98
        1
 10
0.7080341046702007
 20
9.274727598870386
1001
ACAD
1010
0.0
1020
0.0
1030
0.0
  0
CIRCLE
  5
7B8
330
1F
100
AcDbEntity
  8
Part
100
AcDbCircle
 10
0.6998290170722857
 20
9.28348443799619
 30
0.0
 40
0.0533124684197297
  0
LINE
  5
7B9
330
1F
100
AcDbEntity
  8
Part
100
AcDbLine
 10
0.7392143450160479
 20
9.247553737588782
 30
0.0
 11
0.6720115561542134
 21
9.328964193460313
 31
0.0
  0
LINE
  5
7BA
330
1F
100
AcDbEntity
  8
Part
100
AcDbLine
 10
0.7276464779903581
 20
9.238004682532075
 30
0.0
 11
0.6604436891285236
 21
9.3194151384036
 31
0.0
  0
HATCH
  5
7C8
330
1F
100
AcDbEntity
  8
Part
100
AcDbHatch
 10
0.0
 20
0.0
 30
0.0
210
0.0
220
0.0
230
1.0
  2
SOLID
 70
     1
 71
     0
 91
        1
 92
        7
 72
     1
 73
     1
 93
        4
 10
0.7276464779903581
 20
9.767004682532075
 42
0.0706915278379923
 10
0.7392143450160479
 20
9.776553737588782
 42
0.0
 10
0.6720115561542134
 20
9.857964193460313
 42
0.0706915278379923
 10
0.6604436891285236
 20
9.848415138403602
 42
0.0
 97
        0
 75
     0
 76
     1
 47
0.0008232588311789
 98
        1
 10
0.7080341046702007
 20
9.803727598870386
1001
ACAD
1010
0.0
1020
0.0
1030
0.0
  0
CIRCLE
  5
7C9
330
1F
100
AcDbEntity
  8
Part
100
AcDbCircle
 10
0.6998290170722857
 20
9.812484437996186
 30
0.0
 40
0.0533124684197297
  0
LINE
  5
7CA
330
1F
100
AcDbEntity
  8
Part
100
AcDbLine
 10
0.7392143450160479
 20
9.776553737588782
 30
0.0
 11
0.6720115561542134
 21
9.857964193460313
 31
0.0
  0
LINE
  5
7CB
330
1F
100
AcDbEntity
  8
Part
100
AcDbLine
 10
0.7276464779903581
 20
9.767004682532075
 30
0.0
 11
0.6604436891285236
 21
9.848415138403602
 31
0.0
  0
MTEXT
  5
7CC
330
1F
100
AcDbEntity
  8
Label
100
AcDbMText
 10
0.2662480692638705
 20
9.845954379547123
 30
0.0
 40
0.08
 41
0.5849266859975586
 71
     1
 72
     5
  1
{\fArial Narrow|b0|i0|c0|p34;ZERO}
  7
ADESK1
 73
     1
 44
1.0
1001
ACAD
1000
MTEXTBEGIN
1070
    73
1070
     1
1070
    44
1040
1.0
1070
    74
1070
     0
1000
MTEXTEND
  0
MTEXT
  5
7CD
330
1F
100
AcDbEntity
  8
Label
100
AcDbMText
 10
0.2626565349559332
 20
9.324392101198494
 30
0.0
 40
0.08
 41
0.5849266859975586
 71
     1
 72
     5
  1
{\fArial Narrow|b0|i0|c0|p34;SPAN}
  7
ADESK1
 73
     1
 44
1.0
1001
ACAD
1000
MTEXTBEGIN
1070
    73
1070
     1
1070
    44
1040
1.0
1070
    74
1070
     0
1000
MTEXTEND
  0
MTEXT
  5
7D5
330
1F
100
AcDbEntity
  8
Label
100
AcDbMText
 10
0.0809727055061025
 20
10.23327758376597
 30
0.0
 40
0.0616679681558104
 41
0.6517405924961732
 71
     1
 72
     5
  1
{\fArial Narrow|b0|i0|c0|p34;\W0.8;CURRENT/PRESSURE\PTRANSMITTER}
 73
     1
 44
1.0
1001
ACAD
1000
MTEXTBEGIN
1070
    73
1070
     1
1070
    44
1040
1.0
1070
    74
1070
     0
1000
MTEXTEND
  0
MTEXT
  5
7D6
330
1F
100
AcDbEntity
  8
Part
100
AcDbMText
 10
0.5351498235458987
 20
10.42614402654666
 30
0.0
 40
0.07
 41
0.3900000000000006
 71
     1
 72
     5
  1
{\fArial Narrow|b0|i0|c0|p34;\W0.8; +I         -I}
 73
     1
 44
1.0
1001
ACAD
1000
MTEXTBEGIN
1070
    73
1070
     1
1070
    44
1040
1.0
1070
    74
1070
     0
1000
MTEXTEND
  0
CIRCLE
  5
7DA
330
1F
100
AcDbEntity
  8
Part
100
AcDbCircle
 10
-0.1241709829277142
 20
8.758848397858381
 30
0.0
 40
0.056
  0
CIRCLE
  5
7DB
330
1F
100
AcDbEntity
  8
Part
100
AcDbCircle
 10
-0.1241709829277142
 20
8.758848397858381
 30
0.0
 40
0.069
  0
CIRCLE
  5
7DC
330
1F
100
AcDbEntity
  8
Part
100
AcDbCircle
 10
0.2128290170722859
 20
8.758848397858381
 30
0.0
 40
0.0795
  0
CIRCLE
  5
7DD
330
1F
100
AcDbEntity
  8
Part
100
AcDbCircle
 10
0.5498290170722859
 20
8.758848397858381
 30
0.0
 40
0.056
  0
CIRCLE
  5
7DE
330
1F
100
AcDbEntity
  8
Part
100
AcDbCircle
 10
0.5498290170722859
 20
8.758848397858381
 30
0.0
 40
0.069
  0
MTEXT
  5
7DF
330
1F
100
AcDbEntity
  8
Label
100
AcDbMText
 10
-0.1377919790193278
 20
8.660922154761312
 30
0.0
 40
0.07
 41
0.3900000000000006
 71
     2
 72
     5
  1
{\fArial Narrow|b0|i0|c0|p34;\W0.8;+T}
 73
     1
 44
1.0
1001
ACAD
1000
MTEXTBEGIN
1070
    73
1070
     1
1070
    44
1040
1.0
1070
    74
1070
     0
1000
MTEXTEND
  0
MTEXT
  5
7E0
330
1F
100
AcDbEntity
  8
Label
100
AcDbMText
 10
0.5497665036883097
 20
8.660922154761312
 30
0.0
 40
0.07
 41
0.3900000000000006
 71
     2
 72
     5
  1
{\fArial Narrow|b0|i0|c0|p34;\W0.8;-T}
 73
     1
 44
1.0
1001
ACAD
1000
MTEXTBEGIN
1070
    73
1070
     1
1070
    44
1040
1.0
1070
    74
1070
     0
1000
MTEXTEND
  0
HATCH
  5
A28
330
1F
100
AcDbEntity
  8
Part
100
AcDbHatch
 10
0.0
 20
0.0
 30
0.0
210
0.0
220
0.0
230
1.0
  2
SOLID
 70
     1
 71
     1
 91
        1
 92
        7
 72
     0
 73
     1
 93
        4
 10
-0.5571709829277144
 20
8.51748443799619
 10
-0.5571709829277144
 20
8.203484437996189
 10
0.8998290170722857
 20
8.203484437996186
 10
0.8998290170722857
 20
8.517484437996188
 97
        4
330
751
330
74E
330
750
330
74D
 75
     0
 76
     1
 47
0.0073042900352165
 98
        1
 10
0.0552114773614374
 20
8.39028644930228
1001
ACAD
1010
0.0
1020
0.0
1030
0.0
  0
LINE
  5
CCC
330
1F
100
AcDbEntity
  8
Part
100
AcDbLine
 10
-3.655603589217921
 20
13.44013828621491
 30
0.0
 11
-3.655603589217921
 21
14.99113828621491
 31
0.0
  0
LINE
  5
CCD
330
1F
100
AcDbEntity
  8
Part
100
AcDbLine
 10
-7.465603589217923
 20
13.44013828621491
 30
0.0
 11
-7.465603589217923
 21
14.99113828621491
 31
0.0
  0
LINE
  5
CCE
330
1F
100
AcDbEntity
  8
Part
100
AcDbLine
 10
-3.655603589217921
 20
14.99113828621491
 30
0.0
 11
-7.465603589217923
 21
14.99113828621491
 31
0.0
  0
LINE
  5
CCF
330
1F
100
AcDbEntity
  8
Part
100
AcDbLine
 10
-3.655603589217921
 20
13.44013828621491
 30
0.0
 11
-7.465603589217923
 21
13.44013828621491
 31
0.0
  0
LINE
  5
CF3
330
1F
100
AcDbEntity
  8
Part
100
AcDbLine
 10
-3.872603589217922
 20
13.48313828621491
 30
0.0
 11
-3.872603589217921
 21
14.94813828621491
 31
0.0
  0
LINE
  5
CF4
330
1F
100
AcDbEntity
  8
Part
100
AcDbLine
 10
-3.655603589217921
 20
13.48313828621491
 30
0.0
 11
-7.465603589217923
 21
13.48313828621491
 31
0.0
  0
LINE
  5
CF5
330
1F
100
AcDbEntity
  8
Part
100
AcDbLine
 10
-3.655603589217921
 20
14.94813828621491
 30
0.0
 11
-7.465603589217923
 21
14.94813828621491
 31
0.0
  0
LINE
  5
CF6
330
1F
100
AcDbEntity
  8
Part
100
AcDbLine
 10
-4.087603589217922
 20
13.48313828621491
 30
0.0
 11
-4.087603589217921
 21
14.94813828621491
 31
0.0
  0
LINE
  5
CF9
330
1F
100
AcDbEntity
  8
Part
100
AcDbLine
 10
-5.105603589217921
 20
13.48313828621491
 30
0.0
 11
-5.105603589217921
 21
14.94813828621491
 31
0.0
  0
LINE
  5
CFB
330
1F
100
AcDbEntity
  8
Part
100
AcDbLine
 10
-6.95160358921792
 20
13.48313828621491
 30
0.0
 11
-6.95160358921792
 21
14.94813828621491
 31
0.0
  0
LINE
  5
CFC
330
1F
100
AcDbEntity
  8
Part
100
AcDbLine
 10
-11.53762697139574
 20
11.28648443799619
 30
0.0
 11
-9.986626971395747
 21
11.28648443799619
 31
0.0
  0
LINE
  5
CFD
330
1F
100
AcDbEntity
  8
Part
100
AcDbLine
 10
-11.49062697139574
 20
11.22648443799619
 30
0.0
 11
-10.03362697139575
 21
11.22648443799619
 31
0.0
  0
LINE
  5
CFE
330
1F
100
AcDbEntity
  8
Part
100
AcDbLine
 10
-11.53762697139574
 20
11.28648443799619
 30
0.0
 11
-11.53762697139574
 21
8.16148443799619
 31
0.0
  0
LINE
  5
CFF
330
1F
100
AcDbEntity
  8
Part
100
AcDbLine
 10
-11.49062697139574
 20
11.28648443799619
 30
0.0
 11
-11.49062697139574
 21
8.16148443799619
 31
0.0
  0
LINE
  5
D00
330
1F
100
AcDbEntity
  8
Part
100
AcDbLine
 10
-11.53762697139574
 20
8.16148443799619
 30
0.0
 11
-9.986626971395747
 21
8.16148443799619
 31
0.0
  0
LINE
  5
D01
330
1F
100
AcDbEntity
  8
Part
100
AcDbLine
 10
-9.986626971395747
 20
11.28648443799619
 30
0.0
 11
-9.986626971395747
 21
8.16148443799619
 31
0.0
  0
LINE
  5
D02
330
1F
100
AcDbEntity
  8
Part
100
AcDbLine
 10
-10.03362697139575
 20
11.28648443799619
 30
0.0
 11
-10.03362697139575
 21
8.16148443799619
 31
0.0
  0
LINE
  5
D1B
330
1F
100
AcDbEntity
  8
Part
100
AcDbLine
 10
-10.03362697139574
 20
11.05849911193471
 30
0.0
 11
-11.49062697139574
 21
11.05849911193471
 31
0.0
  0
CIRCLE
  5
D35
330
1F
100
AcDbEntity
  8
Part
100
AcDbCircle
 10
-10.35962697139575
 20
8.703984437996192
 30
0.0
 40
0.166
  0
CIRCLE
  5
D37
330
1F
100
AcDbEntity
  8
Part
100
AcDbCircle
 10
-11.17762697139575
 20
8.703984437996192
 30
0.0
 40
0.166
  0
CIRCLE
  5
D39
330
1F
100
AcDbEntity
  8
Part
100
AcDbCircle
 10
-10.35962697139575
 20
8.703984437996192
 30
0.0
 40
0.176355532445978
  0
CIRCLE
  5
D3A
330
1F
100
AcDbEntity
  8
Part
100
AcDbCircle
 10
-11.17762697139575
 20
8.703984437996192
 30
0.0
 40
0.176355532445978
  0
LINE
  5
D3B
330
1F
100
AcDbEntity
  8
Part
100
AcDbLine
 10
-11.14487903677508
 20
8.943484437996193
 30
0.0
 11
-11.14487903677508
 21
8.877272771713107
 31
0.0
  0
LINE
  5
D3C
330
1F
100
AcDbEntity
  8
Part
100
AcDbLine
 10
-10.27273088654478
 20
8.943484437996193
 30
0.0
 11
-10.27273088654478
 21
8.857445652190135
 31
0.0
  0
ARC
  5
D3E
330
1F
100
AcDbEntity
  8
Part
100
AcDbCircle
 10
-10.7745690575268
 20
8.559915992080526
 30
0.0
 40
0.0625
100
AcDbArc
 50
0.0
 51
180.0
  0
ARC
  5
D3F
330
1F
100
AcDbEntity
  8
Part
100
AcDbCircle
 10
-10.7745690575268
 20
8.848052883911858
 30
0.0
 40
0.0625
100
AcDbArc
 50
180.0
 51
0.0
  0
LINE
  5
D40
330
1F
100
AcDbEntity
  8
Part
100
AcDbLine
 10
-10.8370690575268
 20
8.848052883911858
 30
0.0
 11
-10.8370690575268
 21
8.943484437996193
 31
0.0
  0
LINE
  5
D41
330
1F
100
AcDbEntity
  8
Part
100
AcDbLine
 10
-10.7120690575268
 20
8.848052883911858
 30
0.0
 11
-10.7120690575268
 21
8.943484437996193
 31
0.0
  0
LINE
  5
D42
330
1F
100
AcDbEntity
  8
Part
100
AcDbLine
 10
-10.8370690575268
 20
8.559915992080526
 30
0.0
 11
-10.8370690575268
 21
8.46448443799619
 31
0.0
  0
LINE
  5
D43
330
1F
100
AcDbEntity
  8
Part
100
AcDbLine
 10
-10.7120690575268
 20
8.559915992080526
 30
0.0
 11
-10.7120690575268
 21
8.46448443799619
 31
0.0
  0
LINE
  5
D44
330
1F
100
AcDbEntity
  8
Part
100
AcDbLine
 10
-11.14487903677508
 20
8.530696104279277
 30
0.0
 11
-11.14487903677508
 21
8.46448443799619
 31
0.0
  0
ARC
  5
D45
330
1F
100
AcDbEntity
  8
Part
100
AcDbCircle
 10
-10.45432994806704
 20
8.703984437996192
 30
0.0
 40
0.176355532445978
100
AcDbArc
 50
74.42496300490685
 51
285.5750369950931
  0
LINE
  5
D46
330
1F
100
AcDbEntity
  8
Part
100
AcDbLine
 10
-10.27273088654478
 20
8.550523223802249
 30
0.0
 11
-10.27273088654478
 21
8.46448443799619
 31
0.0
  0
LINE
  5
D47
330
1F
100
AcDbEntity
  8
Part
100
AcDbLine
 10
-3.271603589217922
 20
13.48313828621491
 30
0.0
 11
-3.271603589217922
 21
14.94813828621491
 31
0.0
  0
LINE
  5
D48
330
1F
100
AcDbEntity
  8
Part
100
AcDbLine
 10
-3.427603589217921
 20
13.48313828621491
 30
0.0
 11
-3.427603589217923
 21
14.94813828621491
 31
0.0
  0
LINE
  5
D49
330
1F
100
AcDbEntity
  8
Part
100
AcDbLine
 10
-3.655603589217921
 20
13.48313828621491
 30
0.0
 11
-3.271603589217922
 21
13.48313828621491
 31
0.0
  0
LINE
  5
D7A
330
1F
100
AcDbEntity
  8
Part
100
AcDbLine
 10
-3.655603589217921
 20
14.94813828621491
 30
0.0
 11
-3.271603589217921
 21
14.94813828621491
 31
0.0
  0
LINE
  5
D83
330
1F
100
AcDbEntity
  8
Part
100
AcDbLine
 10
-3.655603589217921
 20
4.457288388201947
 30
0.0
 11
-3.655603589217921
 21
6.008288388201947
 31
0.0
  0
LINE
  5
D84
330
1F
100
AcDbEntity
  8
Part
100
AcDbLine
 10
-5.105603589217921
 20
4.500288388201948
 30
0.0
 11
-5.105603589217921
 21
5.965288388201947
 31
0.0
  0
LINE
  5
D85
330
1F
100
AcDbEntity
  8
Part
100
AcDbLine
 10
-3.872603589217922
 20
4.500288388201948
 30
0.0
 11
-3.872603589217921
 21
5.965288388201947
 31
0.0
  0
LINE
  5
D86
330
1F
100
AcDbEntity
  8
Part
100
AcDbLine
 10
-4.087603589217922
 20
4.500288388201948
 30
0.0
 11
-4.087603589217921
 21
5.965288388201947
 31
0.0
  0
LINE
  5
D87
330
1F
100
AcDbEntity
  8
Part
100
AcDbLine
 10
-7.465603589217923
 20
4.457288388201947
 30
0.0
 11
-7.465603589217923
 21
4.688339597369919
 31
0.0
  0
LINE
  5
D88
330
1F
100
AcDbEntity
  8
Part
100
AcDbLine
 10
-6.95160358921792
 20
4.500288388201946
 30
0.0
 11
-6.95160358921792
 21
5.965288388201947
 31
0.0
  0
LINE
  5
D89
330
1F
100
AcDbEntity
  8
Part
100
AcDbLine
 10
-3.655603589217921
 20
6.008288388201947
 30
0.0
 11
-7.465603589217923
 21
6.008288388201947
 31
0.0
  0
LINE
  5
D8A
330
1F
100
AcDbEntity
  8
Part
100
AcDbLine
 10
-3.655603589217921
 20
5.965288388201947
 30
0.0
 11
-7.465603589217923
 21
5.965288388201947
 31
0.0
  0
LINE
  5
D8B
330
1F
100
AcDbEntity
  8
Part
100
AcDbLine
 10
-3.655603589217921
 20
4.457288388201947
 30
0.0
 11
-7.465603589217923
 21
4.457288388201947
 31
0.0
  0
LINE
  5
D8C
330
1F
100
AcDbEntity
  8
Part
100
AcDbLine
 10
-3.655603589217921
 20
4.500288388201946
 30
0.0
 11
-7.465603589217923
 21
4.500288388201946
 31
0.0
  0
LINE
  5
DB0
330
1F
100
AcDbEntity
  8
Part
100
AcDbLine
 10
-3.271603589217922
 20
4.500288388201946
 30
0.0
 11
-3.271603589217922
 21
5.538547034779949
 31
0.0
  0
LINE
  5
DB1
330
1F
100
AcDbEntity
  8
Part
100
AcDbLine
 10
-3.271603589217921
 20
5.538547034779951
 30
0.0
 11
-3.271603589217921
 21
5.965288388201947
 31
0.0
  0
LINE
  5
DB2
330
1F
100
AcDbEntity
  8
Part
100
AcDbLine
 10
-3.427603589217921
 20
13.48313828621491
 30
0.0
 11
-3.427603589217921
 21
14.52139693279291
 31
0.0
  0
LINE
  5
DB3
330
1F
100
AcDbEntity
  8
Part
100
AcDbLine
 10
-3.427603589217921
 20
4.500288388201946
 30
0.0
 11
-3.427603589217921
 21
5.965288388201947
 31
0.0
  0
LINE
  5
DB4
330
1F
100
AcDbEntity
  8
Part
100
AcDbLine
 10
-3.655603589217921
 20
4.500288388201946
 30
0.0
 11
-3.271603589217922
 21
4.500288388201946
 31
0.0
  0
LINE
  5
DB5
330
1F
100
AcDbEntity
  8
Part
100
AcDbLine
 10
-3.655603589217921
 20
5.965288388201947
 30
0.0
 11
-3.271603589217921
 21
5.965288388201949
 31
0.0
  0
ARC
  5
DE4
330
1F
100
AcDbEntity
  8
Part
100
AcDbCircle
 10
-7.379542327425372
 20
4.830288388201947
 30
0.0
 40
0.166
100
AcDbArc
 50
90.0
 51
270.0
  0
LINE
  5
DE5
330
1F
100
AcDbEntity
  8
Part
100
AcDbLine
 10
-6.95160358921792
 20
4.996288388201946
 30
0.0
 11
-7.006842318024887
 21
4.996288388201946
 31
0.0
  0
LINE
  5
DE6
330
1F
100
AcDbEntity
  8
Part
100
AcDbLine
 10
-7.016842318024887
 20
4.996288388201946
 30
0.0
 11
-7.379542327425372
 21
4.996288388201946
 31
0.0
  0
LINE
  5
DE7
330
1F
100
AcDbEntity
  8
Part
100
AcDbLine
 10
-6.95160358921792
 20
4.664288388201946
 30
0.0
 11
-7.006842318024887
 21
4.664288388201948
 31
0.0
  0
LINE
  5
DE8
330
1F
100
AcDbEntity
  8
Part
100
AcDbLine
 10
-7.016842318024887
 20
4.664288388201948
 30
0.0
 11
-7.379542327425372
 21
4.664288388201947
 31
0.0
  0
LINE
  5
DE9
330
1F
100
AcDbEntity
  8
Part
100
AcDbLine
 10
-7.006842318024887
 20
5.018573319075744
 30
0.0
 11
-7.006842318024887
 21
4.64200345732815
 31
0.0
  0
LINE
  5
DEA
330
1F
100
AcDbEntity
  8
Part
100
AcDbLine
 10
-7.016842318024887
 20
5.018573319075744
 30
0.0
 11
-7.016842318024887
 21
4.64200345732815
 31
0.0
  0
ARC
  5
DEB
330
1F
100
AcDbEntity
  8
Part
100
AcDbCircle
 10
-7.011903579817436
 20
5.023082771605551
 30
0.0
 40
0.0049999999999999
100
AcDbArc
 50
0.0
 51
180.0
  0
ARC
  5
DEC
330
1F
100
AcDbEntity
  8
Part
100
AcDbCircle
 10
-7.011842318024887
 20
4.64200345732815
 30
0.0
 40
0.0049999999999999
100
AcDbArc
 50
180.0
 51
0.0
  0
LINE
  5
DED
330
1F
100
AcDbEntity
  8
Part
100
AcDbLine
 10
-7.465603589217923
 20
4.972237179033974
 30
0.0
 11
-7.46560358921792
 21
5.50633959736992
 31
0.0
  0
ARC
  5
DFC
330
1F
100
AcDbEntity
  8
Part
100
AcDbCircle
 10
-7.379542327425372
 20
5.648288388201947
 30
0.0
 40
0.166
100
AcDbArc
 50
90.0
 51
270.0
  0
LINE
  5
DFD
330
1F
100
AcDbEntity
  8
Part
100
AcDbLine
 10
-6.95160358921792
 20
5.814288388201947
 30
0.0
 11
-7.006842318024887
 21
5.814288388201947
 31
0.0
  0
LINE
  5
DFE
330
1F
100
AcDbEntity
  8
Part
100
AcDbLine
 10
-7.016842318024887
 20
5.814288388201947
 30
0.0
 11
-7.379542327425372
 21
5.814288388201947
 31
0.0
  0
LINE
  5
DFF
330
1F
100
AcDbEntity
  8
Part
100
AcDbLine
 10
-6.95160358921792
 20
5.482288388201944
 30
0.0
 11
-7.006842318024887
 21
5.482288388201948
 31
0.0
  0
LINE
  5
E00
330
1F
100
AcDbEntity
  8
Part
100
AcDbLine
 10
-7.016842318024887
 20
5.482288388201948
 30
0.0
 11
-7.379542327425372
 21
5.482288388201945
 31
0.0
  0
LINE
  5
E01
330
1F
100
AcDbEntity
  8
Part
100
AcDbLine
 10
-7.006842318024887
 20
5.836573319075744
 30
0.0
 11
-7.006842318024887
 21
5.460003457328148
 31
0.0
  0
LINE
  5
E02
330
1F
100
AcDbEntity
  8
Part
100
AcDbLine
 10
-7.016842318024887
 20
5.836573319075744
 30
0.0
 11
-7.016842318024887
 21
5.460003457328148
 31
0.0
  0
ARC
  5
E03
330
1F
100
AcDbEntity
  8
Part
100
AcDbCircle
 10
-7.011903579817436
 20
5.841082771605552
 30
0.0
 40
0.0049999999999999
100
AcDbArc
 50
0.0
 51
180.0
  0
ARC
  5
E04
330
1F
100
AcDbEntity
  8
Part
100
AcDbCircle
 10
-7.011842318024887
 20
5.460003457328148
 30
0.0
 40
0.0049999999999999
100
AcDbArc
 50
180.0
 51
0.0
  0
LINE
  5
E05
330
1F
100
AcDbEntity
  8
Part
100
AcDbLine
 10
-7.46560358921792
 20
5.790237179033972
 30
0.0
 11
-7.465603589217923
 21
6.008288388201947
 31
0.0
  0
MTEXT
  5
FC4
102
{ACAD_XDICTIONARY
360
255B
102
}
330
1F
100
AcDbEntity
  8
Dimensions
100
AcDbMText
 10
7.711998436831262
 20
6.578380473728964
 30
0.0
 40
0.1
 41
3.62083238446256
 71
     1
 72
     5
  1
          
 73
     1
 44
1.0
1001
ACAD
1000
MTEXTBEGIN
1070
    73
1070
     1
1070
    44
1040
1.0
1070
    74
1070
     0
1000
MTEXTEND
  0
MTEXT
  5
1156
330
1F
100
AcDbEntity
  8
Schematics
100
AcDbMText
 10
6.53131900125231
 20
16.73077291435381
 30
0.0
 40
0.234952584375
 41
0.67555
 71
     5
 72
     5
  1
IPT
 73
     1
 44
1.0
1001
ACAD
1000
MTEXTBEGIN
1070
    73
1070
     1
1070
    44
1040
1.0
1070
    74
1070
     0
1000
MTEXTEND
  0
LINE
  5
1173
330
1F
100
AcDbEntity
  8
Schematics
100
AcDbLine
 10
7.534147943289699
 20
17.74291206705767
 30
0.0
 11
7.534147943289699
 21
17.16280379034913
 31
0.0
  0
LINE
  5
11A3
330
1F
100
AcDbEntity
  8
Schematics
100
AcDbLine
 10
7.534147943289699
 20
14.66348232429769
 30
0.0
 11
7.534147943289688
 21
14.11147438259409
 31
0.0
  0
LINE
  5
11BF
330
1F
100
AcDbEntity
  8
Schematics
100
AcDbLine
 10
5.98314794328969
 20
17.74291206705767
 30
0.0
 11
5.983147943289697
 21
14.11147438259406
 31
0.0
  0
LINE
  5
11C0
330
1F
100
AcDbEntity
  8
Schematics
100
AcDbLine
 10
6.190443943412198
 20
14.11147438259408
 30
0.0
 11
7.326851943167199
 21
14.11147438259409
 31
0.0
  0
LINE
  5
11C1
330
1F
100
AcDbEntity
  8
Schematics
100
AcDbLine
 10
7.534147943289699
 20
14.11147438259406
 30
0.0
 11
7.534147943289688
 21
17.74291206705767
 31
0.0
  0
LINE
  5
11DE
330
1F
100
AcDbEntity
  8
Schematics
100
AcDbLine
 10
7.034147943289699
 20
17.74291206705767
 30
0.0
 11
7.034147943289699
 21
17.16280379034913
 31
0.0
  0
LINE
  5
11DF
330
1F
100
AcDbEntity
  8
Schematics
100
AcDbLine
 10
7.284147943289699
 20
17.74291206705767
 30
0.0
 11
7.284147943289699
 21
17.16280379034913
 31
0.0
  0
ARC
  5
11E0
330
1F
100
AcDbEntity
  8
Schematics
100
AcDbCircle
 10
7.159147943289699
 20
17.16280379034913
 30
0.0
 40
0.125
100
AcDbArc
 50
180.0
 51
0.0
  0
LINE
  5
11E1
330
1F
100
AcDbEntity
  8
Schematics
100
AcDbLine
 10
7.284147943289699
 20
17.74291206705767
 30
0.0
 11
7.284147943289699
 21
17.16280379034913
 31
0.0
  0
LINE
  5
11E2
330
1F
100
AcDbEntity
  8
Schematics
100
AcDbLine
 10
7.534147943289688
 20
17.74291206705767
 30
0.0
 11
7.534147943289699
 21
17.16280379034913
 31
0.0
  0
ARC
  5
11E3
330
1F
100
AcDbEntity
  8
Schematics
100
AcDbCircle
 10
7.409147943289699
 20
17.16280379034913
 30
0.0
 40
0.125
100
AcDbArc
 50
180.0
 51
0.0
  0
LINE
  5
11E4
330
1F
100
AcDbEntity
  8
Schematics
100
AcDbLine
 10
7.534147943289688
 20
17.74291206705767
 30
0.0
 11
7.534147943289699
 21
17.16280379034913
 31
0.0
  0
MTEXT
  5
11E5
330
1F
100
AcDbEntity
  8
Schematics
100
AcDbMText
 10
7.151468999882666
 20
17.17270864298547
 30
0.0
 40
0.1174762921875
 41
0.5874000000000002
 71
     5
 72
     5
  1
1
 73
     1
 44
1.0
1001
ACAD
1000
MTEXTBEGIN
1070
    73
1070
     1
1070
    44
1040
1.0
1070
    74
1070
     0
1000
MTEXTEND
  0
MTEXT
  5
11E6
330
1F
100
AcDbEntity
  8
Schematics
100
AcDbMText
 10
7.401468999882666
 20
17.17270864298547
 30
0.0
 40
0.1174762921875
 41
0.5874000000000002
 71
     5
 72
     5
  1
2
 73
     1
 44
1.0
1001
ACAD
1000
MTEXTBEGIN
1070
    73
1070
     1
1070
    44
1040
1.0
1070
    74
1070
     0
1000
MTEXTEND
  0
MTEXT
  5
11E7
330
1F
100
AcDbEntity
  8
Schematics
100
AcDbMText
 10
7.150351778608879
 20
17.32411146681611
 30
0.0
 40
0.1174762921875
 41
0.5874000000000002
 71
     4
 72
     5
  1
+IN
 11
0.0000000000000001
 21
1.0
 31
0.0
 73
     1
 44
1.0
1001
ACAD
1000
MTEXTBEGIN
1070
    73
1070
     1
1070
    44
1040
1.0
1070
    74
1070
     0
1000
MTEXTEND
  0
MTEXT
  5
11E8
330
1F
100
AcDbEntity
  8
Schematics
100
AcDbMText
 10
7.400351778608893
 20
17.32411146681611
 30
0.0
 40
0.1174762921875
 41
0.5874000000000002
 71
     4
 72
     5
  1
-IN
 11
0.0000000000000001
 21
1.0
 31
0.0
 73
     1
 44
1.0
1001
ACAD
1000
MTEXTBEGIN
1070
    73
1070
     1
1070
    44
1040
1.0
1070
    74
1070
     0
1000
MTEXTEND
  0
LINE
  5
11E9
330
1F
100
AcDbEntity
  8
Schematics
100
AcDbLine
 10
5.98314794328969
 20
17.74291206705767
 30
0.0
 11
7.534147943289688
 21
17.74291206705767
 31
0.0
  0
LINE
  5
120B
330
1F
100
AcDbEntity
  8
Schematics
100
AcDbLine
 10
7.071249429308828
 20
16.35440956065579
 30
0.0
 11
7.321249429308828
 21
16.35440956065579
 31
0.0
  0
LINE
  5
120D
330
1F
100
AcDbEntity
  8
Schematics
100
AcDbLine
 10
7.321249429308828
 20
16.35440956065579
 30
0.0
 11
7.321249429308828
 21
16.10440956065579
 31
0.0
  0
LINE
  5
120E
330
1F
100
AcDbEntity
  8
Schematics
100
AcDbLine
 10
7.071249429308828
 20
16.35440956065579
 30
0.0
 11
7.071249429308828
 21
16.10440956065579
 31
0.0
  0
LINE
  5
120F
330
1F
100
AcDbEntity
  8
Schematics
100
AcDbLine
 10
7.071249429308828
 20
16.10440956065579
 30
0.0
 11
7.321249429308828
 21
16.10440956065579
 31
0.0
  0
LINE
  5
1211
330
1F
100
AcDbEntity
  8
Schematics
100
AcDbLine
 10
7.071249429308828
 20
16.05326906100967
 30
0.0
 11
7.321249429308828
 21
16.05326906100967
 31
0.0
  0
LINE
  5
1212
330
1F
100
AcDbEntity
  8
Schematics
100
AcDbLine
 10
7.321249429308828
 20
16.05326906100967
 30
0.0
 11
7.321249429308828
 21
15.80326906100967
 31
0.0
  0
LINE
  5
1213
330
1F
100
AcDbEntity
  8
Schematics
100
AcDbLine
 10
7.071249429308828
 20
16.05326906100967
 30
0.0
 11
7.071249429308828
 21
15.80326906100967
 31
0.0
  0
LINE
  5
1214
330
1F
100
AcDbEntity
  8
Schematics
100
AcDbLine
 10
7.071249429308828
 20
15.80326906100967
 30
0.0
 11
7.321249429308828
 21
15.80326906100967
 31
0.0
  0
MTEXT
  5
121A
330
1F
100
AcDbEntity
  8
Schematics
100
AcDbMText
 10
7.075451328426598
 20
16.02935953976463
 30
0.0
 40
0.064731711322471
 41
0.1377548399705084
 71
     1
 72
     5
  1
SPAN
 73
     1
 44
1.0
1001
ACAD
1000
MTEXTBEGIN
1070
    73
1070
     1
1070
    44
1040
1.0
1070
    74
1070
     0
1000
MTEXTEND
  0
MTEXT
  5
121B
330
1F
100
AcDbEntity
  8
Schematics
100
AcDbMText
 10
7.075451328426598
 20
16.33050003941074
 30
0.0
 40
0.064731711322471
 41
0.1377548399705084
 71
     1
 72
     5
  1
ZERO
 73
     1
 44
1.0
1001
ACAD
1000
MTEXTBEGIN
1070
    73
1070
     1
1070
    44
1040
1.0
1070
    74
1070
     0
1000
MTEXTEND
  0
ARC
  5
121C
330
1F
100
AcDbEntity
  8
Schematics
100
AcDbCircle
 10
6.086795943350949
 20
14.11147438259406
 30
0.0
 40
0.1036480000612485
100
AcDbArc
 50
180.0
 51
0.0
  0
ARC
  5
121E
330
1F
100
AcDbEntity
  8
Schematics
100
AcDbCircle
 10
6.086795943350949
 20
14.48428665918011
 30
0.0
 40
0.1036480000612485
100
AcDbArc
 50
0.0
 51
180.0
  0
LINE
  5
121F
330
1F
100
AcDbEntity
  8
Schematics
100
AcDbLine
 10
5.983147943289697
 20
14.11147438259406
 30
0.0
 11
5.983147943289697
 21
14.48428665918011
 31
0.0
  0
LINE
  5
1220
330
1F
100
AcDbEntity
  8
Schematics
100
AcDbLine
 10
6.190443943412198
 20
14.11147438259406
 30
0.0
 11
6.190443943412198
 21
14.48428665918011
 31
0.0
  0
ARC
  5
1221
330
1F
100
AcDbEntity
  8
Schematics
100
AcDbCircle
 10
7.430499943228447
 20
14.11147438259406
 30
0.0
 40
0.1036480000612485
100
AcDbArc
 50
180.0
 51
0.0
  0
ARC
  5
1222
330
1F
100
AcDbEntity
  8
Schematics
100
AcDbCircle
 10
7.430499943228447
 20
14.48428665918011
 30
0.0
 40
0.1036480000612485
100
AcDbArc
 50
0.0
 51
180.0
  0
LINE
  5
1223
330
1F
100
AcDbEntity
  8
Schematics
100
AcDbLine
 10
7.326851943167199
 20
14.11147438259406
 30
0.0
 11
7.326851943167199
 21
14.48428665918011
 31
0.0
  0
LINE
  5
1224
330
1F
100
AcDbEntity
  8
Schematics
100
AcDbLine
 10
7.534147943289699
 20
14.11147438259406
 30
0.0
 11
7.534147943289699
 21
14.48428665918011
 31
0.0
  0
MTEXT
  5
1225
330
1F
100
AcDbEntity
  8
Schematics
100
AcDbMText
 10
6.000372699542293
 20
14.35525357703933
 30
0.0
 40
0.1174762921875
 41
0.207296000122497
 71
     1
 72
     5
  1
+T
 73
     1
 44
1.0
1001
ACAD
1000
MTEXTBEGIN
1070
    73
1070
     1
1070
    44
1040
1.0
1070
    74
1070
     0
1000
MTEXTEND
  0
MTEXT
  5
1226
330
1F
100
AcDbEntity
  8
Schematics
100
AcDbMText
 10
7.344076699419801
 20
14.35525357703933
 30
0.0
 40
0.1174762921875
 41
0.207296000122497
 71
     1
 72
     5
  1
-T
 73
     1
 44
1.0
1001
ACAD
1000
MTEXTBEGIN
1070
    73
1070
     1
1070
    44
1040
1.0
1070
    74
1070
     0
1000
MTEXTEND
  0
LINE
  5
1228
330
1F
100
AcDbEntity
  8
Schematics
100
AcDbLine
 10
10.08514794328971
 20
17.74291206705767
 30
0.0
 11
10.08514794328971
 21
17.16280379034913
 31
0.0
  0
LINE
  5
1229
330
1F
100
AcDbEntity
  8
Schematics
100
AcDbLine
 10
10.08514794328971
 20
14.66348232429769
 30
0.0
 11
10.0851479432897
 21
14.11147438259409
 31
0.0
  0
LINE
  5
122A
330
1F
100
AcDbEntity
  8
Schematics
100
AcDbLine
 10
8.534147943289699
 20
17.74291206705767
 30
0.0
 11
8.534147943289713
 21
14.11147438259406
 31
0.0
  0
LINE
  5
122B
330
1F
100
AcDbEntity
  8
Schematics
100
AcDbLine
 10
8.74144394341221
 20
14.11147438259408
 30
0.0
 11
9.877851943167215
 21
14.11147438259409
 31
0.0
  0
LINE
  5
122C
330
1F
100
AcDbEntity
  8
Schematics
100
AcDbLine
 10
10.08514794328971
 20
14.11147438259406
 30
0.0
 11
10.0851479432897
 21
17.74291206705767
 31
0.0
  0
LINE
  5
122D
330
1F
100
AcDbEntity
  8
Schematics
100
AcDbLine
 10
9.585147943289712
 20
17.74291206705767
 30
0.0
 11
9.585147943289712
 21
17.16280379034913
 31
0.0
  0
LINE
  5
122E
330
1F
100
AcDbEntity
  8
Schematics
100
AcDbLine
 10
9.835147943289712
 20
17.74291206705767
 30
0.0
 11
9.835147943289712
 21
17.16280379034913
 31
0.0
  0
ARC
  5
122F
330
1F
100
AcDbEntity
  8
Schematics
100
AcDbCircle
 10
9.710147943289712
 20
17.16280379034913
 30
0.0
 40
0.125
100
AcDbArc
 50
180.0
 51
0.0
  0
LINE
  5
1230
330
1F
100
AcDbEntity
  8
Schematics
100
AcDbLine
 10
9.835147943289712
 20
17.74291206705767
 30
0.0
 11
9.835147943289712
 21
17.16280379034913
 31
0.0
  0
LINE
  5
1231
330
1F
100
AcDbEntity
  8
Schematics
100
AcDbLine
 10
10.0851479432897
 20
17.74291206705767
 30
0.0
 11
10.08514794328971
 21
17.16280379034913
 31
0.0
  0
ARC
  5
1232
330
1F
100
AcDbEntity
  8
Schematics
100
AcDbCircle
 10
9.960147943289712
 20
17.16280379034913
 30
0.0
 40
0.125
100
AcDbArc
 50
180.0
 51
0.0
  0
LINE
  5
1233
330
1F
100
AcDbEntity
  8
Schematics
100
AcDbLine
 10
10.0851479432897
 20
17.74291206705767
 30
0.0
 11
10.08514794328971
 21
17.16280379034913
 31
0.0
  0
MTEXT
  5
1234
330
1F
100
AcDbEntity
  8
Schematics
100
AcDbMText
 10
9.702468999882682
 20
17.17270864298547
 30
0.0
 40
0.1174762921875
 41
0.5874000000000002
 71
     5
 72
     5
  1
1
 73
     1
 44
1.0
1001
ACAD
1000
MTEXTBEGIN
1070
    73
1070
     1
1070
    44
1040
1.0
1070
    74
1070
     0
1000
MTEXTEND
  0
MTEXT
  5
1235
330
1F
100
AcDbEntity
  8
Schematics
100
AcDbMText
 10
9.952468999882682
 20
17.17270864298547
 30
0.0
 40
0.1174762921875
 41
0.5874000000000002
 71
     5
 72
     5
  1
2
 73
     1
 44
1.0
1001
ACAD
1000
MTEXTBEGIN
1070
    73
1070
     1
1070
    44
1040
1.0
1070
    74
1070
     0
1000
MTEXTEND
  0
MTEXT
  5
1236
330
1F
100
AcDbEntity
  8
Schematics
100
AcDbMText
 10
9.701351778608891
 20
17.32411146681611
 30
0.0
 40
0.1174762921875
 41
0.5874000000000002
 71
     4
 72
     5
  1
+IN
 11
0.0000000000000001
 21
1.0
 31
0.0
 73
     1
 44
1.0
1001
ACAD
1000
MTEXTBEGIN
1070
    73
1070
     1
1070
    44
1040
1.0
1070
    74
1070
     0
1000
MTEXTEND
  0
MTEXT
  5
1237
330
1F
100
AcDbEntity
  8
Schematics
100
AcDbMText
 10
9.951351778608898
 20
17.32411146681611
 30
0.0
 40
0.1174762921875
 41
0.5874000000000002
 71
     4
 72
     5
  1
-IN
 11
0.0000000000000001
 21
1.0
 31
0.0
 73
     1
 44
1.0
1001
ACAD
1000
MTEXTBEGIN
1070
    73
1070
     1
1070
    44
1040
1.0
1070
    74
1070
     0
1000
MTEXTEND
  0
LINE
  5
1238
330
1F
100
AcDbEntity
  8
Schematics
100
AcDbLine
 10
8.534147943289699
 20
17.74291206705767
 30
0.0
 11
10.0851479432897
 21
17.74291206705767
 31
0.0
  0
ARC
  5
1246
330
1F
100
AcDbEntity
  8
Schematics
100
AcDbCircle
 10
8.637795943350962
 20
14.11147438259406
 30
0.0
 40
0.1036480000612485
100
AcDbArc
 50
180.0
 51
0.0
  0
ARC
  5
1247
330
1F
100
AcDbEntity
  8
Schematics
100
AcDbCircle
 10
8.637795943350962
 20
14.48428665918011
 30
0.0
 40
0.1036480000612485
100
AcDbArc
 50
0.0
 51
180.0
  0
LINE
  5
1248
330
1F
100
AcDbEntity
  8
Schematics
100
AcDbLine
 10
8.534147943289713
 20
14.11147438259406
 30
0.0
 11
8.534147943289713
 21
14.48428665918011
 31
0.0
  0
LINE
  5
1249
330
1F
100
AcDbEntity
  8
Schematics
100
AcDbLine
 10
8.74144394341221
 20
14.11147438259406
 30
0.0
 11
8.74144394341221
 21
14.48428665918011
 31
0.0
  0
ARC
  5
124A
330
1F
100
AcDbEntity
  8
Schematics
100
AcDbCircle
 10
9.981499943228463
 20
14.11147438259406
 30
0.0
 40
0.1036480000612485
100
AcDbArc
 50
180.0
 51
0.0
  0
ARC
  5
124B
330
1F
100
AcDbEntity
  8
Schematics
100
AcDbCircle
 10
9.981499943228463
 20
14.48428665918011
 30
0.0
 40
0.1036480000612485
100
AcDbArc
 50
0.0
 51
180.0
  0
LINE
  5
124C
330
1F
100
AcDbEntity
  8
Schematics
100
AcDbLine
 10
9.877851943167215
 20
14.11147438259406
 30
0.0
 11
9.877851943167215
 21
14.48428665918011
 31
0.0
  0
LINE
  5
124D
330
1F
100
AcDbEntity
  8
Schematics
100
AcDbLine
 10
10.08514794328971
 20
14.11147438259406
 30
0.0
 11
10.08514794328971
 21
14.48428665918011
 31
0.0
  0
MTEXT
  5
124E
330
1F
100
AcDbEntity
  8
Schematics
100
AcDbMText
 10
8.551372699542302
 20
14.35525357703933
 30
0.0
 40
0.1174762921875
 41
0.207296000122497
 71
     1
 72
     5
  1
+T
 73
     1
 44
1.0
1001
ACAD
1000
MTEXTBEGIN
1070
    73
1070
     1
1070
    44
1040
1.0
1070
    74
1070
     0
1000
MTEXTEND
  0
MTEXT
  5
124F
330
1F
100
AcDbEntity
  8
Schematics
100
AcDbMText
 10
9.89507669941981
 20
14.35525357703933
 30
0.0
 40
0.1174762921875
 41
0.207296000122497
 71
     1
 72
     5
  1
-T
 73
     1
 44
1.0
1001
ACAD
1000
MTEXTBEGIN
1070
    73
1070
     1
1070
    44
1040
1.0
1070
    74
1070
     0
1000
MTEXTEND
  0
LINE
  5
1252
330
1F
100
AcDbEntity
  8
Schematics
100
AcDbLine
 10
12.63614794328972
 20
17.74291206705767
 30
0.0
 11
12.63614794328972
 21
17.16280379034913
 31
0.0
  0
LINE
  5
1253
330
1F
100
AcDbEntity
  8
Schematics
100
AcDbLine
 10
12.63614794328972
 20
14.66348232429769
 30
0.0
 11
12.63614794328971
 21
14.11147438259409
 31
0.0
  0
LINE
  5
1254
330
1F
100
AcDbEntity
  8
Schematics
100
AcDbLine
 10
11.08514794328971
 20
17.74291206705767
 30
0.0
 11
11.08514794328972
 21
14.11147438259406
 31
0.0
  0
LINE
  5
1255
330
1F
100
AcDbEntity
  8
Schematics
100
AcDbLine
 10
11.29244394341222
 20
14.11147438259408
 30
0.0
 11
12.42885194316722
 21
14.11147438259409
 31
0.0
  0
LINE
  5
1256
330
1F
100
AcDbEntity
  8
Schematics
100
AcDbLine
 10
12.63614794328972
 20
14.11147438259406
 30
0.0
 11
12.63614794328971
 21
17.74291206705767
 31
0.0
  0
LINE
  5
1257
330
1F
100
AcDbEntity
  8
Schematics
100
AcDbLine
 10
12.13614794328972
 20
17.74291206705767
 30
0.0
 11
12.13614794328972
 21
17.16280379034913
 31
0.0
  0
LINE
  5
1258
330
1F
100
AcDbEntity
  8
Schematics
100
AcDbLine
 10
12.38614794328972
 20
17.74291206705767
 30
0.0
 11
12.38614794328972
 21
17.16280379034913
 31
0.0
  0
ARC
  5
1259
330
1F
100
AcDbEntity
  8
Schematics
100
AcDbCircle
 10
12.26114794328972
 20
17.16280379034913
 30
0.0
 40
0.125
100
AcDbArc
 50
180.0
 51
0.0
  0
LINE
  5
125A
330
1F
100
AcDbEntity
  8
Schematics
100
AcDbLine
 10
12.38614794328972
 20
17.74291206705767
 30
0.0
 11
12.38614794328972
 21
17.16280379034913
 31
0.0
  0
LINE
  5
125B
330
1F
100
AcDbEntity
  8
Schematics
100
AcDbLine
 10
12.63614794328971
 20
17.74291206705767
 30
0.0
 11
12.63614794328972
 21
17.16280379034913
 31
0.0
  0
ARC
  5
125C
330
1F
100
AcDbEntity
  8
Schematics
100
AcDbCircle
 10
12.51114794328971
 20
17.16280379034913
 30
0.0
 40
0.125
100
AcDbArc
 50
180.0
 51
0.0
  0
LINE
  5
125D
330
1F
100
AcDbEntity
  8
Schematics
100
AcDbLine
 10
12.63614794328971
 20
17.74291206705767
 30
0.0
 11
12.63614794328972
 21
17.16280379034913
 31
0.0
  0
MTEXT
  5
125E
330
1F
100
AcDbEntity
  8
Schematics
100
AcDbMText
 10
12.25346899988269
 20
17.17270864298547
 30
0.0
 40
0.1174762921875
 41
0.5874000000000002
 71
     5
 72
     5
  1
1
 73
     1
 44
1.0
1001
ACAD
1000
MTEXTBEGIN
1070
    73
1070
     1
1070
    44
1040
1.0
1070
    74
1070
     0
1000
MTEXTEND
  0
MTEXT
  5
125F
330
1F
100
AcDbEntity
  8
Schematics
100
AcDbMText
 10
12.50346899988269
 20
17.17270864298547
 30
0.0
 40
0.1174762921875
 41
0.5874000000000002
 71
     5
 72
     5
  1
2
 73
     1
 44
1.0
1001
ACAD
1000
MTEXTBEGIN
1070
    73
1070
     1
1070
    44
1040
1.0
1070
    74
1070
     0
1000
MTEXTEND
  0
MTEXT
  5
1260
330
1F
100
AcDbEntity
  8
Schematics
100
AcDbMText
 10
12.2523517786089
 20
17.32411146681611
 30
0.0
 40
0.1174762921875
 41
0.5874000000000002
 71
     4
 72
     5
  1
+IN
 11
0.0000000000000001
 21
1.0
 31
0.0
 73
     1
 44
1.0
1001
ACAD
1000
MTEXTBEGIN
1070
    73
1070
     1
1070
    44
1040
1.0
1070
    74
1070
     0
1000
MTEXTEND
  0
MTEXT
  5
1261
330
1F
100
AcDbEntity
  8
Schematics
100
AcDbMText
 10
12.50235177860891
 20
17.32411146681611
 30
0.0
 40
0.1174762921875
 41
0.5874000000000002
 71
     4
 72
     5
  1
-IN
 11
0.0000000000000001
 21
1.0
 31
0.0
 73
     1
 44
1.0
1001
ACAD
1000
MTEXTBEGIN
1070
    73
1070
     1
1070
    44
1040
1.0
1070
    74
1070
     0
1000
MTEXTEND
  0
LINE
  5
1262
330
1F
100
AcDbEntity
  8
Schematics
100
AcDbLine
 10
11.08514794328971
 20
17.74291206705767
 30
0.0
 11
12.63614794328971
 21
17.74291206705767
 31
0.0
  0
CIRCLE
  5
126B
330
1F
100
AcDbEntity
  8
Schematics
100
AcDbCircle
 10
11.84263759354958
 20
15.25457414056434
 30
0.0
 40
0.4881777633818026
  0
MTEXT
  5
126C
330
1F
100
AcDbEntity
  8
Schematics
100
AcDbMText
 10
11.85605543154303
 20
15.60535187018503
 30
0.0
 40
0.0745541057065256
 41
0.4898484979808436
 71
     2
 72
     5
  1
Pneumatic Test Jack
 73
     1
 44
1.0
1001
ACAD
1000
MTEXTBEGIN
1070
    73
1070
     1
1070
    44
1040
1.0
1070
    74
1070
     0
1000
MTEXTEND
  0
CIRCLE
  5
126D
330
1F
100
AcDbEntity
  8
Schematics
100
AcDbCircle
 10
11.84263759354958
 20
15.25457414056434
 30
0.0
 40
0.1255314342823226
  0
ARC
  5
1270
330
1F
100
AcDbEntity
  8
Schematics
100
AcDbCircle
 10
11.18879594335097
 20
14.11147438259406
 30
0.0
 40
0.1036480000612485
100
AcDbArc
 50
180.0
 51
0.0
  0
ARC
  5
1271
330
1F
100
AcDbEntity
  8
Schematics
100
AcDbCircle
 10
11.18879594335097
 20
14.48428665918011
 30
0.0
 40
0.1036480000612485
100
AcDbArc
 50
0.0
 51
180.0
  0
LINE
  5
1272
330
1F
100
AcDbEntity
  8
Schematics
100
AcDbLine
 10
11.08514794328972
 20
14.11147438259406
 30
0.0
 11
11.08514794328972
 21
14.48428665918011
 31
0.0
  0
LINE
  5
1273
330
1F
100
AcDbEntity
  8
Schematics
100
AcDbLine
 10
11.29244394341222
 20
14.11147438259406
 30
0.0
 11
11.29244394341222
 21
14.48428665918011
 31
0.0
  0
ARC
  5
1274
330
1F
100
AcDbEntity
  8
Schematics
100
AcDbCircle
 10
12.53249994322847
 20
14.11147438259406
 30
0.0
 40
0.1036480000612485
100
AcDbArc
 50
180.0
 51
0.0
  0
ARC
  5
1275
330
1F
100
AcDbEntity
  8
Schematics
100
AcDbCircle
 10
12.53249994322847
 20
14.48428665918011
 30
0.0
 40
0.1036480000612485
100
AcDbArc
 50
0.0
 51
180.0
  0
LINE
  5
1276
330
1F
100
AcDbEntity
  8
Schematics
100
AcDbLine
 10
12.42885194316722
 20
14.11147438259406
 30
0.0
 11
12.42885194316722
 21
14.48428665918011
 31
0.0
  0
LINE
  5
1277
330
1F
100
AcDbEntity
  8
Schematics
100
AcDbLine
 10
12.63614794328972
 20
14.11147438259406
 30
0.0
 11
12.63614794328972
 21
14.48428665918011
 31
0.0
  0
MTEXT
  5
1278
330
1F
100
AcDbEntity
  8
Schematics
100
AcDbMText
 10
11.10237269954231
 20
14.35525357703933
 30
0.0
 40
0.1174762921875
 41
0.207296000122497
 71
     1
 72
     5
  1
+T
 73
     1
 44
1.0
1001
ACAD
1000
MTEXTBEGIN
1070
    73
1070
     1
1070
    44
1040
1.0
1070
    74
1070
     0
1000
MTEXTEND
  0
MTEXT
  5
1279
330
1F
100
AcDbEntity
  8
Schematics
100
AcDbMText
 10
12.44607669941981
 20
14.35525357703933
 30
0.0
 40
0.1174762921875
 41
0.207296000122497
 71
     1
 72
     5
  1
-T
 73
     1
 44
1.0
1001
ACAD
1000
MTEXTBEGIN
1070
    73
1070
     1
1070
    44
1040
1.0
1070
    74
1070
     0
1000
MTEXTEND
  0
LINE
  5
127B
330
1F
100
AcDbEntity
  8
Schematics
100
AcDbLine
 10
15.18714794328973
 20
17.74291206705767
 30
0.0
 11
15.18714794328973
 21
17.16280379034913
 31
0.0
  0
LINE
  5
127C
330
1F
100
AcDbEntity
  8
Schematics
100
AcDbLine
 10
15.18714794328973
 20
14.66348232429769
 30
0.0
 11
15.18714794328971
 21
14.11147438259409
 31
0.0
  0
LINE
  5
127D
330
1F
100
AcDbEntity
  8
Schematics
100
AcDbLine
 10
13.63614794328972
 20
17.74291206705767
 30
0.0
 11
13.63614794328973
 21
14.11147438259406
 31
0.0
  0
LINE
  5
127E
330
1F
100
AcDbEntity
  8
Schematics
100
AcDbLine
 10
13.84344394341223
 20
14.11147438259408
 30
0.0
 11
14.97985194316723
 21
14.11147438259409
 31
0.0
  0
LINE
  5
127F
330
1F
100
AcDbEntity
  8
Schematics
100
AcDbLine
 10
15.18714794328973
 20
14.11147438259406
 30
0.0
 11
15.18714794328971
 21
17.74291206705767
 31
0.0
  0
LINE
  5
1280
330
1F
100
AcDbEntity
  8
Schematics
100
AcDbLine
 10
14.68714794328973
 20
17.74291206705767
 30
0.0
 11
14.68714794328973
 21
17.16280379034913
 31
0.0
  0
LINE
  5
1281
330
1F
100
AcDbEntity
  8
Schematics
100
AcDbLine
 10
14.93714794328973
 20
17.74291206705767
 30
0.0
 11
14.93714794328973
 21
17.16280379034913
 31
0.0
  0
ARC
  5
1282
330
1F
100
AcDbEntity
  8
Schematics
100
AcDbCircle
 10
14.81214794328973
 20
17.16280379034913
 30
0.0
 40
0.125
100
AcDbArc
 50
180.0
 51
0.0
  0
LINE
  5
1283
330
1F
100
AcDbEntity
  8
Schematics
100
AcDbLine
 10
14.93714794328973
 20
17.74291206705767
 30
0.0
 11
14.93714794328973
 21
17.16280379034913
 31
0.0
  0
LINE
  5
1284
330
1F
100
AcDbEntity
  8
Schematics
100
AcDbLine
 10
15.18714794328971
 20
17.74291206705767
 30
0.0
 11
15.18714794328973
 21
17.16280379034913
 31
0.0
  0
ARC
  5
1285
330
1F
100
AcDbEntity
  8
Schematics
100
AcDbCircle
 10
15.06214794328973
 20
17.16280379034913
 30
0.0
 40
0.125
100
AcDbArc
 50
180.0
 51
0.0
  0
LINE
  5
1286
330
1F
100
AcDbEntity
  8
Schematics
100
AcDbLine
 10
15.18714794328971
 20
17.74291206705767
 30
0.0
 11
15.18714794328973
 21
17.16280379034913
 31
0.0
  0
MTEXT
  5
1287
330
1F
100
AcDbEntity
  8
Schematics
100
AcDbMText
 10
14.80446899988268
 20
17.17270864298547
 30
0.0
 40
0.1174762921875
 41
0.5874000000000002
 71
     5
 72
     5
  1
1
 73
     1
 44
1.0
1001
ACAD
1000
MTEXTBEGIN
1070
    73
1070
     1
1070
    44
1040
1.0
1070
    74
1070
     0
1000
MTEXTEND
  0
MTEXT
  5
1288
330
1F
100
AcDbEntity
  8
Schematics
100
AcDbMText
 10
15.0544689998827
 20
17.17270864298547
 30
0.0
 40
0.1174762921875
 41
0.5874000000000002
 71
     5
 72
     5
  1
2
 73
     1
 44
1.0
1001
ACAD
1000
MTEXTBEGIN
1070
    73
1070
     1
1070
    44
1040
1.0
1070
    74
1070
     0
1000
MTEXTEND
  0
MTEXT
  5
1289
330
1F
100
AcDbEntity
  8
Schematics
100
AcDbMText
 10
14.80335177860891
 20
17.32411146681611
 30
0.0
 40
0.1174762921875
 41
0.5874000000000002
 71
     4
 72
     5
  1
+IN
 11
0.0000000000000001
 21
1.0
 31
0.0
 73
     1
 44
1.0
1001
ACAD
1000
MTEXTBEGIN
1070
    73
1070
     1
1070
    44
1040
1.0
1070
    74
1070
     0
1000
MTEXTEND
  0
MTEXT
  5
128A
330
1F
100
AcDbEntity
  8
Schematics
100
AcDbMText
 10
15.05335177860892
 20
17.32411146681611
 30
0.0
 40
0.1174762921875
 41
0.5874000000000002
 71
     4
 72
     5
  1
-IN
 11
0.0000000000000001
 21
1.0
 31
0.0
 73
     1
 44
1.0
1001
ACAD
1000
MTEXTBEGIN
1070
    73
1070
     1
1070
    44
1040
1.0
1070
    74
1070
     0
1000
MTEXTEND
  0
LINE
  5
128B
330
1F
100
AcDbEntity
  8
Schematics
100
AcDbLine
 10
13.63614794328972
 20
17.74291206705767
 30
0.0
 11
15.18714794328971
 21
17.74291206705767
 31
0.0
  0
CIRCLE
  5
1294
330
1F
100
AcDbEntity
  8
Schematics
100
AcDbCircle
 10
14.39363759354959
 20
15.25457414056434
 30
0.0
 40
0.4881777633818026
  0
MTEXT
  5
1295
330
1F
100
AcDbEntity
  8
Schematics
100
AcDbMText
 10
14.40705543154304
 20
15.60535187018503
 30
0.0
 40
0.0745541057065256
 41
0.4898484979808436
 71
     2
 72
     5
  1
Pneumatic Test Jack
 73
     1
 44
1.0
1001
ACAD
1000
MTEXTBEGIN
1070
    73
1070
     1
1070
    44
1040
1.0
1070
    74
1070
     0
1000
MTEXTEND
  0
CIRCLE
  5
1296
330
1F
100
AcDbEntity
  8
Schematics
100
AcDbCircle
 10
14.39363759354959
 20
15.25457414056434
 30
0.0
 40
0.1255314342823226
  0
ARC
  5
1299
330
1F
100
AcDbEntity
  8
Schematics
100
AcDbCircle
 10
13.73979594335098
 20
14.11147438259406
 30
0.0
 40
0.1036480000612485
100
AcDbArc
 50
180.0
 51
0.0
  0
ARC
  5
129A
330
1F
100
AcDbEntity
  8
Schematics
100
AcDbCircle
 10
13.73979594335098
 20
14.48428665918011
 30
0.0
 40
0.1036480000612485
100
AcDbArc
 50
0.0
 51
180.0
  0
LINE
  5
129B
330
1F
100
AcDbEntity
  8
Schematics
100
AcDbLine
 10
13.63614794328973
 20
14.11147438259406
 30
0.0
 11
13.63614794328973
 21
14.48428665918011
 31
0.0
  0
LINE
  5
129C
330
1F
100
AcDbEntity
  8
Schematics
100
AcDbLine
 10
13.84344394341223
 20
14.11147438259406
 30
0.0
 11
13.84344394341223
 21
14.48428665918011
 31
0.0
  0
ARC
  5
129D
330
1F
100
AcDbEntity
  8
Schematics
100
AcDbCircle
 10
15.08349994322848
 20
14.11147438259406
 30
0.0
 40
0.1036480000612485
100
AcDbArc
 50
180.0
 51
0.0
  0
ARC
  5
129E
330
1F
100
AcDbEntity
  8
Schematics
100
AcDbCircle
 10
15.08349994322848
 20
14.48428665918011
 30
0.0
 40
0.1036480000612485
100
AcDbArc
 50
0.0
 51
180.0
  0
LINE
  5
129F
330
1F
100
AcDbEntity
  8
Schematics
100
AcDbLine
 10
14.97985194316723
 20
14.11147438259406
 30
0.0
 11
14.97985194316723
 21
14.48428665918011
 31
0.0
  0
LINE
  5
12A0
330
1F
100
AcDbEntity
  8
Schematics
100
AcDbLine
 10
15.18714794328973
 20
14.11147438259406
 30
0.0
 11
15.18714794328973
 21
14.48428665918011
 31
0.0
  0
MTEXT
  5
12A1
330
1F
100
AcDbEntity
  8
Schematics
100
AcDbMText
 10
13.65337269954231
 20
14.35525357703933
 30
0.0
 40
0.1174762921875
 41
0.207296000122497
 71
     1
 72
     5
  1
+T
 73
     1
 44
1.0
1001
ACAD
1000
MTEXTBEGIN
1070
    73
1070
     1
1070
    44
1040
1.0
1070
    74
1070
     0
1000
MTEXTEND
  0
MTEXT
  5
12A2
330
1F
100
AcDbEntity
  8
Schematics
100
AcDbMText
 10
14.99707669941982
 20
14.35525357703933
 30
0.0
 40
0.1174762921875
 41
0.207296000122497
 71
     1
 72
     5
  1
-T
 73
     1
 44
1.0
1001
ACAD
1000
MTEXTBEGIN
1070
    73
1070
     1
1070
    44
1040
1.0
1070
    74
1070
     0
1000
MTEXTEND
  0
LINE
  5
1322
330
1F
100
AcDbEntity
  8
Schematics
100
AcDbLine
 10
12.63614794328973
 20
12.11147438259406
 30
0.0
 11
12.63614794328973
 21
11.53136610588552
 31
0.0
  0
LINE
  5
1323
330
1F
100
AcDbEntity
  8
Schematics
100
AcDbLine
 10
12.63614794328973
 20
9.032044639834085
 30
0.0
 11
12.63614794328972
 21
8.48003669813049
 31
0.0
  0
LINE
  5
1324
330
1F
100
AcDbEntity
  8
Schematics
100
AcDbLine
 10
11.08514794328972
 20
12.11147438259406
 30
0.0
 11
11.08514794328973
 21
8.480036698130456
 31
0.0
  0
LINE
  5
1325
330
1F
100
AcDbEntity
  8
Schematics
100
AcDbLine
 10
11.29244394341223
 20
8.480036698130472
 30
0.0
 11
12.42885194316723
 21
8.480036698130481
 31
0.0
  0
LINE
  5
1326
330
1F
100
AcDbEntity
  8
Schematics
100
AcDbLine
 10
12.63614794328973
 20
8.480036698130456
 30
0.0
 11
12.63614794328972
 21
12.11147438259406
 31
0.0
  0
LINE
  5
1327
330
1F
100
AcDbEntity
  8
Schematics
100
AcDbLine
 10
12.13614794328973
 20
12.11147438259406
 30
0.0
 11
12.13614794328973
 21
11.53136610588552
 31
0.0
  0
LINE
  5
1328
330
1F
100
AcDbEntity
  8
Schematics
100
AcDbLine
 10
12.38614794328973
 20
12.11147438259406
 30
0.0
 11
12.38614794328973
 21
11.53136610588552
 31
0.0
  0
ARC
  5
1329
330
1F
100
AcDbEntity
  8
Schematics
100
AcDbCircle
 10
12.26114794328973
 20
11.53136610588552
 30
0.0
 40
0.125
100
AcDbArc
 50
180.0
 51
0.0
  0
LINE
  5
132A
330
1F
100
AcDbEntity
  8
Schematics
100
AcDbLine
 10
12.38614794328973
 20
12.11147438259406
 30
0.0
 11
12.38614794328973
 21
11.53136610588552
 31
0.0
  0
LINE
  5
132B
330
1F
100
AcDbEntity
  8
Schematics
100
AcDbLine
 10
12.63614794328972
 20
12.11147438259406
 30
0.0
 11
12.63614794328973
 21
11.53136610588552
 31
0.0
  0
ARC
  5
132C
330
1F
100
AcDbEntity
  8
Schematics
100
AcDbCircle
 10
12.51114794328973
 20
11.53136610588552
 30
0.0
 40
0.125
100
AcDbArc
 50
180.0
 51
0.0
  0
LINE
  5
132D
330
1F
100
AcDbEntity
  8
Schematics
100
AcDbLine
 10
12.63614794328972
 20
12.11147438259406
 30
0.0
 11
12.63614794328973
 21
11.53136610588552
 31
0.0
  0
MTEXT
  5
132E
330
1F
100
AcDbEntity
  8
Schematics
100
AcDbMText
 10
12.25346899988269
 20
11.54127095852186
 30
0.0
 40
0.1174762921875
 41
0.5874000000000002
 71
     5
 72
     5
  1
1
 73
     1
 44
1.0
1001
ACAD
1000
MTEXTBEGIN
1070
    73
1070
     1
1070
    44
1040
1.0
1070
    74
1070
     0
1000
MTEXTEND
  0
MTEXT
  5
132F
330
1F
100
AcDbEntity
  8
Schematics
100
AcDbMText
 10
12.50346899988269
 20
11.54127095852186
 30
0.0
 40
0.1174762921875
 41
0.5874000000000002
 71
     5
 72
     5
  1
2
 73
     1
 44
1.0
1001
ACAD
1000
MTEXTBEGIN
1070
    73
1070
     1
1070
    44
1040
1.0
1070
    74
1070
     0
1000
MTEXTEND
  0
MTEXT
  5
1330
330
1F
100
AcDbEntity
  8
Schematics
100
AcDbMText
 10
12.25235177860891
 20
11.69267378235251
 30
0.0
 40
0.1174762921875
 41
0.5874000000000002
 71
     4
 72
     5
  1
+IN
 11
0.0000000000000001
 21
1.0
 31
0.0
 73
     1
 44
1.0
1001
ACAD
1000
MTEXTBEGIN
1070
    73
1070
     1
1070
    44
1040
1.0
1070
    74
1070
     0
1000
MTEXTEND
  0
MTEXT
  5
1331
330
1F
100
AcDbEntity
  8
Schematics
100
AcDbMText
 10
12.50235177860892
 20
11.69267378235251
 30
0.0
 40
0.1174762921875
 41
0.5874000000000002
 71
     4
 72
     5
  1
-IN
 11
0.0000000000000001
 21
1.0
 31
0.0
 73
     1
 44
1.0
1001
ACAD
1000
MTEXTBEGIN
1070
    73
1070
     1
1070
    44
1040
1.0
1070
    74
1070
     0
1000
MTEXTEND
  0
LINE
  5
1332
330
1F
100
AcDbEntity
  8
Schematics
100
AcDbLine
 10
11.08514794328972
 20
12.11147438259406
 30
0.0
 11
12.63614794328972
 21
12.11147438259406
 31
0.0
  0
ARC
  5
1340
330
1F
100
AcDbEntity
  8
Schematics
100
AcDbCircle
 10
11.18879594335098
 20
8.480036698130456
 30
0.0
 40
0.1036480000612485
100
AcDbArc
 50
180.0
 51
0.0
  0
ARC
  5
1341
330
1F
100
AcDbEntity
  8
Schematics
100
AcDbCircle
 10
11.18879594335098
 20
8.852848974716502
 30
0.0
 40
0.1036480000612485
100
AcDbArc
 50
0.0
 51
180.0
  0
LINE
  5
1342
330
1F
100
AcDbEntity
  8
Schematics
100
AcDbLine
 10
11.08514794328973
 20
8.480036698130456
 30
0.0
 11
11.08514794328973
 21
8.852848974716502
 31
0.0
  0
LINE
  5
1343
330
1F
100
AcDbEntity
  8
Schematics
100
AcDbLine
 10
11.29244394341223
 20
8.480036698130456
 30
0.0
 11
11.29244394341223
 21
8.852848974716502
 31
0.0
  0
ARC
  5
1344
330
1F
100
AcDbEntity
  8
Schematics
100
AcDbCircle
 10
12.53249994322848
 20
8.480036698130456
 30
0.0
 40
0.1036480000612485
100
AcDbArc
 50
180.0
 51
0.0
  0
ARC
  5
1345
330
1F
100
AcDbEntity
  8
Schematics
100
AcDbCircle
 10
12.53249994322848
 20
8.852848974716502
 30
0.0
 40
0.1036480000612485
100
AcDbArc
 50
0.0
 51
180.0
  0
LINE
  5
1346
330
1F
100
AcDbEntity
  8
Schematics
100
AcDbLine
 10
12.42885194316723
 20
8.480036698130456
 30
0.0
 11
12.42885194316723
 21
8.852848974716502
 31
0.0
  0
LINE
  5
1347
330
1F
100
AcDbEntity
  8
Schematics
100
AcDbLine
 10
12.63614794328973
 20
8.480036698130456
 30
0.0
 11
12.63614794328973
 21
8.852848974716502
 31
0.0
  0
MTEXT
  5
1348
330
1F
100
AcDbEntity
  8
Schematics
100
AcDbMText
 10
11.10237269954231
 20
8.723815892575721
 30
0.0
 40
0.1174762921875
 41
0.207296000122497
 71
     1
 72
     5
  1
+T
 73
     1
 44
1.0
1001
ACAD
1000
MTEXTBEGIN
1070
    73
1070
     1
1070
    44
1040
1.0
1070
    74
1070
     0
1000
MTEXTEND
  0
MTEXT
  5
1349
330
1F
100
AcDbEntity
  8
Schematics
100
AcDbMText
 10
12.44607669941982
 20
8.723815892575721
 30
0.0
 40
0.1174762921875
 41
0.207296000122497
 71
     1
 72
     5
  1
-T
 73
     1
 44
1.0
1001
ACAD
1000
MTEXTBEGIN
1070
    73
1070
     1
1070
    44
1040
1.0
1070
    74
1070
     0
1000
MTEXTEND
  0
LINE
  5
134B
330
1F
100
AcDbEntity
  8
Schematics
100
AcDbLine
 10
15.18714794328974
 20
12.11147438259406
 30
0.0
 11
15.18714794328974
 21
11.53136610588552
 31
0.0
  0
LINE
  5
134C
330
1F
100
AcDbEntity
  8
Schematics
100
AcDbLine
 10
15.18714794328974
 20
9.032044639834085
 30
0.0
 11
15.18714794328973
 21
8.48003669813049
 31
0.0
  0
LINE
  5
134D
330
1F
100
AcDbEntity
  8
Schematics
100
AcDbLine
 10
13.63614794328973
 20
12.11147438259406
 30
0.0
 11
13.63614794328974
 21
8.480036698130456
 31
0.0
  0
LINE
  5
134E
330
1F
100
AcDbEntity
  8
Schematics
100
AcDbLine
 10
13.84344394341223
 20
8.480036698130472
 30
0.0
 11
14.97985194316723
 21
8.480036698130481
 31
0.0
  0
LINE
  5
134F
330
1F
100
AcDbEntity
  8
Schematics
100
AcDbLine
 10
15.18714794328974
 20
8.480036698130456
 30
0.0
 11
15.18714794328973
 21
12.11147438259406
 31
0.0
  0
LINE
  5
1350
330
1F
100
AcDbEntity
  8
Schematics
100
AcDbLine
 10
14.68714794328974
 20
12.11147438259406
 30
0.0
 11
14.68714794328974
 21
11.53136610588552
 31
0.0
  0
LINE
  5
1351
330
1F
100
AcDbEntity
  8
Schematics
100
AcDbLine
 10
14.93714794328974
 20
12.11147438259406
 30
0.0
 11
14.93714794328974
 21
11.53136610588552
 31
0.0
  0
ARC
  5
1352
330
1F
100
AcDbEntity
  8
Schematics
100
AcDbCircle
 10
14.81214794328974
 20
11.53136610588552
 30
0.0
 40
0.125
100
AcDbArc
 50
180.0
 51
0.0
  0
LINE
  5
1353
330
1F
100
AcDbEntity
  8
Schematics
100
AcDbLine
 10
14.93714794328974
 20
12.11147438259406
 30
0.0
 11
14.93714794328974
 21
11.53136610588552
 31
0.0
  0
LINE
  5
1354
330
1F
100
AcDbEntity
  8
Schematics
100
AcDbLine
 10
15.18714794328973
 20
12.11147438259406
 30
0.0
 11
15.18714794328974
 21
11.53136610588552
 31
0.0
  0
ARC
  5
1355
330
1F
100
AcDbEntity
  8
Schematics
100
AcDbCircle
 10
15.06214794328974
 20
11.53136610588552
 30
0.0
 40
0.125
100
AcDbArc
 50
180.0
 51
0.0
  0
LINE
  5
1356
330
1F
100
AcDbEntity
  8
Schematics
100
AcDbLine
 10
15.18714794328973
 20
12.11147438259406
 30
0.0
 11
15.18714794328974
 21
11.53136610588552
 31
0.0
  0
MTEXT
  5
1357
330
1F
100
AcDbEntity
  8
Schematics
100
AcDbMText
 10
14.8044689998827
 20
11.54127095852186
 30
0.0
 40
0.1174762921875
 41
0.5874000000000002
 71
     5
 72
     5
  1
1
 73
     1
 44
1.0
1001
ACAD
1000
MTEXTBEGIN
1070
    73
1070
     1
1070
    44
1040
1.0
1070
    74
1070
     0
1000
MTEXTEND
  0
MTEXT
  5
1358
330
1F
100
AcDbEntity
  8
Schematics
100
AcDbMText
 10
15.0544689998827
 20
11.54127095852186
 30
0.0
 40
0.1174762921875
 41
0.5874000000000002
 71
     5
 72
     5
  1
2
 73
     1
 44
1.0
1001
ACAD
1000
MTEXTBEGIN
1070
    73
1070
     1
1070
    44
1040
1.0
1070
    74
1070
     0
1000
MTEXTEND
  0
MTEXT
  5
1359
330
1F
100
AcDbEntity
  8
Schematics
100
AcDbMText
 10
14.80335177860891
 20
11.69267378235251
 30
0.0
 40
0.1174762921875
 41
0.5874000000000002
 71
     4
 72
     5
  1
+IN
 11
0.0000000000000001
 21
1.0
 31
0.0
 73
     1
 44
1.0
1001
ACAD
1000
MTEXTBEGIN
1070
    73
1070
     1
1070
    44
1040
1.0
1070
    74
1070
     0
1000
MTEXTEND
  0
MTEXT
  5
135A
330
1F
100
AcDbEntity
  8
Schematics
100
AcDbMText
 10
15.05335177860893
 20
11.69267378235251
 30
0.0
 40
0.1174762921875
 41
0.5874000000000002
 71
     4
 72
     5
  1
-IN
 11
0.0000000000000001
 21
1.0
 31
0.0
 73
     1
 44
1.0
1001
ACAD
1000
MTEXTBEGIN
1070
    73
1070
     1
1070
    44
1040
1.0
1070
    74
1070
     0
1000
MTEXTEND
  0
LINE
  5
135B
330
1F
100
AcDbEntity
  8
Schematics
100
AcDbLine
 10
13.63614794328973
 20
12.11147438259406
 30
0.0
 11
15.18714794328973
 21
12.11147438259406
 31
0.0
  0
CIRCLE
  5
1364
330
1F
100
AcDbEntity
  8
Schematics
100
AcDbCircle
 10
14.39363759354959
 20
9.623136456100738
 30
0.0
 40
0.4881777633818026
  0
MTEXT
  5
1365
330
1F
100
AcDbEntity
  8
Schematics
100
AcDbMText
 10
14.40705543154304
 20
9.973914185721422
 30
0.0
 40
0.0745541057065256
 41
0.4898484979808436
 71
     2
 72
     5
  1
Pneumatic Test Jack
 73
     1
 44
1.0
1001
ACAD
1000
MTEXTBEGIN
1070
    73
1070
     1
1070
    44
1040
1.0
1070
    74
1070
     0
1000
MTEXTEND
  0
CIRCLE
  5
1366
330
1F
100
AcDbEntity
  8
Schematics
100
AcDbCircle
 10
14.39363759354959
 20
9.623136456100738
 30
0.0
 40
0.1255314342823226
  0
ARC
  5
1369
330
1F
100
AcDbEntity
  8
Schematics
100
AcDbCircle
 10
13.73979594335099
 20
8.480036698130456
 30
0.0
 40
0.1036480000612485
100
AcDbArc
 50
180.0
 51
0.0
  0
ARC
  5
136A
330
1F
100
AcDbEntity
  8
Schematics
100
AcDbCircle
 10
13.73979594335099
 20
8.852848974716502
 30
0.0
 40
0.1036480000612485
100
AcDbArc
 50
0.0
 51
180.0
  0
LINE
  5
136B
330
1F
100
AcDbEntity
  8
Schematics
100
AcDbLine
 10
13.63614794328974
 20
8.480036698130456
 30
0.0
 11
13.63614794328974
 21
8.852848974716502
 31
0.0
  0
LINE
  5
136C
330
1F
100
AcDbEntity
  8
Schematics
100
AcDbLine
 10
13.84344394341223
 20
8.480036698130456
 30
0.0
 11
13.84344394341223
 21
8.852848974716502
 31
0.0
  0
ARC
  5
136D
330
1F
100
AcDbEntity
  8
Schematics
100
AcDbCircle
 10
15.08349994322849
 20
8.480036698130456
 30
0.0
 40
0.1036480000612485
100
AcDbArc
 50
180.0
 51
0.0
  0
ARC
  5
136E
330
1F
100
AcDbEntity
  8
Schematics
100
AcDbCircle
 10
15.08349994322849
 20
8.852848974716502
 30
0.0
 40
0.1036480000612485
100
AcDbArc
 50
0.0
 51
180.0
  0
LINE
  5
136F
330
1F
100
AcDbEntity
  8
Schematics
100
AcDbLine
 10
14.97985194316723
 20
8.480036698130456
 30
0.0
 11
14.97985194316723
 21
8.852848974716502
 31
0.0
  0
LINE
  5
1370
330
1F
100
AcDbEntity
  8
Schematics
100
AcDbLine
 10
15.18714794328974
 20
8.480036698130456
 30
0.0
 11
15.18714794328974
 21
8.852848974716502
 31
0.0
  0
MTEXT
  5
1371
330
1F
100
AcDbEntity
  8
Schematics
100
AcDbMText
 10
13.65337269954233
 20
8.723815892575721
 30
0.0
 40
0.1174762921875
 41
0.207296000122497
 71
     1
 72
     5
  1
+T
 73
     1
 44
1.0
1001
ACAD
1000
MTEXTBEGIN
1070
    73
1070
     1
1070
    44
1040
1.0
1070
    74
1070
     0
1000
MTEXTEND
  0
MTEXT
  5
1372
330
1F
100
AcDbEntity
  8
Schematics
100
AcDbMText
 10
14.99707669941983
 20
8.723815892575721
 30
0.0
 40
0.1174762921875
 41
0.207296000122497
 71
     1
 72
     5
  1
-T
 73
     1
 44
1.0
1001
ACAD
1000
MTEXTBEGIN
1070
    73
1070
     1
1070
    44
1040
1.0
1070
    74
1070
     0
1000
MTEXTEND
  0
MTEXT
  5
13F7
330
1F
100
AcDbEntity
  8
Notes
370
     0
100
AcDbMText
 10
-6.107269375327811
 20
13.30547633132789
 30
0.0
 40
0.2
 41
3.019983788495806
 71
     1
 72
     5
  1
TOP VIEW
 73
     1
 44
1.0
1001
ACAD
1000
MTEXTBEGIN
1070
    73
1070
     1
1070
    44
1040
1.0
1070
    74
1070
     0
1000
MTEXTEND
  0
MTEXT
  5
13F8
330
1F
100
AcDbEntity
  8
Notes
370
     0
100
AcDbMText
 10
-6.107269375327811
 20
7.940422652835176
 30
0.0
 40
0.2
 41
3.019983788495806
 71
     1
 72
     5
  1
SIDE VIEW
 73
     1
 44
1.0
1001
ACAD
1000
MTEXTBEGIN
1070
    73
1070
     1
1070
    44
1040
1.0
1070
    74
1070
     0
1000
MTEXTEND
  0
MTEXT
  5
13F9
330
1F
100
AcDbEntity
  8
Notes
370
     0
100
AcDbMText
 10
-11.49302618178098
 20
7.940422652835176
 30
0.0
 40
0.2
 41
3.019983788495806
 71
     1
 72
     5
  1
BACK VIEW
 73
     1
 44
1.0
1001
ACAD
1000
MTEXTBEGIN
1070
    73
1070
     1
1070
    44
1040
1.0
1070
    74
1070
     0
1000
MTEXTEND
  0
MTEXT
  5
13FA
330
1F
100
AcDbEntity
  8
Notes
370
     0
100
AcDbMText
 10
-0.6278730395472625
 20
7.940422652835176
 30
0.0
 40
0.2
 41
3.019983788495806
 71
     1
 72
     5
  1
FRONT VIEW
 73
     1
 44
1.0
1001
ACAD
1000
MTEXTBEGIN
1070
    73
1070
     1
1070
    44
1040
1.0
1070
    74
1070
     0
1000
MTEXTEND
  0
MTEXT
  5
13FB
330
1F
100
AcDbEntity
  8
Notes
370
     0
100
AcDbMText
 10
-6.451374659707482
 20
4.214684415315121
 30
0.0
 40
0.2
 41
3.019983788495806
 71
     1
 72
     5
  1
BOTTOM VIEW
 73
     1
 44
1.0
1001
ACAD
1000
MTEXTBEGIN
1070
    73
1070
     1
1070
    44
1040
1.0
1070
    74
1070
     0
1000
MTEXTEND
  0
MTEXT
  5
19AD
330
1F
100
AcDbEntity
  8
Schematics
100
AcDbMText
 10
6.794910559896166
 20
13.58754151651564
 30
0.0
 40
0.234952584375
 41
6.989259917538298
 71
     5
 72
     5
  1
IPT2\P-FA1
 73
     1
 44
1.0
1001
ACAD
1000
MTEXTBEGIN
1070
    73
1070
     1
1070
    44
1040
1.0
1070
    74
1070
     0
1000
MTEXTEND
  0
MTEXT
  5
1AF5
330
1F
100
AcDbEntity
  8
Schematics
100
AcDbMText
 10
9.345910559896182
 20
13.58754151651564
 30
0.0
 40
0.234952584375
 41
6.989259917538298
 71
     5
 72
     5
  1
IPT2\P-FA2
 73
     1
 44
1.0
1001
ACAD
1000
MTEXTBEGIN
1070
    73
1070
     1
1070
    44
1040
1.0
1070
    74
1070
     0
1000
MTEXTEND
  0
MTEXT
  5
1AF6
330
1F
100
AcDbEntity
  8
Schematics
100
AcDbMText
 10
11.89691055989618
 20
13.58754151651564
 30
0.0
 40
0.234952584375
 41
6.989259917538298
 71
     5
 72
     5
  1
IPT2\P-FA3
 73
     1
 44
1.0
1001
ACAD
1000
MTEXTBEGIN
1070
    73
1070
     1
1070
    44
1040
1.0
1070
    74
1070
     0
1000
MTEXTEND
  0
MTEXT
  5
1AF7
330
1F
100
AcDbEntity
  8
Schematics
100
AcDbMText
 10
14.4479105598962
 20
13.58754151651564
 30
0.0
 40
0.234952584375
 41
6.989259917538298
 71
     5
 72
     5
  1
IPT2\P-FA4
 73
     1
 44
1.0
1001
ACAD
1000
MTEXTBEGIN
1070
    73
1070
     1
1070
    44
1040
1.0
1070
    74
1070
     0
1000
MTEXTEND
  0
MTEXT
  5
1AFB
330
1F
100
AcDbEntity
  8
Schematics
100
AcDbMText
 10
11.8969105598962
 20
7.956103832052036
 30
0.0
 40
0.234952584375
 41
6.989259917538298
 71
     5
 72
     5
  1
IPT2\P-FA7
 73
     1
 44
1.0
1001
ACAD
1000
MTEXTBEGIN
1070
    73
1070
     1
1070
    44
1040
1.0
1070
    74
1070
     0
1000
MTEXTEND
  0
MTEXT
  5
1AFC
330
1F
100
AcDbEntity
  8
Schematics
100
AcDbMText
 10
14.44791055989621
 20
7.956103832052036
 30
0.0
 40
0.234952584375
 41
6.989259917538298
 71
     5
 72
     5
  1
IPT2\P-FA8
 73
     1
 44
1.0
1001
ACAD
1000
MTEXTBEGIN
1070
    73
1070
     1
1070
    44
1040
1.0
1070
    74
1070
     0
1000
MTEXTEND
  0
CIRCLE
  5
1B50
330
1F
100
AcDbEntity
  8
Part
100
AcDbCircle
 10
0.6998290170722857
 20
9.812484437996186
 30
0.0
 40
0.093
  0
CIRCLE
  5
1B51
330
1F
100
AcDbEntity
  8
Part
100
AcDbCircle
 10
0.6998290170722857
 20
9.28348443799619
 30
0.0
 40
0.139
  0
LINE
  5
1B52
102
{ACAD_REACTORS
330
1D01
102
}
330
1F
100
AcDbEntity
  8
Part
100
AcDbLine
 10
-0.5571709829277142
 20
10.43748443799619
 30
0.0
 11
0.8998290170722857
 21
10.43748443799619
 31
0.0
  0
MTEXT
  5
1B56
330
1F
100
AcDbEntity
  8
Label
100
AcDbMText
 10
0.2080934975883995
 20
8.964272544724094
 30
0.0
 40
0.07
 41
0.3900000000000006
 71
     2
 72
     5
  1
{\fArial Narrow|b0|i0|c0|p34;\W0.8;INPUT}
 73
     1
 44
1.0
1001
ACAD
1000
MTEXTBEGIN
1070
    73
1070
     1
1070
    44
1040
1.0
1070
    74
1070
     0
1000
MTEXTEND
  0
LINE
  5
1B58
102
{ACAD_REACTORS
330
1D01
102
}
330
1F
100
AcDbEntity
  8
Part
100
AcDbLine
 10
0.4038290170722858
 20
11.17648443799619
 30
0.0
 11
0.4038290170722858
 21
10.43748443799619
 31
0.0
  0
LINE
  5
1B59
102
{ACAD_REACTORS
330
1D01
102
}
330
1F
100
AcDbEntity
  8
Part
100
AcDbLine
 10
-0.5571709829277142
 20
11.17648443799619
 30
0.0
 11
0.8998290170722857
 21
11.17648443799619
 31
0.0
  0
LINE
  5
1B5D
102
{ACAD_REACTORS
330
1D01
102
}
330
1F
100
AcDbEntity
  8
Part
100
AcDbLine
 10
0.8718290170722859
 20
10.95148443799618
 30
0.0
 11
0.7038290170722858
 21
10.95148443799619
 31
0.0
  0
LINE
  5
1B5E
102
{ACAD_REACTORS
330
1D01
102
}
330
1F
100
AcDbEntity
  8
Part
100
AcDbLine
 10
0.5018290170722858
 20
10.95148443799619
 30
0.0
 11
0.5018290170722858
 21
10.70848443799619
 31
0.0
  0
LINE
  5
1B5F
102
{ACAD_REACTORS
330
1D01
102
}
330
1F
100
AcDbEntity
  8
Part
100
AcDbLine
 10
0.8718290170722855
 20
10.70848443799619
 30
0.0
 11
0.7038290170722858
 21
10.70848443799619
 31
0.0
  0
LINE
  5
1B60
102
{ACAD_REACTORS
330
1D01
102
}
330
1F
100
AcDbEntity
  8
Part
100
AcDbLine
 10
0.6788290170722858
 20
10.95148443799619
 30
0.0
 11
0.6788290170722858
 21
10.70848443799619
 31
0.0
  0
LINE
  5
1B61
102
{ACAD_REACTORS
330
1D01
102
}
330
1F
100
AcDbEntity
  8
Part
100
AcDbLine
 10
0.7038290170722858
 20
10.95148443799619
 30
0.0
 11
0.7038290170722858
 21
10.70848443799619
 31
0.0
  0
LINE
  5
1B62
102
{ACAD_REACTORS
330
1D01
102
}
330
1F
100
AcDbEntity
  8
Part
100
AcDbLine
 10
0.8718290170722859
 20
10.95148443799618
 30
0.0
 11
0.8718290170722855
 21
10.70848443799619
 31
0.0
  0
LINE
  5
1B63
102
{ACAD_REACTORS
330
1D01
102
}
330
1F
100
AcDbEntity
  8
Part
100
AcDbLine
 10
0.6788290170722858
 20
10.70848443799619
 30
0.0
 11
0.5018290170722858
 21
10.70848443799619
 31
0.0
  0
LINE
  5
1B64
102
{ACAD_REACTORS
330
1D01
102
}
330
1F
100
AcDbEntity
  8
Part
100
AcDbLine
 10
0.6788290170722858
 20
10.95148443799619
 30
0.0
 11
0.5018290170722858
 21
10.95148443799619
 31
0.0
  0
LINE
  5
1B69
102
{ACAD_REACTORS
330
1D01
102
}
330
1F
100
AcDbEntity
  8
Part
100
AcDbLine
 10
0.5411898067884861
 20
10.83966597700576
 30
0.0
 11
0.6437309163630314
 21
10.83966597700576
 31
0.0
  0
LINE
  5
1B6A
102
{ACAD_REACTORS
330
1D01
102
}
330
1F
100
AcDbEntity
  8
Part
100
AcDbLine
 10
0.6437309163630314
 20
10.83966597700576
 30
0.0
 11
0.6437309163630314
 21
10.74160430541803
 31
0.0
  0
LINE
  5
1B6B
102
{ACAD_REACTORS
330
1D01
102
}
330
1F
100
AcDbEntity
  8
Part
100
AcDbLine
 10
0.6437309163630314
 20
10.74160430541803
 30
0.0
 11
0.5411898067884861
 21
10.74160430541803
 31
0.0
  0
LINE
  5
1B6C
102
{ACAD_REACTORS
330
1D01
102
}
330
1F
100
AcDbEntity
  8
Part
100
AcDbLine
 10
0.5411898067884861
 20
10.74160430541803
 30
0.0
 11
0.5411898067884861
 21
10.83966597700576
 31
0.0
  0
LINE
  5
1B6D
102
{ACAD_REACTORS
330
1D01
102
}
330
1F
100
AcDbEntity
  8
Part
100
AcDbLine
 10
0.7431898067884859
 20
10.83966597700576
 30
0.0
 11
0.8457309163630313
 21
10.83966597700576
 31
0.0
  0
LINE
  5
1B6E
102
{ACAD_REACTORS
330
1D01
102
}
330
1F
100
AcDbEntity
  8
Part
100
AcDbLine
 10
0.8457309163630313
 20
10.83966597700576
 30
0.0
 11
0.8457309163630313
 21
10.74160430541803
 31
0.0
  0
LINE
  5
1B6F
102
{ACAD_REACTORS
330
1D01
102
}
330
1F
100
AcDbEntity
  8
Part
100
AcDbLine
 10
0.8457309163630313
 20
10.74160430541803
 30
0.0
 11
0.7431898067884859
 21
10.74160430541803
 31
0.0
  0
LINE
  5
1B70
102
{ACAD_REACTORS
330
1D01
102
}
330
1F
100
AcDbEntity
  8
Part
100
AcDbLine
 10
0.7431898067884859
 20
10.74160430541803
 30
0.0
 11
0.7431898067884859
 21
10.83966597700576
 31
0.0
  0
LINE
  5
1B71
330
1F
100
AcDbEntity
  8
Part
100
AcDbLine
 10
0.6437309163630314
 20
10.83966597700576
 30
0.0
 11
0.6788290170722858
 21
10.95148443799619
 31
0.0
  0
LINE
  5
1B72
330
1F
100
AcDbEntity
  8
Part
100
AcDbLine
 10
0.5411898067884861
 20
10.83966597700576
 30
0.0
 11
0.5018290170722858
 21
10.95148443799619
 31
0.0
  0
LINE
  5
1B73
330
1F
100
AcDbEntity
  8
Part
100
AcDbLine
 10
0.5018290170722858
 20
10.70848443799619
 30
0.0
 11
0.5411898067884861
 21
10.74160430541803
 31
0.0
  0
LINE
  5
1B74
330
1F
100
AcDbEntity
  8
Part
100
AcDbLine
 10
0.6437309163630314
 20
10.74160430541803
 30
0.0
 11
0.6788290170722858
 21
10.70848443799619
 31
0.0
  0
LINE
  5
1B75
330
1F
100
AcDbEntity
  8
Part
100
AcDbLine
 10
0.7431898067884859
 20
10.74160430541803
 30
0.0
 11
0.7038290170722858
 21
10.70848443799619
 31
0.0
  0
LINE
  5
1B76
330
1F
100
AcDbEntity
  8
Part
100
AcDbLine
 10
0.8457309163630313
 20
10.74160430541803
 30
0.0
 11
0.8718290170722855
 21
10.70848443799619
 31
0.0
  0
LINE
  5
1B77
330
1F
100
AcDbEntity
  8
Part
100
AcDbLine
 10
0.8457309163630313
 20
10.83966597700576
 30
0.0
 11
0.8718290170722859
 21
10.95148443799618
 31
0.0
  0
LINE
  5
1B78
330
1F
100
AcDbEntity
  8
Part
100
AcDbLine
 10
0.7431898067884859
 20
10.83966597700576
 30
0.0
 11
0.7038290170722858
 21
10.95148443799619
 31
0.0
  0
CIRCLE
  5
1C50
102
{ACAD_REACTORS
330
1D01
102
}
330
1F
100
AcDbEntity
  8
Part
100
AcDbCircle
 10
0.5911688321525955
 20
10.56791732269321
 30
0.0
 40
0.079
  0
CIRCLE
  5
1C51
102
{ACAD_REACTORS
330
1D01
102
}
330
1F
100
AcDbEntity
  8
Part
100
AcDbCircle
 10
0.7931688321525954
 20
10.56791732269321
 30
0.0
 40
0.079
  0
LINE
  5
1CE3
330
1F
100
AcDbEntity
  8
Part
100
AcDbLine
 10
0.6504538055175937
 20
10.62013122824634
 30
0.0
 11
0.5389549265994628
 21
10.50863234932821
 31
0.0
  0
LINE
  5
1CE4
330
1F
100
AcDbEntity
  8
Part
100
AcDbLine
 10
0.6433827377057284
 20
10.62720229605821
 30
0.0
 11
0.5318838587875977
 21
10.51570341714008
 31
0.0
  0
LINE
  5
1CE5
330
1F
100
AcDbEntity
  8
Part
100
AcDbLine
 10
0.8453827377057292
 20
10.62720229605821
 30
0.0
 11
0.7338838587875977
 21
10.51570341714008
 31
0.0
  0
LINE
  5
1CE6
330
1F
100
AcDbEntity
  8
Part
100
AcDbLine
 10
0.8524538055175936
 20
10.62013122824634
 30
0.0
 11
0.7409549265994629
 21
10.50863234932821
 31
0.0
  0
HATCH
  5
1D01
330
1F
100
AcDbEntity
  8
Part
100
AcDbHatch
 10
0.0
 20
0.0
 30
0.0
210
0.0
220
0.0
230
1.0
  2
SOLID
 70
     1
 71
     1
 91
        7
 92
        7
 72
     0
 73
     1
 93
        4
 10
0.4038290170722859
 20
11.17648443799619
 10
0.4038290170722858
 20
10.43748443799619
 10
0.8998290170722857
 20
10.43748443799619
 10
0.8998290170722857
 20
11.17648443799619
 97
        4
330
1B59
330
1B58
330
1B52
330
74D
 92
       22
 72
     0
 73
     1
 93
        4
 10
0.6788290170722858
 20
10.95148443799619
 10
0.6788290170722858
 20
10.70848443799619
 10
0.5018290170722858
 20
10.70848443799619
 10
0.5018290170722858
 20
10.95148443799619
 97
        4
330
1B60
330
1B63
330
1B5E
330
1B64
 92
        6
 72
     0
 73
     1
 93
        4
 10
0.6437309163630314
 20
10.83966597700576
 10
0.6437309163630314
 20
10.74160430541803
 10
0.5411898067884861
 20
10.74160430541803
 10
0.5411898067884861
 20
10.83966597700576
 97
        4
330
1B6A
330
1B6B
330
1B6C
330
1B69
 92
       22
 72
     0
 73
     1
 93
        4
 10
0.7038290170722862
 20
10.95148443799619
 10
0.8718290170722857
 20
10.95148443799618
 10
0.8718290170722855
 20
10.70848443799619
 10
0.7038290170722858
 20
10.70848443799619
 97
        4
330
1B5D
330
1B62
330
1B5F
330
1B61
 92
        6
 72
     0
 73
     1
 93
        4
 10
0.7431898067884855
 20
10.83966597700576
 10
0.8457309163630313
 20
10.83966597700576
 10
0.8457309163630313
 20
10.74160430541803
 10
0.7431898067884858
 20
10.74160430541803
 97
        4
330
1B6D
330
1B6E
330
1B6F
330
1B70
 92
       22
 72
     1
 73
     1
 93
        2
 10
0.6701688321525955
 20
10.56791732269321
 42
-1.0
 10
0.5121688321525956
 20
10.56791732269321
 42
-1.0
 97
        1
330
1C50
 92
       22
 72
     1
 73
     1
 93
        2
 10
0.8721688321525952
 20
10.56791732269321
 42
-1.0
 10
0.7141688321525955
 20
10.56791732269321
 42
-1.0
 97
        1
330
1C51
 75
     0
 76
     1
 47
0.0038960724898532
 98
        7
 10
0.6456849635596651
 20
11.09665137781253
 10
0.6456849635596651
 20
11.09665137781253
 10
0.6456849635596651
 20
11.09665137781253
 10
0.6456849635596651
 20
11.09665137781253
 10
0.6456849635596651
 20
11.09665137781253
 10
0.6456849635596651
 20
11.09665137781253
 10
0.6456849635596651
 20
11.09665137781253
1001
ACAD
1010
0.0
1020
0.0
1030
0.0
  0
LINE
  5
1D02
330
1F
100
AcDbEntity
  8
Part
100
AcDbLine
 10
-0.5371709829277142
 20
11.13348443799619
 30
0.0
 11
0.3838290170722858
 21
11.13348443799619
 31
0.0
  0
LINE
  5
1D03
330
1F
100
AcDbEntity
  8
Part
100
AcDbLine
 10
-0.5371709829277142
 20
10.48048443799618
 30
0.0
 11
0.3838290170722858
 21
10.48048443799619
 31
0.0
  0
LINE
  5
1D06
330
1F
100
AcDbEntity
  8
Part
100
AcDbLine
 10
-0.5371709829277142
 20
11.05748443799619
 30
0.0
 11
0.3838290170722858
 21
11.05748443799619
 31
0.0
  0
LINE
  5
1D07
330
1F
100
AcDbEntity
  8
Part
100
AcDbLine
 10
-0.5371709829277142
 20
10.55648443799619
 30
0.0
 11
0.3838290170722858
 21
10.55648443799618
 31
0.0
  0
LINE
  5
1D0A
330
1F
100
AcDbEntity
  8
Part
100
AcDbLine
 10
-0.5371709829277142
 20
10.82198443799619
 30
0.0
 11
0.3838290170722858
 21
10.82198443799619
 31
0.0
  0
LINE
  5
1D0B
330
1F
100
AcDbEntity
  8
Part
100
AcDbLine
 10
-0.5371709829277142
 20
10.79198443799618
 30
0.0
 11
0.3838290170722858
 21
10.79198443799618
 31
0.0
  0
LINE
  5
1D34
330
1F
100
AcDbEntity
  8
Part
100
AcDbLine
 10
-0.5571709829277142
 20
11.17648443799619
 30
0.0
 11
-0.5571709829277142
 21
10.43748443799619
 31
0.0
  0
LINE
  5
1D35
330
1F
100
AcDbEntity
  8
Part
100
AcDbLine
 10
-0.5371709829277142
 20
11.17648443799619
 30
0.0
 11
-0.5371709829277142
 21
10.43748443799619
 31
0.0
  0
LINE
  5
1D36
330
1F
100
AcDbEntity
  8
Part
100
AcDbLine
 10
0.3838290170722858
 20
11.17648443799619
 30
0.0
 11
0.3838290170722858
 21
10.43748443799619
 31
0.0
  0
LINE
  5
1DE0
330
1F
100
AcDbEntity
  8
Part
100
AcDbLine
 10
-3.655603589217921
 20
14.40313828621491
 30
0.0
 11
-3.427603589217921
 21
14.40313828621491
 31
0.0
  0
LINE
  5
1DE1
330
1F
100
AcDbEntity
  8
Part
100
AcDbLine
 10
-3.655603589217921
 20
13.48313828621491
 30
0.0
 11
-3.427603589217921
 21
13.48313828621491
 31
0.0
  0
LINE
  5
1DF2
330
1F
100
AcDbEntity
  8
Part
100
AcDbLine
 10
-3.497603589217921
 20
13.48313828621491
 30
0.0
 11
-3.497603589217922
 21
14.40313828621491
 31
0.0
  0
MTEXT
  5
1F34
330
1F
100
AcDbEntity
  8
Schematics
100
AcDbMText
 10
9.082319001252322
 20
16.73077291435381
 30
0.0
 40
0.234952584375
 41
0.67555
 71
     5
 72
     5
  1
IPT
 73
     1
 44
1.0
1001
ACAD
1000
MTEXTBEGIN
1070
    73
1070
     1
1070
    44
1040
1.0
1070
    74
1070
     0
1000
MTEXTEND
  0
LINE
  5
1F35
330
1F
100
AcDbEntity
  8
Schematics
100
AcDbLine
 10
9.62224942930884
 20
16.35440956065579
 30
0.0
 11
9.87224942930884
 21
16.35440956065579
 31
0.0
  0
LINE
  5
1F36
330
1F
100
AcDbEntity
  8
Schematics
100
AcDbLine
 10
9.87224942930884
 20
16.35440956065579
 30
0.0
 11
9.87224942930884
 21
16.10440956065579
 31
0.0
  0
LINE
  5
1F37
330
1F
100
AcDbEntity
  8
Schematics
100
AcDbLine
 10
9.62224942930884
 20
16.35440956065579
 30
0.0
 11
9.62224942930884
 21
16.10440956065579
 31
0.0
  0
LINE
  5
1F38
330
1F
100
AcDbEntity
  8
Schematics
100
AcDbLine
 10
9.62224942930884
 20
16.10440956065579
 30
0.0
 11
9.87224942930884
 21
16.10440956065579
 31
0.0
  0
LINE
  5
1F39
330
1F
100
AcDbEntity
  8
Schematics
100
AcDbLine
 10
9.62224942930884
 20
16.05326906100967
 30
0.0
 11
9.87224942930884
 21
16.05326906100967
 31
0.0
  0
LINE
  5
1F3A
330
1F
100
AcDbEntity
  8
Schematics
100
AcDbLine
 10
9.87224942930884
 20
16.05326906100967
 30
0.0
 11
9.87224942930884
 21
15.80326906100967
 31
0.0
  0
LINE
  5
1F3B
330
1F
100
AcDbEntity
  8
Schematics
100
AcDbLine
 10
9.62224942930884
 20
16.05326906100967
 30
0.0
 11
9.62224942930884
 21
15.80326906100967
 31
0.0
  0
LINE
  5
1F3C
330
1F
100
AcDbEntity
  8
Schematics
100
AcDbLine
 10
9.62224942930884
 20
15.80326906100967
 30
0.0
 11
9.87224942930884
 21
15.80326906100967
 31
0.0
  0
MTEXT
  5
1F3D
330
1F
100
AcDbEntity
  8
Schematics
100
AcDbMText
 10
9.626451328426611
 20
16.02935953976463
 30
0.0
 40
0.064731711322471
 41
0.1377548399705084
 71
     1
 72
     5
  1
SPAN
 73
     1
 44
1.0
1001
ACAD
1000
MTEXTBEGIN
1070
    73
1070
     1
1070
    44
1040
1.0
1070
    74
1070
     0
1000
MTEXTEND
  0
MTEXT
  5
1F3E
330
1F
100
AcDbEntity
  8
Schematics
100
AcDbMText
 10
9.626451328426611
 20
16.33050003941074
 30
0.0
 40
0.064731711322471
 41
0.1377548399705084
 71
     1
 72
     5
  1
ZERO
 73
     1
 44
1.0
1001
ACAD
1000
MTEXTBEGIN
1070
    73
1070
     1
1070
    44
1040
1.0
1070
    74
1070
     0
1000
MTEXTEND
  0
MTEXT
  5
1F3F
330
1F
100
AcDbEntity
  8
Schematics
100
AcDbMText
 10
11.63331900125232
 20
16.73077291435381
 30
0.0
 40
0.234952584375
 41
0.67555
 71
     5
 72
     5
  1
IPT
 73
     1
 44
1.0
1001
ACAD
1000
MTEXTBEGIN
1070
    73
1070
     1
1070
    44
1040
1.0
1070
    74
1070
     0
1000
MTEXTEND
  0
LINE
  5
1F40
330
1F
100
AcDbEntity
  8
Schematics
100
AcDbLine
 10
12.17324942930885
 20
16.35440956065579
 30
0.0
 11
12.42324942930884
 21
16.35440956065579
 31
0.0
  0
LINE
  5
1F41
330
1F
100
AcDbEntity
  8
Schematics
100
AcDbLine
 10
12.42324942930884
 20
16.35440956065579
 30
0.0
 11
12.42324942930884
 21
16.10440956065579
 31
0.0
  0
LINE
  5
1F42
330
1F
100
AcDbEntity
  8
Schematics
100
AcDbLine
 10
12.17324942930885
 20
16.35440956065579
 30
0.0
 11
12.17324942930885
 21
16.10440956065579
 31
0.0
  0
LINE
  5
1F43
330
1F
100
AcDbEntity
  8
Schematics
100
AcDbLine
 10
12.17324942930885
 20
16.10440956065579
 30
0.0
 11
12.42324942930884
 21
16.10440956065579
 31
0.0
  0
LINE
  5
1F44
330
1F
100
AcDbEntity
  8
Schematics
100
AcDbLine
 10
12.17324942930885
 20
16.05326906100967
 30
0.0
 11
12.42324942930884
 21
16.05326906100967
 31
0.0
  0
LINE
  5
1F45
330
1F
100
AcDbEntity
  8
Schematics
100
AcDbLine
 10
12.42324942930884
 20
16.05326906100967
 30
0.0
 11
12.42324942930884
 21
15.80326906100967
 31
0.0
  0
LINE
  5
1F46
330
1F
100
AcDbEntity
  8
Schematics
100
AcDbLine
 10
12.17324942930885
 20
16.05326906100967
 30
0.0
 11
12.17324942930885
 21
15.80326906100967
 31
0.0
  0
LINE
  5
1F47
330
1F
100
AcDbEntity
  8
Schematics
100
AcDbLine
 10
12.17324942930885
 20
15.80326906100967
 30
0.0
 11
12.42324942930884
 21
15.80326906100967
 31
0.0
  0
MTEXT
  5
1F48
330
1F
100
AcDbEntity
  8
Schematics
100
AcDbMText
 10
12.17745132842662
 20
16.02935953976463
 30
0.0
 40
0.064731711322471
 41
0.1377548399705084
 71
     1
 72
     5
  1
SPAN
 73
     1
 44
1.0
1001
ACAD
1000
MTEXTBEGIN
1070
    73
1070
     1
1070
    44
1040
1.0
1070
    74
1070
     0
1000
MTEXTEND
  0
MTEXT
  5
1F49
330
1F
100
AcDbEntity
  8
Schematics
100
AcDbMText
 10
12.17745132842662
 20
16.33050003941074
 30
0.0
 40
0.064731711322471
 41
0.1377548399705084
 71
     1
 72
     5
  1
ZERO
 73
     1
 44
1.0
1001
ACAD
1000
MTEXTBEGIN
1070
    73
1070
     1
1070
    44
1040
1.0
1070
    74
1070
     0
1000
MTEXTEND
  0
MTEXT
  5
1F4A
330
1F
100
AcDbEntity
  8
Schematics
100
AcDbMText
 10
14.18431900125233
 20
16.73077291435381
 30
0.0
 40
0.234952584375
 41
0.67555
 71
     5
 72
     5
  1
IPT
 73
     1
 44
1.0
1001
ACAD
1000
MTEXTBEGIN
1070
    73
1070
     1
1070
    44
1040
1.0
1070
    74
1070
     0
1000
MTEXTEND
  0
LINE
  5
1F4B
330
1F
100
AcDbEntity
  8
Schematics
100
AcDbLine
 10
14.72424942930885
 20
16.35440956065579
 30
0.0
 11
14.97424942930886
 21
16.35440956065579
 31
0.0
  0
LINE
  5
1F4C
330
1F
100
AcDbEntity
  8
Schematics
100
AcDbLine
 10
14.97424942930886
 20
16.35440956065579
 30
0.0
 11
14.97424942930886
 21
16.10440956065579
 31
0.0
  0
LINE
  5
1F4D
330
1F
100
AcDbEntity
  8
Schematics
100
AcDbLine
 10
14.72424942930885
 20
16.35440956065579
 30
0.0
 11
14.72424942930885
 21
16.10440956065579
 31
0.0
  0
LINE
  5
1F4E
330
1F
100
AcDbEntity
  8
Schematics
100
AcDbLine
 10
14.72424942930885
 20
16.10440956065579
 30
0.0
 11
14.97424942930886
 21
16.10440956065579
 31
0.0
  0
LINE
  5
1F4F
330
1F
100
AcDbEntity
  8
Schematics
100
AcDbLine
 10
14.72424942930885
 20
16.05326906100967
 30
0.0
 11
14.97424942930886
 21
16.05326906100967
 31
0.0
  0
LINE
  5
1F50
330
1F
100
AcDbEntity
  8
Schematics
100
AcDbLine
 10
14.97424942930886
 20
16.05326906100967
 30
0.0
 11
14.97424942930886
 21
15.80326906100967
 31
0.0
  0
LINE
  5
1F51
330
1F
100
AcDbEntity
  8
Schematics
100
AcDbLine
 10
14.72424942930885
 20
16.05326906100967
 30
0.0
 11
14.72424942930885
 21
15.80326906100967
 31
0.0
  0
LINE
  5
1F52
330
1F
100
AcDbEntity
  8
Schematics
100
AcDbLine
 10
14.72424942930885
 20
15.80326906100967
 30
0.0
 11
14.97424942930886
 21
15.80326906100967
 31
0.0
  0
MTEXT
  5
1F53
330
1F
100
AcDbEntity
  8
Schematics
100
AcDbMText
 10
14.72845132842663
 20
16.02935953976463
 30
0.0
 40
0.064731711322471
 41
0.1377548399705084
 71
     1
 72
     5
  1
SPAN
 73
     1
 44
1.0
1001
ACAD
1000
MTEXTBEGIN
1070
    73
1070
     1
1070
    44
1040
1.0
1070
    74
1070
     0
1000
MTEXTEND
  0
MTEXT
  5
1F54
330
1F
100
AcDbEntity
  8
Schematics
100
AcDbMText
 10
14.72845132842663
 20
16.33050003941074
 30
0.0
 40
0.064731711322471
 41
0.1377548399705084
 71
     1
 72
     5
  1
ZERO
 73
     1
 44
1.0
1001
ACAD
1000
MTEXTBEGIN
1070
    73
1070
     1
1070
    44
1040
1.0
1070
    74
1070
     0
1000
MTEXTEND
  0
MTEXT
  5
1F6B
330
1F
100
AcDbEntity
  8
Schematics
100
AcDbMText
 10
11.63331900125233
 20
11.0993352298902
 30
0.0
 40
0.234952584375
 41
0.67555
 71
     5
 72
     5
  1
IPT
 73
     1
 44
1.0
1001
ACAD
1000
MTEXTBEGIN
1070
    73
1070
     1
1070
    44
1040
1.0
1070
    74
1070
     0
1000
MTEXTEND
  0
LINE
  5
1F6C
330
1F
100
AcDbEntity
  8
Schematics
100
AcDbLine
 10
12.17324942930885
 20
10.72297187619218
 30
0.0
 11
12.42324942930884
 21
10.72297187619218
 31
0.0
  0
LINE
  5
1F6D
330
1F
100
AcDbEntity
  8
Schematics
100
AcDbLine
 10
12.42324942930884
 20
10.72297187619218
 30
0.0
 11
12.42324942930884
 21
10.47297187619218
 31
0.0
  0
LINE
  5
1F6E
330
1F
100
AcDbEntity
  8
Schematics
100
AcDbLine
 10
12.17324942930885
 20
10.72297187619218
 30
0.0
 11
12.17324942930885
 21
10.47297187619218
 31
0.0
  0
LINE
  5
1F6F
330
1F
100
AcDbEntity
  8
Schematics
100
AcDbLine
 10
12.17324942930885
 20
10.47297187619218
 30
0.0
 11
12.42324942930884
 21
10.47297187619218
 31
0.0
  0
LINE
  5
1F70
330
1F
100
AcDbEntity
  8
Schematics
100
AcDbLine
 10
12.17324942930885
 20
10.42183137654607
 30
0.0
 11
12.42324942930884
 21
10.42183137654607
 31
0.0
  0
LINE
  5
1F71
330
1F
100
AcDbEntity
  8
Schematics
100
AcDbLine
 10
12.42324942930884
 20
10.42183137654607
 30
0.0
 11
12.42324942930884
 21
10.17183137654607
 31
0.0
  0
LINE
  5
1F72
330
1F
100
AcDbEntity
  8
Schematics
100
AcDbLine
 10
12.17324942930885
 20
10.42183137654607
 30
0.0
 11
12.17324942930885
 21
10.17183137654607
 31
0.0
  0
LINE
  5
1F73
330
1F
100
AcDbEntity
  8
Schematics
100
AcDbLine
 10
12.17324942930885
 20
10.17183137654607
 30
0.0
 11
12.42324942930884
 21
10.17183137654607
 31
0.0
  0
MTEXT
  5
1F74
330
1F
100
AcDbEntity
  8
Schematics
100
AcDbMText
 10
12.17745132842663
 20
10.39792185530102
 30
0.0
 40
0.064731711322471
 41
0.1377548399705084
 71
     1
 72
     5
  1
SPAN
 73
     1
 44
1.0
1001
ACAD
1000
MTEXTBEGIN
1070
    73
1070
     1
1070
    44
1040
1.0
1070
    74
1070
     0
1000
MTEXTEND
  0
MTEXT
  5
1F75
330
1F
100
AcDbEntity
  8
Schematics
100
AcDbMText
 10
12.17745132842663
 20
10.69906235494713
 30
0.0
 40
0.064731711322471
 41
0.1377548399705084
 71
     1
 72
     5
  1
ZERO
 73
     1
 44
1.0
1001
ACAD
1000
MTEXTBEGIN
1070
    73
1070
     1
1070
    44
1040
1.0
1070
    74
1070
     0
1000
MTEXTEND
  0
MTEXT
  5
1F76
330
1F
100
AcDbEntity
  8
Schematics
100
AcDbMText
 10
14.18431900125234
 20
11.0993352298902
 30
0.0
 40
0.234952584375
 41
0.67555
 71
     5
 72
     5
  1
IPT
 73
     1
 44
1.0
1001
ACAD
1000
MTEXTBEGIN
1070
    73
1070
     1
1070
    44
1040
1.0
1070
    74
1070
     0
1000
MTEXTEND
  0
LINE
  5
1F77
330
1F
100
AcDbEntity
  8
Schematics
100
AcDbLine
 10
14.72424942930886
 20
10.72297187619218
 30
0.0
 11
14.97424942930886
 21
10.72297187619218
 31
0.0
  0
LINE
  5
1F78
330
1F
100
AcDbEntity
  8
Schematics
100
AcDbLine
 10
14.97424942930886
 20
10.72297187619218
 30
0.0
 11
14.97424942930886
 21
10.47297187619218
 31
0.0
  0
LINE
  5
1F79
330
1F
100
AcDbEntity
  8
Schematics
100
AcDbLine
 10
14.72424942930886
 20
10.72297187619218
 30
0.0
 11
14.72424942930886
 21
10.47297187619218
 31
0.0
  0
LINE
  5
1F7A
330
1F
100
AcDbEntity
  8
Schematics
100
AcDbLine
 10
14.72424942930886
 20
10.47297187619218
 30
0.0
 11
14.97424942930886
 21
10.47297187619218
 31
0.0
  0
LINE
  5
1F7B
330
1F
100
AcDbEntity
  8
Schematics
100
AcDbLine
 10
14.72424942930886
 20
10.42183137654607
 30
0.0
 11
14.97424942930886
 21
10.42183137654607
 31
0.0
  0
LINE
  5
1F7C
330
1F
100
AcDbEntity
  8
Schematics
100
AcDbLine
 10
14.97424942930886
 20
10.42183137654607
 30
0.0
 11
14.97424942930886
 21
10.17183137654607
 31
0.0
  0
LINE
  5
1F7D
330
1F
100
AcDbEntity
  8
Schematics
100
AcDbLine
 10
14.72424942930886
 20
10.42183137654607
 30
0.0
 11
14.72424942930886
 21
10.17183137654607
 31
0.0
  0
LINE
  5
1F7E
330
1F
100
AcDbEntity
  8
Schematics
100
AcDbLine
 10
14.72424942930886
 20
10.17183137654607
 30
0.0
 11
14.97424942930886
 21
10.17183137654607
 31
0.0
  0
MTEXT
  5
1F7F
330
1F
100
AcDbEntity
  8
Schematics
100
AcDbMText
 10
14.72845132842664
 20
10.39792185530102
 30
0.0
 40
0.064731711322471
 41
0.1377548399705084
 71
     1
 72
     5
  1
SPAN
 73
     1
 44
1.0
1001
ACAD
1000
MTEXTBEGIN
1070
    73
1070
     1
1070
    44
1040
1.0
1070
    74
1070
     0
1000
MTEXTEND
  0
MTEXT
  5
1F80
330
1F
100
AcDbEntity
  8
Schematics
100
AcDbMText
 10
14.72845132842664
 20
10.69906235494713
 30
0.0
 40
0.064731711322471
 41
0.1377548399705084
 71
     1
 72
     5
  1
ZERO
 73
     1
 44
1.0
1001
ACAD
1000
MTEXTBEGIN
1070
    73
1070
     1
1070
    44
1040
1.0
1070
    74
1070
     0
1000
MTEXTEND
  0
LINE
  5
1FE1
330
1F
100
AcDbEntity
  8
Part
100
AcDbLine
 10
-10.03362697139575
 20
8.943484437996207
 30
0.0
 11
-11.49062697139574
 21
8.943484437996202
 31
0.0
  0
LINE
  5
1FE2
330
1F
100
AcDbEntity
  8
Part
100
AcDbLine
 10
-10.03362697139575
 20
8.464484437996178
 30
0.0
 11
-11.49062697139574
 21
8.464484437996178
 31
0.0
  0
LINE
  5
1FE3
330
1F
100
AcDbEntity
  8
Part
100
AcDbLine
 10
-10.03362697139575
 20
9.18802401034655
 30
0.0
 11
-11.49062697139574
 21
9.188024010346547
 31
0.0
  0
LINE
  5
1FE4
330
1F
100
AcDbEntity
  8
Part
100
AcDbLine
 10
-10.03362697139574
 20
8.286484437996179
 30
0.0
 11
-11.49062697139575
 21
8.286484437996179
 31
0.0
  0
MTEXT
  5
204D
330
1F
100
AcDbEntity
  8
0
100
AcDbMText
 10
0.7096421857205275
 20
15.50490486742109
 30
0.0
 40
0.12
 41
14.44173728261603
 71
     5
 72
     5
  3
THIS DRAWING IS A CONTROLLED DOCUMENT PROVIDED \PBY MOORE INDUSTRIES-INTERNATIONAL, INC.{\C176;\c8388608; }AND IS \PSUBJECT TO CHANGE WITHOUT NOTICE. FOR LATEST \PREVISION OF DRAWING PLEASE CONTACT MOORE \PINDUSTRIES-INTERNATIONAL, INC. THE INFORMATI
  1
ON \PPROVIDED IN THIS DRAWING IS PROPRIETARY TO \PMOORE INDUSTRIES-INTERNATIONAL, INC.{\C176;\c8388608; }
 73
     1
 44
1.0
1001
ACAD
1000
MTEXTBEGIN
1070
    73
1070
     1
1070
    44
1040
1.0
1070
    74
1070
     0
1000
MTEXTEND
1000
ACAD_MTEXT_DEFINED_HEIGHT_BEGIN
1070
    46
1040
1.781648968217055
1000
ACAD_MTEXT_DEFINED_HEIGHT_END
  0
LINE
  5
204E
330
1F
100
AcDbEntity
  8
0
100
AcDbLine
 10
-2.05303384091118
 20
16.34656545487519
 30
0.0
 11
-2.053033840911178
 21
14.74868735910514
 31
0.0
  0
LINE
  5
204F
330
1F
100
AcDbEntity
  8
0
100
AcDbLine
 10
-2.154498540132033
 20
16.44803015409604
 30
0.0
 11
-2.154498540132025
 21
14.64803015409604
 31
0.0
  0
LINE
  5
2050
330
1F
100
AcDbEntity
  8
0
100
AcDbLine
 10
3.595501459867965
 20
16.44803015409606
 30
0.0
 11
3.595501459867973
 21
14.64803015409605
 31
0.0
  0
LINE
  5
2051
330
1F
100
AcDbEntity
  8
0
100
AcDbLine
 10
3.494036760647109
 20
16.34656545487519
 30
0.0
 11
3.494036760647121
 21
14.74868735910514
 31
0.0
  0
LINE
  5
2052
330
1F
100
AcDbEntity
  8
0
100
AcDbLine
 10
-2.053033840911185
 20
14.74868735910514
 30
0.0
 11
3.494036760647121
 21
14.74868735910514
 31
0.0
  0
LINE
  5
2053
330
1F
100
AcDbEntity
  8
0
100
AcDbLine
 10
-2.053033840911185
 20
16.34656545487519
 30
0.0
 11
3.494036760647114
 21
16.34656545487519
 31
0.0
  0
LINE
  5
2054
330
1F
100
AcDbEntity
  8
0
100
AcDbLine
 10
-2.053033840911171
 20
16.44803015409604
 30
0.0
 11
3.494036760647106
 21
16.44803015409604
 31
0.0
  0
LINE
  5
2055
330
1F
100
AcDbEntity
  8
0
100
AcDbLine
 10
-2.154498540132033
 20
17.19803015409604
 30
0.0
 11
3.595501459867961
 21
17.19803015409604
 31
0.0
  0
LINE
  5
2056
330
1F
100
AcDbEntity
  8
0
100
AcDbLine
 10
-2.05303384091118
 20
17.09656545487519
 30
0.0
 11
3.494036760647109
 21
17.09656545487519
 31
0.0
  0
LINE
  5
2057
330
1F
100
AcDbEntity
  8
0
100
AcDbLine
 10
-2.15449854013203
 20
14.64803015409604
 30
0.0
 11
3.595501459867965
 21
14.64803015409605
 31
0.0
  0
LINE
  5
2058
330
1F
100
AcDbEntity
  8
0
100
AcDbLine
 10
-2.15449854013203
 20
14.64803015409604
 30
0.0
 11
3.595501459867968
 21
14.64803015409605
 31
0.0
  0
LINE
  5
2059
330
1F
100
AcDbEntity
  8
0
100
AcDbLine
 10
-2.15449854013203
 20
13.64803015409603
 30
0.0
 11
-2.15449854013203
 21
14.64803015409604
 31
0.0
  0
LINE
  5
205A
330
1F
100
AcDbEntity
  8
0
100
AcDbLine
 10
-2.15449854013203
 20
14.64803015409604
 30
0.0
 11
3.595501459867965
 21
14.64803015409604
 31
0.0
  0
LINE
  5
205B
330
1F
100
AcDbEntity
  8
0
100
AcDbLine
 10
-2.15449854013203
 20
14.39803015409603
 30
0.0
 11
3.595501459867965
 21
14.39803015409603
 31
0.0
  0
LINE
  5
205C
330
1F
100
AcDbEntity
  8
0
100
AcDbLine
 10
-2.15449854013203
 20
14.14803015409604
 30
0.0
 11
3.595501459867965
 21
14.14803015409604
 31
0.0
  0
LINE
  5
205D
330
1F
100
AcDbEntity
  8
0
100
AcDbLine
 10
3.59550145986797
 20
13.64803015409603
 30
0.0
 11
3.595501459867965
 21
14.64803015409604
 31
0.0
  0
LINE
  5
205E
330
1F
100
AcDbEntity
  8
0
100
AcDbLine
 10
2.838803508165041
 20
13.64803015409603
 30
0.0
 11
2.838803508165041
 21
14.64803015409604
 31
0.0
  0
MTEXT
  5
205F
330
1F
100
AcDbEntity
  8
0
100
AcDbMText
 10
-1.837355199259603
 20
14.52303015409604
 30
0.0
 40
0.125
 41
0.6342866817448467
 71
     5
 72
     5
  1
{\fArial|b0|i0|c0|p34;REV}
 73
     1
 44
1.0
1001
ACAD
1000
MTEXTBEGIN
1070
    73
1070
     1
1070
    44
1040
1.0
1070
    74
1070
     0
1000
MTEXTEND
1000
ACAD_MTEXT_DEFINED_HEIGHT_BEGIN
1070
    46
1040
0.25
1000
ACAD_MTEXT_DEFINED_HEIGHT_END
  0
LINE
  5
2060
330
1F
100
AcDbEntity
  8
0
100
AcDbLine
 10
-1.520211858387179
 20
13.64803015409603
 30
0.0
 11
-1.520211858387179
 21
14.64803015409604
 31
0.0
  0
MTEXT
  5
2061
330
1F
100
AcDbEntity
  8
0
100
AcDbMText
 10
0.6592958248889307
 20
14.52303015409604
 30
0.0
 40
0.125
 41
4.359015366552219
 71
     5
 72
     5
  1
{\fArial|b0|i0|c0|p34;DESCRIPTION}
 73
     1
 44
1.0
1001
ACAD
1000
MTEXTBEGIN
1070
    73
1070
     1
1070
    44
1040
1.0
1070
    74
1070
     0
1000
MTEXTEND
1000
ACAD_MTEXT_DEFINED_HEIGHT_BEGIN
1070
    46
1040
0.2499999999999975
1000
ACAD_MTEXT_DEFINED_HEIGHT_END
  0
MTEXT
  5
2062
330
1F
100
AcDbEntity
  8
0
100
AcDbMText
 10
3.217152484016502
 20
14.52303015409604
 30
0.0
 40
0.125
 41
0.7566979517029253
 71
     5
 72
     5
  1
{\fArial|b0|i0|c0|p34;DATE}
 73
     1
 44
1.0
1001
ACAD
1000
MTEXTBEGIN
1070
    73
1070
     1
1070
    44
1040
1.0
1070
    74
1070
     0
1000
MTEXTEND
1000
ACAD_MTEXT_DEFINED_HEIGHT_BEGIN
1070
    46
1040
0.25
1000
ACAD_MTEXT_DEFINED_HEIGHT_END
  0
LINE
  5
2063
330
1F
100
AcDbEntity
  8
0
100
AcDbLine
 10
-2.154498540132033
 20
17.19803015409604
 30
0.0
 11
-2.154498540132033
 21
16.44803015409604
 31
0.0
  0
LINE
  5
2064
330
1F
100
AcDbEntity
  8
0
100
AcDbLine
 10
-2.05303384091118
 20
17.09656545487519
 30
0.0
 11
-2.053033840911174
 21
16.44803015409604
 31
0.0
  0
LINE
  5
2065
330
1F
100
AcDbEntity
  8
0
100
AcDbLine
 10
3.595501459867961
 20
17.19803015409604
 30
0.0
 11
3.595501459867965
 21
16.44803015409606
 31
0.0
  0
LINE
  5
2066
330
1F
100
AcDbEntity
  8
0
100
AcDbLine
 10
3.494036760647109
 20
17.09656545487519
 30
0.0
 11
3.494036760647106
 21
16.44803015409604
 31
0.0
  0
MTEXT
  5
2067
330
1F
100
AcDbEntity
  8
0
100
AcDbMText
 10
0.7205014598679699
 20
16.77229780448562
 30
0.0
 40
0.25
 41
5.547070601558278
 71
     5
 72
     5
  1
IPT
 73
     1
 44
1.0
1001
ACAD
1000
MTEXTBEGIN
1070
    73
1070
     1
1070
    44
1040
1.0
1070
    74
1070
     0
1000
MTEXTEND
1000
ACAD_MTEXT_DEFINED_HEIGHT_BEGIN
1070
    46
1040
0.6485353007791446
1000
ACAD_MTEXT_DEFINED_HEIGHT_END
  0
MTEXT
  5
2068
330
1F
100
AcDbEntity
  8
0
100
AcDbMText
 10
-1.837355199259605
 20
14.27303015409604
 30
0.0
 40
0.125
 41
0.6342866817448503
 71
     5
 72
     5
  1
{\fArial|b0|i0|c0|p34;1}
 73
     1
 44
1.0
1001
ACAD
1000
MTEXTBEGIN
1070
    73
1070
     1
1070
    44
1040
1.0
1070
    74
1070
     0
1000
MTEXTEND
1000
ACAD_MTEXT_DEFINED_HEIGHT_BEGIN
1070
    46
1040
0.2499999999999993
1000
ACAD_MTEXT_DEFINED_HEIGHT_END
  0
MTEXT
  5
2069
330
1F
100
AcDbEntity
  8
0
100
AcDbMText
 10
0.6592958248889307
 20
14.27595765419006
 30
0.0
 40
0.125
 41
4.359015366552219
 71
     5
 72
     5
  1
{\fArial|b0|i0|c0|p34;INITIAL RELEASE}
 73
     1
 44
1.0
1001
ACAD
1000
MTEXTBEGIN
1070
    73
1070
     1
1070
    44
1040
1.0
1070
    74
1070
     0
1000
MTEXTEND
1000
ACAD_MTEXT_DEFINED_HEIGHT_BEGIN
1070
    46
1040
0.1292633015006892
1000
ACAD_MTEXT_DEFINED_HEIGHT_END
  0
MTEXT
  5
206A
330
1F
100
AcDbEntity
  8
0
100
AcDbMText
 10
3.2171524840165
 20
14.27303015409604
 30
0.0
 40
0.125
 41
0.7566979517029218
 71
     5
 72
     5
  1
{\fArial|b0|i0|c0|p34;04/08}
 73
     1
 44
1.0
1001
ACAD
1000
MTEXTBEGIN
1070
    73
1070
     1
1070
    44
1040
1.0
1070
    74
1070
     0
1000
MTEXTEND
1000
ACAD_MTEXT_DEFINED_HEIGHT_BEGIN
1070
    46
1040
0.25
1000
ACAD_MTEXT_DEFINED_HEIGHT_END
  0
LINE
  5
2483
330
1F
100
AcDbEntity
  8
Part
100
AcDbLine
 10
-6.965603589217923
 20
8.161484437996191
 30
0.0
 11
-3.719603589217921
 21
8.161484437996191
 31
0.0
  0
LINE
  5
2484
330
1F
100
AcDbEntity
  8
Part
100
AcDbLine
 10
-3.655603589217921
 20
11.28648443799619
 30
0.0
 11
-3.655603589217921
 21
8.335484437996191
 31
0.0
  0
LINE
  5
2485
330
1F
100
AcDbEntity
  8
Part
100
AcDbLine
 10
-3.719603589217922
 20
8.310484437996192
 30
0.0
 11
-3.719603589217921
 21
8.161484437996191
 31
0.0
  0
ARC
  5
2486
330
1F
100
AcDbEntity
  8
Part
100
AcDbCircle
 10
-3.694603589217922
 20
8.310484437996192
 30
0.0
 40
0.025
100
AcDbArc
 50
89.99999999999836
 51
180.0000000000003
  0
LINE
  5
2487
330
1F
100
AcDbEntity
  8
Part
100
AcDbLine
 10
-6.965603589217923
 20
8.161484437996191
 30
0.0
 11
-6.965603589217923
 21
10.31148443799619
 31
0.0
  0
HATCH
  5
2488
330
1F
100
AcDbEntity
  8
Notes
100
AcDbHatch
 10
0.0
 20
0.0
 30
0.0
210
0.0
220
0.0
230
1.0
  2
ANSI31
 70
     0
 71
     0
 91
        1
 92
        7
 72
     1
 73
     1
 93
      118
 10
-6.993603558353997
 20
8.537984437996191
 42
0.0
 10
-7.006903579817436
 20
8.537984437996191
 42
0.0
 10
-7.006903579817437
 20
8.515699507122395
 42
-1.0
 10
-7.016903579817434
 20
8.515699507122395
 42
0.0
 10
-7.016903579817434
 20
8.537984437996193
 42
0.0
 10
-7.37960358921792
 20
8.537984437996191
 42
-1.0
 10
-7.37960358921792
 20
8.869984437996192
 42
0.0
 10
-7.016903579817434
 20
8.869984437996192
 42
0.0
 10
-7.016903579817434
 20
8.892269368869987
 42
-1.0
 10
-7.006903579817437
 20
8.892269368869987
 42
0.0
 10
-7.006903579817437
 20
8.869984437996194
 42
0.0
 10
-6.993603558353998
 20
8.869984437996194
 42
0.0
 10
-6.993603558353998
 20
8.948484414848278
 42
-0.2360683847984863
 10
-7.003603589217922
 20
8.968484437996185
 42
0.0
 10
-7.003603589217922
 20
9.163484437996189
 42
-0.2360683847984928
 10
-6.993603558353997
 20
9.183484461144095
 42
0.0
 10
-6.993603558353997
 20
9.397726858454339
 42
-0.373646923313084
 10
-7.03660358921792
 20
9.447234437996202
 42
0.0
 10
-7.03660358921792
 20
9.555234437996199
 42
-0.3736469233130862
 10
-6.993603558353997
 20
9.604742017538063
 42
0.0
 10
-6.993603558353997
 20
10.15095504089232
 42
-0.0005249484355921
 10
-6.993603558353997
 20
10.1510138351009
 42
0.0
 10
-6.993603558353997
 20
10.23648443799618
 42
0.414213562373095
 10
-7.068603558353992
 20
10.31148443799618
 42
0.0
 10
-7.590110549438129
 20
10.3114844379962
 42
0.0
 10
-7.626257580483363
 20
10.51648443799618
 42
0.0
 10
-7.79255047912566
 20
10.51648443799618
 42
0.0
 10
-7.792550479125659
 20
10.43648443799619
 42
0.4142135623730951
 10
-7.772550479125656
 20
10.41648443799619
 42
0.0
 10
-7.729603558353994
 20
10.41648443799619
 42
0.0
 10
-7.729603558353994
 20
10.45648443799618
 42
0.0
 10
-7.676603558353989
 20
10.45648443799619
 42
0.0
 10
-7.654214195470317
 20
10.32950805132119
 42
-0.4663076581550256
 10
-7.728074776946237
 20
10.24148443799618
 42
0.0
 10
-7.792550479125659
 20
10.24148443799618
 42
0.0
 10
-7.799603558353993
 20
10.20148443799617
 42
0.0
 10
-7.869603558353993
 20
10.20148443799618
 42
0.0
 10
-7.869603558353994
 20
10.24148443799616
 42
0.0
 10
-7.893603558353995
 20
10.21748443799616
 42
0.0
 10
-7.893603558353995
 20
10.14148443799619
 42
0.0
 10
-7.238603558353994
 20
10.14148443799619
 42
-0.4142135623730951
 10
-7.163603558353991
 20
10.06648443799619
 42
0.0
 10
-7.163603558353991
 20
9.746484437996141
 42
-0.4142135623731199
 10
-7.238603558354001
 20
9.671484437996141
 42
0.0
 10
-7.593603558353991
 20
9.671484437996166
 42
0.0
 10
-7.593603558353992
 20
9.591484437996168
 42
0.0
 10
-7.393603558353996
 20
9.591484437996177
 42
0.0
 10
-7.393603558353994
 20
9.521484437996173
 42
0.0
 10
-7.458603558353993
 20
9.45648443799617
 42
0.0
 10
-7.59360355835399
 20
9.456484437996177
 42
0.0
 10
-7.593603558353991
 20
9.196484437996186
 42
-0.4142135623730951
 10
-7.668603558353994
 20
9.121484437996187
 42
0.0
 10
-7.703603558353997
 20
9.121484437996176
 42
0.0
 10
-7.703603558353998
 20
9.081484437996177
 42
0.0
 10
-7.503603558353995
 20
9.081484437996191
 42
0.0
 10
-7.503603558353994
 20
9.011484437996189
 42
0.0
 10
-7.568603558353993
 20
8.946484437996186
 42
0.0
 10
-7.703603558353998
 20
8.946484437996188
 42
0.0
 10
-7.703603558353998
 20
8.93148443799618
 42
0.0
 10
-7.918603558353994
 20
8.931484437996186
 42
0.4142135623730951
 10
-7.993603558353997
 20
8.856484437996183
 42
0.0
 10
-7.993603558353997
 20
7.931484437996186
 42
0.0
 10
-7.143603558353995
 20
7.931484437996171
 42
0.0
 10
-7.143603558353996
 20
7.981484437996184
 42
0.0
 10
-7.093603558353998
 20
7.981484437996189
 42
0.0
 10
-7.093603558353998
 20
7.931484437996187
 42
0.0
 10
-7.043603558353993
 20
7.931484437996171
 42
0.0
 10
-7.043603558353992
 20
7.981484437996197
 42
0.0
 10
-6.993603558353997
 20
7.981484437996183
 42
0.0
 10
-6.993603558353997
 20
7.931484437996185
 42
0.0
 10
-6.943603558353992
 20
7.931484437996179
 42
0.0
 10
-6.943603558353991
 20
7.98148443799619
 42
0.0
 10
-6.893603558353995
 20
7.981484437996183
 42
0.0
 10
-6.893603558353994
 20
7.931484437996185
 42
0.0
 10
-6.843603558353997
 20
7.931484437996178
 42
0.0
 10
-6.843603558353997
 20
7.981484437996189
 42
0.0
 10
-6.793603558353994
 20
7.981484437996185
 42
0.0
 10
-6.793603558353994
 20
7.931484437996187
 42
0.0
 10
-6.743603558353996
 20
7.931484437996178
 42
0.0
 10
-6.743603558353997
 20
7.981484437996191
 42
0.0
 10
-6.693603558353992
 20
7.981484437996182
 42
0.0
 10
-6.693603558353992
 20
7.931484437996187
 42
0.0
 10
-6.643603558353994
 20
7.931484437996178
 42
0.0
 10
-6.643603558353993
 20
7.981484437996189
 42
0.0
 10
-6.593603558353991
 20
7.981484437996176
 42
0.0
 10
-6.593603558353992
 20
7.931484437996187
 42
0.0
 10
-6.543603558353993
 20
7.931484437996179
 42
0.0
 10
-6.543603558353994
 20
7.981484470579345
 42
0.0
 10
-6.494293186675399
 20
7.989760334439512
 42
0.0
 10
-6.486073232027373
 20
7.940440606551338
 42
0.0
 10
-6.436762855066015
 20
7.948716471298117
 42
0.0
 10
-6.444982809714041
 20
7.998036199186284
 42
0.0
 10
-6.395672432752692
 20
8.006312063933062
 42
0.0
 10
-6.387452478104656
 20
7.956992336044895
 42
0.0
 10
-6.338142101143304
 20
7.965268200791658
 42
0.0
 10
-6.346362055791332
 20
8.014587928679848
 42
0.0
 10
-6.297051678829975
 20
8.022863793426619
 42
0.0
 10
-6.288831724181948
 20
7.973544065538452
 42
0.0
 10
-6.239521347220589
 20
7.981819930285222
 42
0.0
 10
-6.247741301868622
 20
8.031139658173405
 42
0.0
 10
-6.198430924907264
 20
8.039415522920188
 42
0.0
 10
-6.190210970259231
 20
7.990095795031993
 42
0.0
 10
-6.140900593297879
 20
7.998371659778793
 42
0.0
 10
-6.149120547945914
 20
8.047691387666983
 42
0.0
 10
-6.099810170984555
 20
8.055967252413745
 42
0.0
 10
-6.091590216336528
 20
8.006647524525581
 42
0.0
 10
-6.042279839375169
 20
8.014923389272357
 42
0.0
 10
-6.050499794023204
 20
8.064243117160534
 42
0.0
 10
-6.001189417061846
 20
8.072518981907311
 42
0.0
 10
-5.992969462413817
 20
8.02319925401915
 42
0.0
 10
-5.943603558353992
 20
8.031484437996187
 42
0.0
 10
-5.943603558353992
 20
8.131484437996194
 42
0.0
 10
-7.293603558353994
 20
8.131484437996181
 42
0.0
 10
-7.293603558353994
 20
8.325882899473771
 42
-0.4400105308918409
 10
-7.212066877647914
 20
8.400597501830652
 42
0.0
 10
-7.003603589217926
 20
8.382359327331684
 42
0.0
 10
-7.003603589217928
 20
8.43948443799619
 42
-0.2360683847985967
 10
-6.993603558353997
 20
8.459484461144104
 42
0.0
 97
        0
 75
     0
 76
     1
 52
0.0
 41
0.25
 77
     0
 78
     1
 53
45.0
 43
0.0
 44
0.0
 45
-0.0220970869120796
 46
0.0220970869120796
 79
     0
 47
0.0081689379855959
 98
        1
 10
-7.714881991912964
 20
8.510661758748797
1001
ACAD
1010
0.0
1020
0.0
1030
0.0
  0
LINE
  5
2489
330
1F
100
AcDbEntity
  8
Part
100
AcDbLine
 10
-7.003603589217922
 20
8.968484437996186
 30
0.0
 11
-7.003603589217922
 21
9.163484437996189
 31
0.0
  0
ARC
  5
248A
330
1F
100
AcDbEntity
  8
Part
100
AcDbCircle
 10
-6.978603589217923
 20
9.163484437996189
 30
0.0
 40
0.025
100
AcDbArc
 50
90.00000000000261
 51
180.0
  0
ARC
  5
248B
330
1F
100
AcDbEntity
  8
Part
100
AcDbCircle
 10
-6.978603589217923
 20
8.968484437996186
 30
0.0
 40
0.025
100
AcDbArc
 50
180.0
 51
270.0000000000027
  0
LINE
  5
248C
330
1F
100
AcDbEntity
  8
Part
100
AcDbLine
 10
-3.655603589217921
 20
11.28648443799619
 30
0.0
 11
-7.465603589217923
 21
11.28648443799619
 31
0.0
  0
LINE
  5
248D
330
1F
100
AcDbEntity
  8
Part
100
AcDbLine
 10
-3.655603589217921
 20
8.335484437996191
 30
0.0
 11
-3.694603589217921
 21
8.335484437996193
 31
0.0
  0
LINE
  5
248E
330
1F
100
AcDbEntity
  8
Part
100
AcDbLine
 10
-6.965603589217923
 20
10.31148443799619
 30
0.0
 11
-7.465603589217923
 21
10.31148443799619
 31
0.0
  0
LINE
  5
248F
330
1F
100
AcDbEntity
  8
Part
100
AcDbLine
 10
-7.465603589217923
 20
11.28648443799619
 30
0.0
 11
-7.465603589217922
 21
10.31148443799619
 31
0.0
  0
LINE
  5
2490
330
1F
100
AcDbEntity
  8
Part
100
AcDbLine
 10
-3.655603589217921
 20
8.335484437996191
 30
0.0
 11
-3.427603589217921
 21
8.335484437996191
 31
0.0
  0
LINE
  5
2491
330
1F
100
AcDbEntity
  8
Part
100
AcDbLine
 10
-3.655603589217921
 20
8.427484437996191
 30
0.0
 11
-3.427603589217921
 21
8.427484437996191
 31
0.0
  0
LINE
  5
2492
330
1F
100
AcDbEntity
  8
Part
100
AcDbLine
 10
-3.427603589217921
 20
8.231984437996192
 30
0.0
 11
-3.427603589217921
 21
8.335484437996191
 31
0.0
  0
LINE
  5
2493
330
1F
100
AcDbEntity
  8
Part
100
AcDbLine
 10
-3.427603589217921
 20
8.427484437996191
 30
0.0
 11
-3.427603589217921
 21
8.530984437996192
 31
0.0
  0
ARC
  5
2494
330
1F
100
AcDbEntity
  8
Part
100
AcDbCircle
 10
-3.377603589217921
 20
8.530984437996192
 30
0.0
 40
0.05
100
AcDbArc
 50
90.0
 51
180.0
  0
ARC
  5
2495
330
1F
100
AcDbEntity
  8
Part
100
AcDbCircle
 10
-3.377603589217922
 20
8.231984437996192
 30
0.0
 40
0.05
100
AcDbArc
 50
180.0
 51
270.0
  0
HATCH
  5
2496
330
1F
100
AcDbEntity
  8
Part
100
AcDbHatch
 10
0.0
 20
0.0
 30
0.0
210
0.0
220
0.0
230
1.0
  2
SOLID
 70
     1
 71
     1
 91
        1
 92
        7
 72
     1
 73
     1
 93
        6
 10
-3.333603589217922
 20
8.260984437996192
 42
0.4142135623730952
 10
-3.308603589217922
 20
8.235984437996192
 42
0.0
 10
-3.281571588839606
 20
8.235984437996192
 42
0.0
 10
-3.281571588839607
 20
8.526984437996192
 42
0.0
 10
-3.308603589217923
 20
8.526984437996192
 42
0.4142135623731055
 10
-3.333603589217923
 20
8.501984437996192
 42
0.0
 97
        6
330
249B
330
2498
330
2497
330
2499
330
249D
330
24A0
 75
     0
 76
     1
 47
0.0022198402391061
 98
        1
 10
-3.310487902341078
 20
8.392986349611808
1001
ACAD
1010
0.0
1020
0.0
1030
0.0
  0
LINE
  5
2497
102
{ACAD_REACTORS
330
2496
102
}
330
1F
100
AcDbEntity
  8
Part
100
AcDbLine
 10
-3.333603589217922
 20
8.260984437996192
 30
0.0
 11
-3.333603589217923
 21
8.501984437996192
 31
0.0
  0
ARC
  5
2498
102
{ACAD_REACTORS
330
2496
102
}
330
1F
100
AcDbEntity
  8
Part
100
AcDbCircle
 10
-3.308603589217923
 20
8.501984437996192
 30
0.0
 40
0.025
100
AcDbArc
 50
90.0
 51
180.0
  0
ARC
  5
2499
102
{ACAD_REACTORS
330
2496
102
}
330
1F
100
AcDbEntity
  8
Part
100
AcDbCircle
 10
-3.308603589217922
 20
8.260984437996192
 30
0.0
 40
0.025
100
AcDbArc
 50
180.0
 51
270.0
  0
LINE
  5
249A
330
1F
100
AcDbEntity
  8
Part
100
AcDbLine
 10
-3.377603589217921
 20
8.580984437996191
 30
0.0
 11
-3.271603589217922
 21
8.580984437996191
 31
0.0
  0
LINE
  5
249B
102
{ACAD_REACTORS
330
2496
102
}
330
1F
100
AcDbEntity
  8
Part
100
AcDbLine
 10
-3.308603589217923
 20
8.526984437996192
 30
0.0
 11
-3.271603589217922
 21
8.526984437996192
 31
0.0
  0
LINE
  5
249C
330
1F
100
AcDbEntity
  8
Part
100
AcDbLine
 10
-3.377603589217922
 20
8.181984437996192
 30
0.0
 11
-3.271603589217922
 21
8.181984437996192
 31
0.0
  0
LINE
  5
249D
102
{ACAD_REACTORS
330
2496
102
}
330
1F
100
AcDbEntity
  8
Part
100
AcDbLine
 10
-3.308603589217922
 20
8.235984437996192
 30
0.0
 11
-3.271603589217922
 21
8.235984437996192
 31
0.0
  0
LINE
  5
249E
330
1F
100
AcDbEntity
  8
Part
100
AcDbLine
 10
-3.271603589217922
 20
8.181984437996192
 30
0.0
 11
-3.271603589217921
 21
8.235984437996192
 31
0.0
  0
LINE
  5
249F
330
1F
100
AcDbEntity
  8
Part
100
AcDbLine
 10
-3.271603589217922
 20
8.526984437996192
 30
0.0
 11
-3.271603589217922
 21
8.580984437996191
 31
0.0
  0
LINE
  5
24A0
102
{ACAD_REACTORS
330
2496
102
}
330
1F
100
AcDbEntity
  8
Part
100
AcDbLine
 10
-3.281571588839607
 20
8.526984437996192
 30
0.0
 11
-3.281571588839606
 21
8.235984437996192
 31
0.0
  0
LINE
  5
24A1
330
1F
100
AcDbEntity
  8
Part
  6
Continuous
100
AcDbLine
 10
-6.851103589217901
 20
8.342734437996197
 30
0.0
 11
-6.851103589217901
 21
8.301984437996193
 31
0.0
  0
LINE
  5
24A2
330
1F
100
AcDbEntity
  8
Part
  6
Continuous
100
AcDbLine
 10
-6.851103589217901
 20
8.270984437996196
 30
0.0
 11
-6.851103589217901
 21
8.230234437996191
 31
0.0
  0
LINE
  5
24A3
330
1F
100
AcDbEntity
  8
Part
  6
Continuous
100
AcDbLine
 10
-6.820103589217894
 20
8.230234437996191
 30
0.0
 11
-6.820103589217894
 21
8.270984437996196
 31
0.0
  0
LINE
  5
24A4
330
1F
100
AcDbEntity
  8
Part
  6
Continuous
100
AcDbLine
 10
-6.820103589217894
 20
8.301984437996193
 30
0.0
 11
-6.820103589217894
 21
8.342734437996197
 31
0.0
  0
LINE
  5
24A5
330
1F
100
AcDbEntity
  8
Part
  6
Continuous
100
AcDbLine
 10
-6.779353589217892
 20
8.270984437996196
 30
0.0
 11
-6.779353589217892
 21
8.301984437996193
 31
0.0
  0
LINE
  5
24A6
330
1F
100
AcDbEntity
  8
Part
  6
Continuous
100
AcDbLine
 10
-6.851103589217901
 20
8.230234437996191
 30
0.0
 11
-6.820103589217894
 21
8.230234437996191
 31
0.0
  0
LINE
  5
24A7
330
1F
100
AcDbEntity
  8
Part
  6
Continuous
100
AcDbLine
 10
-6.891853589217904
 20
8.270984437996196
 30
0.0
 11
-6.851103589217901
 21
8.270984437996196
 31
0.0
  0
LINE
  5
24A8
330
1F
100
AcDbEntity
  8
Part
  6
Continuous
100
AcDbLine
 10
-6.820103589217894
 20
8.270984437996196
 30
0.0
 11
-6.779353589217892
 21
8.270984437996196
 31
0.0
  0
LINE
  5
24A9
330
1F
100
AcDbEntity
  8
Part
  6
Continuous
100
AcDbLine
 10
-6.779353589217892
 20
8.301984437996193
 30
0.0
 11
-6.820103589217894
 21
8.301984437996193
 31
0.0
  0
LINE
  5
24AA
330
1F
100
AcDbEntity
  8
Part
  6
Continuous
100
AcDbLine
 10
-6.851103589217901
 20
8.301984437996193
 30
0.0
 11
-6.891853589217904
 21
8.301984437996193
 31
0.0
  0
LINE
  5
24AB
330
1F
100
AcDbEntity
  8
Part
  6
Continuous
100
AcDbLine
 10
-6.820103589217894
 20
8.342734437996197
 30
0.0
 11
-6.851103589217901
 21
8.342734437996197
 31
0.0
  0
CIRCLE
  5
24AC
330
1F
100
AcDbEntity
  8
Part
  6
Continuous
100
AcDbCircle
 10
-6.835603589217869
 20
8.286484437996191
 30
0.0
 40
0.1075
  0
LINE
  5
24AD
330
1F
100
AcDbEntity
  8
Part
100
AcDbLine
 10
-6.891853589217904
 20
8.301984437996193
 30
0.0
 11
-6.891853589217904
 21
8.270984437996196
 31
0.0
  0
LINE
  5
24AE
330
1F
100
AcDbEntity
  8
Part
  6
Continuous
100
AcDbLine
 10
-3.856290635162446
 20
8.342734437996197
 30
0.0
 11
-3.856290635162446
 21
8.301984437996193
 31
0.0
  0
LINE
  5
24AF
330
1F
100
AcDbEntity
  8
Part
  6
Continuous
100
AcDbLine
 10
-3.856290635162446
 20
8.270984437996196
 30
0.0
 11
-3.856290635162446
 21
8.230234437996191
 31
0.0
  0
LINE
  5
24B0
330
1F
100
AcDbEntity
  8
Part
  6
Continuous
100
AcDbLine
 10
-3.825290635162439
 20
8.230234437996191
 30
0.0
 11
-3.825290635162439
 21
8.270984437996196
 31
0.0
  0
LINE
  5
24B1
330
1F
100
AcDbEntity
  8
Part
  6
Continuous
100
AcDbLine
 10
-3.825290635162439
 20
8.301984437996193
 30
0.0
 11
-3.825290635162439
 21
8.342734437996197
 31
0.0
  0
LINE
  5
24B2
330
1F
100
AcDbEntity
  8
Part
  6
Continuous
100
AcDbLine
 10
-3.784540635162437
 20
8.270984437996196
 30
0.0
 11
-3.784540635162437
 21
8.301984437996193
 31
0.0
  0
LINE
  5
24B3
330
1F
100
AcDbEntity
  8
Part
  6
Continuous
100
AcDbLine
 10
-3.856290635162446
 20
8.230234437996191
 30
0.0
 11
-3.825290635162439
 21
8.230234437996191
 31
0.0
  0
LINE
  5
24B4
330
1F
100
AcDbEntity
  8
Part
  6
Continuous
100
AcDbLine
 10
-3.897040635162449
 20
8.270984437996196
 30
0.0
 11
-3.856290635162446
 21
8.270984437996196
 31
0.0
  0
LINE
  5
24B5
330
1F
100
AcDbEntity
  8
Part
  6
Continuous
100
AcDbLine
 10
-3.825290635162439
 20
8.270984437996196
 30
0.0
 11
-3.784540635162437
 21
8.270984437996196
 31
0.0
  0
LINE
  5
24B6
330
1F
100
AcDbEntity
  8
Part
  6
Continuous
100
AcDbLine
 10
-3.784540635162437
 20
8.301984437996193
 30
0.0
 11
-3.825290635162439
 21
8.301984437996193
 31
0.0
  0
LINE
  5
24B7
330
1F
100
AcDbEntity
  8
Part
  6
Continuous
100
AcDbLine
 10
-3.856290635162446
 20
8.301984437996193
 30
0.0
 11
-3.897040635162449
 21
8.301984437996193
 31
0.0
  0
LINE
  5
24B8
330
1F
100
AcDbEntity
  8
Part
  6
Continuous
100
AcDbLine
 10
-3.825290635162439
 20
8.342734437996197
 30
0.0
 11
-3.856290635162446
 21
8.342734437996197
 31
0.0
  0
CIRCLE
  5
24B9
330
1F
100
AcDbEntity
  8
Part
  6
Continuous
100
AcDbCircle
 10
-3.840790635162414
 20
8.286484437996191
 30
0.0
 40
0.1075
  0
LINE
  5
24BA
330
1F
100
AcDbEntity
  8
Part
100
AcDbLine
 10
-3.897040635162449
 20
8.301984437996193
 30
0.0
 11
-3.897040635162449
 21
8.270984437996196
 31
0.0
  0
LINE
  5
24BB
330
1F
100
AcDbEntity
  8
Part
  6
Continuous
100
AcDbLine
 10
-7.361528075795967
 20
11.22224911193472
 30
0.0
 11
-7.361528075795967
 21
11.18149911193472
 31
0.0
  0
LINE
  5
24BC
330
1F
100
AcDbEntity
  8
Part
  6
Continuous
100
AcDbLine
 10
-7.361528075795967
 20
11.15049911193472
 30
0.0
 11
-7.361528075795967
 21
11.10974911193472
 31
0.0
  0
LINE
  5
24BD
330
1F
100
AcDbEntity
  8
Part
  6
Continuous
100
AcDbLine
 10
-7.330528075795962
 20
11.10974911193472
 30
0.0
 11
-7.330528075795962
 21
11.15049911193472
 31
0.0
  0
LINE
  5
24BE
330
1F
100
AcDbEntity
  8
Part
  6
Continuous
100
AcDbLine
 10
-7.330528075795962
 20
11.18149911193472
 30
0.0
 11
-7.330528075795962
 21
11.22224911193472
 31
0.0
  0
LINE
  5
24BF
330
1F
100
AcDbEntity
  8
Part
  6
Continuous
100
AcDbLine
 10
-7.289778075795958
 20
11.15049911193472
 30
0.0
 11
-7.289778075795958
 21
11.18149911193472
 31
0.0
  0
LINE
  5
24C0
330
1F
100
AcDbEntity
  8
Part
  6
Continuous
100
AcDbLine
 10
-7.361528075795967
 20
11.10974911193472
 30
0.0
 11
-7.330528075795962
 21
11.10974911193472
 31
0.0
  0
LINE
  5
24C1
330
1F
100
AcDbEntity
  8
Part
  6
Continuous
100
AcDbLine
 10
-7.402278075795971
 20
11.15049911193472
 30
0.0
 11
-7.361528075795967
 21
11.15049911193472
 31
0.0
  0
LINE
  5
24C2
330
1F
100
AcDbEntity
  8
Part
  6
Continuous
100
AcDbLine
 10
-7.330528075795962
 20
11.15049911193472
 30
0.0
 11
-7.289778075795958
 21
11.15049911193472
 31
0.0
  0
LINE
  5
24C3
330
1F
100
AcDbEntity
  8
Part
  6
Continuous
100
AcDbLine
 10
-7.289778075795958
 20
11.18149911193472
 30
0.0
 11
-7.330528075795962
 21
11.18149911193472
 31
0.0
  0
LINE
  5
24C4
330
1F
100
AcDbEntity
  8
Part
  6
Continuous
100
AcDbLine
 10
-7.361528075795967
 20
11.18149911193472
 30
0.0
 11
-7.402278075795971
 21
11.18149911193472
 31
0.0
  0
LINE
  5
24C5
330
1F
100
AcDbEntity
  8
Part
  6
Continuous
100
AcDbLine
 10
-7.330528075795962
 20
11.22224911193472
 30
0.0
 11
-7.361528075795967
 21
11.22224911193472
 31
0.0
  0
CIRCLE
  5
24C6
330
1F
100
AcDbEntity
  8
Part
  6
Continuous
100
AcDbCircle
 10
-7.346028075795937
 20
11.16599911193471
 30
0.0
 40
0.1075
  0
LINE
  5
24C7
330
1F
100
AcDbEntity
  8
Part
100
AcDbLine
 10
-7.402278075795971
 20
11.18149911193472
 30
0.0
 11
-7.402278075795971
 21
11.15049911193472
 31
0.0
  0
LINE
  5
24C8
330
1F
100
AcDbEntity
  8
Part
  6
Continuous
100
AcDbLine
 10
-3.905360279912103
 20
11.22224911193472
 30
0.0
 11
-3.905360279912103
 21
11.18149911193472
 31
0.0
  0
LINE
  5
24C9
330
1F
100
AcDbEntity
  8
Part
  6
Continuous
100
AcDbLine
 10
-3.905360279912103
 20
11.15049911193472
 30
0.0
 11
-3.905360279912103
 21
11.10974911193472
 31
0.0
  0
LINE
  5
24CA
330
1F
100
AcDbEntity
  8
Part
  6
Continuous
100
AcDbLine
 10
-3.874360279912098
 20
11.10974911193472
 30
0.0
 11
-3.874360279912098
 21
11.15049911193472
 31
0.0
  0
LINE
  5
24CB
330
1F
100
AcDbEntity
  8
Part
  6
Continuous
100
AcDbLine
 10
-3.874360279912098
 20
11.18149911193472
 30
0.0
 11
-3.874360279912098
 21
11.22224911193472
 31
0.0
  0
LINE
  5
24CC
330
1F
100
AcDbEntity
  8
Part
  6
Continuous
100
AcDbLine
 10
-3.833610279912095
 20
11.15049911193472
 30
0.0
 11
-3.833610279912095
 21
11.18149911193472
 31
0.0
  0
LINE
  5
24CD
330
1F
100
AcDbEntity
  8
Part
  6
Continuous
100
AcDbLine
 10
-3.905360279912103
 20
11.10974911193472
 30
0.0
 11
-3.874360279912098
 21
11.10974911193472
 31
0.0
  0
LINE
  5
24CE
330
1F
100
AcDbEntity
  8
Part
  6
Continuous
100
AcDbLine
 10
-3.946110279912106
 20
11.15049911193472
 30
0.0
 11
-3.905360279912103
 21
11.15049911193472
 31
0.0
  0
LINE
  5
24CF
330
1F
100
AcDbEntity
  8
Part
  6
Continuous
100
AcDbLine
 10
-3.874360279912098
 20
11.15049911193472
 30
0.0
 11
-3.833610279912095
 21
11.15049911193472
 31
0.0
  0
LINE
  5
24D0
330
1F
100
AcDbEntity
  8
Part
  6
Continuous
100
AcDbLine
 10
-3.833610279912095
 20
11.18149911193472
 30
0.0
 11
-3.874360279912098
 21
11.18149911193472
 31
0.0
  0
LINE
  5
24D1
330
1F
100
AcDbEntity
  8
Part
  6
Continuous
100
AcDbLine
 10
-3.905360279912103
 20
11.18149911193472
 30
0.0
 11
-3.946110279912106
 21
11.18149911193472
 31
0.0
  0
LINE
  5
24D2
330
1F
100
AcDbEntity
  8
Part
  6
Continuous
100
AcDbLine
 10
-3.874360279912098
 20
11.22224911193472
 30
0.0
 11
-3.905360279912103
 21
11.22224911193472
 31
0.0
  0
CIRCLE
  5
24D3
330
1F
100
AcDbEntity
  8
Part
  6
Continuous
100
AcDbCircle
 10
-3.889860279912071
 20
11.16599911193471
 30
0.0
 40
0.1075
  0
LINE
  5
24D4
330
1F
100
AcDbEntity
  8
Part
100
AcDbLine
 10
-3.946110279912106
 20
11.18149911193472
 30
0.0
 11
-3.946110279912106
 21
11.15049911193472
 31
0.0
  0
LINE
  5
24D5
330
1F
100
AcDbEntity
  8
Part
100
AcDbLine
 10
-6.965603589217923
 20
9.188484437996192
 30
0.0
 11
-6.978603589217923
 21
9.188484437996192
 31
0.0
  0
LINE
  5
24D6
330
1F
100
AcDbEntity
  8
Part
100
AcDbLine
 10
-6.965603589217923
 20
8.943484437996191
 30
0.0
 11
-6.97860358921792
 21
8.943484437996186
 31
0.0
  0
LINE
  5
24D7
330
1F
100
AcDbEntity
  8
Part
100
AcDbLine
 10
-6.965603589217923
 20
8.286484437996191
 30
0.0
 11
-6.978603589217923
 21
8.286484437996186
 31
0.0
  0
LINE
  5
24D8
330
1F
100
AcDbEntity
  8
Part
100
AcDbLine
 10
-6.96560358921793
 20
8.464484437996192
 30
0.0
 11
-6.97860358921793
 21
8.464484437996192
 31
0.0
  0
LINE
  5
24D9
330
1F
100
AcDbEntity
  8
Part
100
AcDbLine
 10
-7.003603589217924
 20
8.311484437996185
 30
0.0
 11
-7.003603589217928
 21
8.43948443799619
 31
0.0
  0
ARC
  5
24DA
330
1F
100
AcDbEntity
  8
Part
100
AcDbCircle
 10
-6.978603589217928
 20
8.439484437996192
 30
0.0
 40
0.025
100
AcDbArc
 50
90.00000000000261
 51
180.0000000000023
  0
ARC
  5
24DB
330
1F
100
AcDbEntity
  8
Part
100
AcDbCircle
 10
-6.978603589217923
 20
8.311484437996186
 30
0.0
 40
0.025
100
AcDbArc
 50
180.0000000000025
 51
270.0000000000027
  0
ARC
  5
24DC
330
1F
100
AcDbEntity
  8
Part
100
AcDbCircle
 10
-7.37960358921792
 20
8.703984437996192
 30
0.0
 40
0.166
100
AcDbArc
 50
90.0
 51
270.0
  0
LINE
  5
24DD
330
1F
100
AcDbEntity
  8
Part
100
AcDbLine
 10
-6.965603589217923
 20
8.869984437996192
 30
0.0
 11
-7.006903579817437
 21
8.869984437996192
 31
0.0
  0
LINE
  5
24DE
330
1F
100
AcDbEntity
  8
Part
100
AcDbLine
 10
-7.016903579817434
 20
8.869984437996192
 30
0.0
 11
-7.37960358921792
 21
8.869984437996192
 31
0.0
  0
LINE
  5
24DF
330
1F
100
AcDbEntity
  8
Part
100
AcDbLine
 10
-6.965603589217923
 20
8.537984437996191
 30
0.0
 11
-7.006903579817437
 21
8.537984437996191
 31
0.0
  0
LINE
  5
24E0
330
1F
100
AcDbEntity
  8
Part
100
AcDbLine
 10
-7.016903579817434
 20
8.537984437996191
 30
0.0
 11
-7.37960358921792
 21
8.537984437996191
 31
0.0
  0
LINE
  5
24E1
330
1F
100
AcDbEntity
  8
Part
100
AcDbLine
 10
-7.006903579817437
 20
8.892269368869987
 30
0.0
 11
-7.006903579817437
 21
8.515699507122395
 31
0.0
  0
LINE
  5
24E2
330
1F
100
AcDbEntity
  8
Part
100
AcDbLine
 10
-7.016903579817434
 20
8.892269368869987
 30
0.0
 11
-7.016903579817434
 21
8.515699507122395
 31
0.0
  0
ARC
  5
24E3
330
1F
100
AcDbEntity
  8
Part
100
AcDbCircle
 10
-7.011903579817436
 20
8.892269368869987
 30
0.0
 40
0.0049999999999999
100
AcDbArc
 50
0.0
 51
180.0
  0
ARC
  5
24E4
330
1F
100
AcDbEntity
  8
Part
100
AcDbCircle
 10
-7.011903579817436
 20
8.515699507122395
 30
0.0
 40
0.0049999999999999
100
AcDbArc
 50
180.0
 51
0.0
  0
ARC
  5
24E5
330
1F
100
AcDbEntity
  8
Part
100
AcDbCircle
 10
-6.965603578929947
 20
10.25398443799619
 30
0.0
 40
0.028
100
AcDbArc
 50
100.404881318159
 51
259.5951186818409
  0
ARC
  5
24E6
330
1F
100
AcDbEntity
  8
Part
100
AcDbCircle
 10
-6.965603573785959
 20
10.15098443799619
 30
0.0
 40
0.028
100
AcDbArc
 50
100.4048920201718
 51
259.59510797983
  0
ARC
  5
24E7
330
1F
100
AcDbEntity
  8
Part
100
AcDbCircle
 10
-6.965603568641972
 20
10.04798443799619
 30
0.0
 40
0.028
100
AcDbArc
 50
100.4049027221827
 51
259.5950972778171
  0
ARC
  5
24E8
330
1F
100
AcDbEntity
  8
Part
100
AcDbCircle
 10
-6.965603563497983
 20
9.944984437996193
 30
0.0
 40
0.028
100
AcDbArc
 50
100.4049134241938
 51
259.5950865758061
  0
ARC
  5
24E9
330
1F
100
AcDbEntity
  8
Part
100
AcDbCircle
 10
-6.965603558353997
 20
9.841984437996194
 30
0.0
 40
0.028
100
AcDbArc
 50
100.4049241262061
 51
270.0
  0
LINE
  5
24EA
330
1F
100
AcDbEntity
  8
Part
100
AcDbLine
 10
-6.970660461251047
 20
10.31148443799619
 30
0.0
 11
-6.970660461251047
 21
10.28152400845745
 31
0.0
  0
LINE
  5
24EB
330
1F
100
AcDbEntity
  8
Part
100
AcDbLine
 10
-6.970660461251047
 20
10.22644486753493
 30
0.0
 11
-6.970660461251047
 21
10.1785240075129
 31
0.0
  0
LINE
  5
24EC
330
1F
100
AcDbEntity
  8
Part
100
AcDbLine
 10
-6.970660461251047
 20
10.12344486847949
 30
0.0
 11
-6.970660461251047
 21
10.07552400656834
 31
0.0
  0
LINE
  5
24ED
330
1F
100
AcDbEntity
  8
Part
100
AcDbLine
 10
-6.970660461251047
 20
10.02044486942404
 30
0.0
 11
-6.970660461251047
 21
9.972524005623792
 31
0.0
  0
LINE
  5
24EE
330
1F
100
AcDbEntity
  8
Part
100
AcDbLine
 10
-6.970660461251047
 20
9.917444870368594
 30
0.0
 11
-6.970660461251047
 21
9.869524004679236
 31
0.0
  0
LINE
  5
24EF
330
1F
100
AcDbEntity
  8
Part
100
AcDbLine
 10
-6.965603589217923
 20
9.813984437996213
 30
0.0
 11
-6.965603589217923
 21
9.188484437996192
 31
0.0
  0
LINE
  5
24F0
330
1F
100
AcDbEntity
  8
Part
100
AcDbLine
 10
-6.965603589217923
 20
9.605234437996198
 30
0.0
 11
-6.98660358921792
 21
9.605234437996198
 31
0.0
  0
LINE
  5
24F1
330
1F
100
AcDbEntity
  8
Part
100
AcDbLine
 10
-6.96560358921792
 20
9.397234437996202
 30
0.0
 11
-6.98660358921792
 21
9.397234437996202
 31
0.0
  0
LINE
  5
24F2
330
1F
100
AcDbEntity
  8
Part
100
AcDbLine
 10
-7.03660358921792
 20
9.555234437996199
 30
0.0
 11
-7.03660358921792
 21
9.447234437996202
 31
0.0
  0
ARC
  5
24F3
330
1F
100
AcDbEntity
  8
Part
100
AcDbCircle
 10
-6.98660358921792
 20
9.555234437996199
 30
0.0
 40
0.05
100
AcDbArc
 50
90.0
 51
180.0000000000003
  0
ARC
  5
24F4
330
1F
100
AcDbEntity
  8
Part
100
AcDbCircle
 10
-6.98660358921792
 20
9.447234437996202
 30
0.0
 40
0.05
100
AcDbArc
 50
180.0000000000002
 51
270.0
  0
HATCH
  5
24F5
330
1F
100
AcDbEntity
  8
Part
100
AcDbHatch
 10
0.0
 20
0.0
 30
0.0
210
0.0
220
0.0
230
1.0
  2
SOLID
 70
     1
 71
     0
 91
        2
 92
        7
 72
     0
 73
     1
 93
        8
 10
-3.655603589217921
 20
10.55648443799618
 10
-3.50560358921793
 20
10.55648443799618
 10
-3.50560358921793
 20
10.59148443799618
 10
-3.620603589217911
 20
10.59148443799619
 10
-3.620603589217858
 20
11.01148443799619
 10
-3.50560358921793
 20
11.01148443799618
 10
-3.50560358921793
 20
11.04648443799619
 10
-3.655603589217921
 20
11.04648443799619
 97
        0
 92
        7
 72
     0
 73
     1
 93
       11
 10
-3.020603589217911
 20
10.59148443799619
 10
-3.020603589217911
 20
10.55648443799619
 10
-2.960603589217912
 20
10.55648443799618
 10
-2.960603589217912
 20
10.98648443799618
 10
-3.020603589217911
 20
10.98648443799619
 10
-3.020603589217911
 20
10.93148443799618
 10
-3.28969449830883
 20
11.01148443799618
 10
-3.50560358921793
 20
11.01148443799618
 10
-3.620603589217878
 20
11.01148443799619
 10
-3.620603589217911
 20
10.59148443799618
 10
-3.50560358921793
 20
10.59148443799619
 97
        0
 75
     0
 76
     1
 47
0.0045914184288575
 98
        2
 10
-3.646407261419439
 20
10.74026794121153
 10
-3.379973727707901
 20
10.74945077216579
1001
ACAD
1010
0.0
1020
0.0
1030
0.0
  0
LINE
  5
24F6
330
1F
100
AcDbEntity
  8
Part
100
AcDbLine
 10
-3.655603589217921
 20
11.04648443799619
 30
0.0
 11
-3.50560358921793
 21
11.04648443799619
 31
0.0
  0
LINE
  5
24F7
330
1F
100
AcDbEntity
  8
Part
100
AcDbLine
 10
-3.50560358921793
 20
11.01148443799618
 30
0.0
 11
-3.28969449830883
 21
11.01148443799619
 31
0.0
  0
LINE
  5
24F8
330
1F
100
AcDbEntity
  8
Part
100
AcDbLine
 10
-2.960603589217912
 20
10.98648443799618
 30
0.0
 11
-2.960603589217912
 21
10.55648443799618
 31
0.0
  0
LINE
  5
24F9
330
1F
100
AcDbEntity
  8
Part
100
AcDbLine
 10
-3.50560358921793
 20
10.59148443799619
 30
0.0
 11
-3.50560358921793
 21
10.55648443799618
 31
0.0
  0
LINE
  5
24FA
330
1F
100
AcDbEntity
  8
Part
100
AcDbLine
 10
-3.020603589217911
 20
10.98648443799618
 30
0.0
 11
-3.020603589217911
 21
10.93148443799619
 31
0.0
  0
LINE
  5
24FB
330
1F
100
AcDbEntity
  8
Part
100
AcDbLine
 10
-2.960603589217912
 20
10.55648443799618
 30
0.0
 11
-3.020603589217911
 21
10.55648443799619
 31
0.0
  0
LINE
  5
24FC
330
1F
100
AcDbEntity
  8
Part
100
AcDbLine
 10
-3.020603589217911
 20
10.59148443799619
 30
0.0
 11
-3.50560358921793
 21
10.59148443799619
 31
0.0
  0
LINE
  5
24FD
330
1F
100
AcDbEntity
  8
Part
100
AcDbLine
 10
-3.020603589217911
 20
10.93148443799619
 30
0.0
 11
-3.28969449830883
 21
11.01148443799619
 31
0.0
  0
LINE
  5
24FE
330
1F
100
AcDbEntity
  8
Part
100
AcDbLine
 10
-2.960603589217912
 20
10.98648443799618
 30
0.0
 11
-3.020603589217911
 21
10.98648443799618
 31
0.0
  0
LINE
  5
24FF
330
1F
100
AcDbEntity
  8
Part
100
AcDbLine
 10
-3.020603589217911
 20
10.59148443799619
 30
0.0
 11
-3.020603589217911
 21
10.55648443799619
 31
0.0
  0
LINE
  5
2500
330
1F
100
AcDbEntity
  8
Part
100
AcDbLine
 10
-3.50560358921793
 20
10.55648443799618
 30
0.0
 11
-3.655603589217921
 21
10.55648443799618
 31
0.0
  0
LINE
  5
2501
330
1F
100
AcDbEntity
  8
Part
100
AcDbLine
 10
-3.50560358921793
 20
11.01148443799618
 30
0.0
 11
-3.620603589217878
 21
11.01148443799619
 31
0.0
  0
LINE
  5
2502
330
1F
100
AcDbEntity
  8
Part
100
AcDbLine
 10
-3.50560358921793
 20
10.59148443799619
 30
0.0
 11
-3.620603589217911
 21
10.59148443799619
 31
0.0
  0
LINE
  5
2503
330
1F
100
AcDbEntity
  8
Part
100
AcDbLine
 10
-3.50560358921793
 20
11.04648443799619
 30
0.0
 11
-3.50560358921793
 21
11.01148443799617
 31
0.0
  0
LWPOLYLINE
  5
2504
330
1F
100
AcDbEntity
  8
Notes
 48
0.25
100
AcDbPolyline
 90
       95
 70
     0
 43
0.0
 10
-6.543603558353994
 20
7.981484470579342
 10
-6.543603558353994
 20
7.931484437996179
 10
-6.593603558353991
 20
7.931484437996186
 10
-6.593603558353991
 20
7.981484437996176
 10
-6.643603558353995
 20
7.98148443799619
 10
-6.643603558353995
 20
7.931484437996179
 10
-6.693603558353992
 20
7.931484437996186
 10
-6.693603558353992
 20
7.981484437996183
 10
-6.743603558353997
 20
7.98148443799619
 10
-6.743603558353997
 20
7.931484437996179
 10
-6.793603558353994
 20
7.931484437996186
 10
-6.793603558353994
 20
7.981484437996183
 10
-6.843603558353998
 20
7.98148443799619
 10
-6.843603558353998
 20
7.931484437996179
 10
-6.893603558353995
 20
7.931484437996186
 10
-6.893603558353995
 20
7.981484437996183
 10
-6.943603558353992
 20
7.98148443799619
 10
-6.943603558353992
 20
7.931484437996179
 10
-6.993603558353997
 20
7.931484437996186
 10
-6.993603558353997
 20
7.981484437996183
 10
-7.043603558353994
 20
7.981484437996197
 10
-7.043603558353994
 20
7.931484437996171
 10
-7.093603558353998
 20
7.931484437996186
 10
-7.093603558353998
 20
7.98148443799619
 10
-7.143603558353995
 20
7.981484437996183
 10
-7.143603558353995
 20
7.931484437996171
 10
-7.993603558353997
 20
7.931484437996186
 10
-7.993603558353997
 20
8.856484437996183
 42
-0.4142135623730951
 10
-7.918603558353994
 20
8.931484437996186
 10
-7.703603558353997
 20
8.931484437996179
 10
-7.703603558353997
 20
8.946484437996186
 10
-7.568603558353992
 20
8.946484437996186
 10
-7.503603558353995
 20
9.011484437996191
 10
-7.503603558353995
 20
9.081484437996191
 10
-7.703603558353997
 20
9.081484437996177
 10
-7.703603558353997
 20
9.121484437996176
 10
-7.668603558353994
 20
9.121484437996187
 42
0.4142135623730951
 10
-7.593603558353991
 20
9.196484437996186
 10
-7.593603558353991
 20
9.456484437996177
 10
-7.458603558353993
 20
9.45648443799617
 10
-7.393603558353995
 20
9.521484437996175
 10
-7.393603558353995
 20
9.591484437996175
 10
-7.593603558353991
 20
9.591484437996168
 10
-7.593603558353991
 20
9.671484437996166
 10
-7.238603558354001
 20
9.671484437996141
 42
0.41421356237312
 10
-7.163603558353991
 20
9.746484437996141
 10
-7.163603558353991
 20
10.06648443799619
 42
0.4142135623730951
 10
-7.238603558353994
 20
10.14148443799619
 10
-7.893603558353995
 20
10.14148443799618
 10
-7.893603558353995
 20
10.21748443799616
 10
-7.869603558353994
 20
10.24148443799616
 10
-7.869603558353994
 20
10.20148443799618
 10
-7.799603558353994
 20
10.20148443799617
 10
-7.792550479125659
 20
10.24148443799618
 10
-7.728074776946237
 20
10.24148443799618
 42
0.4663076581550256
 10
-7.654214195470317
 20
10.32950805132119
 10
-7.676603558353989
 20
10.45648443799619
 10
-7.729603558353994
 20
10.45648443799618
 10
-7.729603558353994
 20
10.41648443799619
 10
-7.772550479125656
 20
10.41648443799619
 42
-0.4142135623730951
 10
-7.792550479125659
 20
10.43648443799619
 10
-7.792550479125659
 20
10.51648443799618
 10
-7.626257580483362
 20
10.51648443799618
 10
-7.59011054943813
 20
10.3114844379962
 10
-7.068603558353992
 20
10.31148443799618
 42
-0.4142135623730951
 10
-6.993603558353997
 20
10.23648443799618
 10
-6.993603558353997
 20
8.381484437996181
 10
-7.212066877647914
 20
8.400597501830652
 42
0.4400105308918409
 10
-7.293603558353994
 20
8.325882899473771
 10
-7.293603558353994
 20
8.131484437996181
 10
-5.943603558353992
 20
8.131484437996196
 10
-5.943603558353992
 20
8.031484437996187
 10
-5.992969462413818
 20
8.02319925401915
 10
-6.001189417061845
 20
8.072518981907311
 10
-6.050499794023203
 20
8.064243117160533
 10
-6.042279839375169
 20
8.014923389272357
 10
-6.091590216336528
 20
8.006647524525579
 10
-6.099810170984555
 20
8.055967252413747
 10
-6.149120547945913
 20
8.047691387666983
 10
-6.140900593297879
 20
7.998371659778793
 10
-6.19021097025923
 20
7.990095795031994
 10
-6.198430924907264
 20
8.03941552292019
 10
-6.247741301868622
 20
8.031139658173405
 10
-6.239521347220589
 20
7.981819930285222
 10
-6.288831724181947
 20
7.973544065538451
 10
-6.297051678829974
 20
8.022863793426619
 10
-6.346362055791332
 20
8.014587928679848
 10
-6.338142101143305
 20
7.965268200791658
 10
-6.387452478104656
 20
7.956992336044894
 10
-6.39567243275269
 20
8.006312063933062
 10
-6.444982809714042
 20
7.998036199186284
 10
-6.436762855066015
 20
7.948716471298116
 10
-6.486073232027373
 20
7.940440606551337
 10
-6.4942931866754
 20
7.989760334439512
 10
-6.543659468416813
 20
7.981475087075377
  0
LINE
  5
2505
330
1F
100
AcDbEntity
  8
clips
100
AcDbLine
 10
-3.633001531987244
 20
8.161484437996186
 30
0.0
 11
-3.633001531987244
 21
8.278482018271056
 31
0.0
  0
LINE
  5
2506
330
1F
100
AcDbEntity
  8
clips
100
AcDbLine
 10
-3.601761877866565
 20
8.131941097634928
 30
0.0
 11
-3.601761877866565
 21
8.278482018271056
 31
0.0
  0
LINE
  5
2507
330
1F
100
AcDbEntity
  8
clips
100
AcDbLine
 10
-3.601761877866565
 20
8.131941097634928
 30
0.0
 11
-6.960687844540601
 21
8.131941097634928
 31
0.0
  0
LINE
  5
2508
330
1F
100
AcDbEntity
  8
clips
100
AcDbLine
 10
-3.116603589217935
 20
8.161484437996186
 30
0.0
 11
-3.391130291380059
 21
8.161484437996186
 31
0.0
  0
LINE
  5
2509
330
1F
100
AcDbEntity
  8
clips
100
AcDbLine
 10
-3.116603589217935
 20
8.131941097634914
 30
0.0
 11
-3.405842504214974
 21
8.131941097634928
 31
0.0
  0
LINE
  5
250A
330
1F
100
AcDbEntity
  8
clips
100
AcDbLine
 10
-3.116603589217935
 20
8.131941097634914
 30
0.0
 11
-3.116603589217921
 21
8.161484437996186
 31
0.0
  0
LINE
  5
250B
330
1F
100
AcDbEntity
  8
clips
100
AcDbLine
 10
-3.391130291380059
 20
8.161484437996186
 30
0.0
 11
-3.538866681268353
 21
8.310731445994065
 31
0.0
  0
LINE
  5
250C
330
1F
100
AcDbEntity
  8
clips
100
AcDbLine
 10
-3.405842504214974
 20
8.131941097634928
 30
0.0
 11
-3.568324306171853
 21
8.296084290889496
 31
0.0
  0
ARC
  5
250D
330
1F
100
AcDbEntity
  8
clips
100
AcDbCircle
 10
-3.580409980437985
 20
8.278482018271056
 30
0.0
 40
0.0525915515492647
100
AcDbArc
 50
37.82164283833636
 51
180.0
  0
ARC
  5
250E
330
1F
100
AcDbEntity
  8
clips
100
AcDbCircle
 10
-3.580409980437985
 20
8.278482018271056
 30
0.0
 40
0.0213518974285859
100
AcDbArc
 50
55.52660951372315
 51
180.0
  0
ARC
  5
250F
330
1F
100
AcDbEntity
  8
IPT
100
AcDbCircle
 10
-3.37760358921792
 20
8.231984437996189
 30
0.0
 40
0.05
100
AcDbArc
 50
180.0
 51
270.0
  0
LINE
  5
2510
330
1F
100
AcDbEntity
  8
IPT
100
AcDbLine
 10
-3.37760358921792
 20
8.181984437996192
 30
0.0
 11
-3.271603589217922
 21
8.181984437996192
 31
0.0
  0
LINE
  5
2511
330
1F
100
AcDbEntity
  8
IPT
100
AcDbLine
 10
-3.271603589217922
 20
8.181984437996192
 30
0.0
 11
-3.271603589217922
 21
8.235984437996187
 31
0.0
  0
LINE
  5
2512
330
1F
100
AcDbEntity
  8
clips
100
AcDbLine
 10
-3.633001531987244
 20
8.161484437996186
 30
0.0
 11
-3.943394028146262
 21
8.161484437996186
 31
0.0
  0
LINE
  5
2513
330
1F
100
AcDbEntity
  8
Notes
100
AcDbLine
 10
-7.03674061265254
 20
8.133002162859657
 30
0.0
 11
-7.256034199561656
 21
8.189288588873713
 31
0.0
  0
LINE
  5
2514
330
1F
100
AcDbEntity
  8
Notes
100
AcDbLine
 10
-7.029282227927943
 20
8.162060251188037
 30
0.0
 11
-7.248575814837059
 21
8.21834667720209
 31
0.0
  0
LINE
  5
2515
330
1F
100
AcDbEntity
  8
Notes
100
AcDbLine
 10
-7.258473838840429
 20
8.251093142925167
 30
0.0
 11
-7.134542240147561
 21
8.388885992812866
 31
0.0
  0
LINE
  5
2516
330
1F
100
AcDbEntity
  8
Notes
100
AcDbLine
 10
-7.280779259570084
 20
8.271154753181406
 30
0.0
 11
-7.171947815695962
 21
8.392158556626016
 31
0.0
  0
ARC
  5
2517
330
1F
100
AcDbEntity
  8
Notes
100
AcDbCircle
 10
-7.243603558353994
 20
8.237718736087678
 30
0.0
 40
0.05
100
AcDbArc
 50
138.0316231566404
 51
255.6045585556358
  0
ARC
  5
2518
330
1F
100
AcDbEntity
  8
Notes
100
AcDbCircle
 10
-7.243603558353994
 20
8.237718736087678
 30
0.0
 40
0.02
100
AcDbArc
 50
138.0316231566404
 51
255.6045585556358
  0
LINE
  5
2519
330
1F
100
AcDbEntity
  8
Notes
100
AcDbLine
 10
-7.029282227927943
 20
8.162060251188037
 30
0.0
 11
-6.965603589217923
 21
8.161484437996191
 31
0.0
  0
INSERT
  5
252B
330
1F
100
AcDbEntity
  8
0
100
AcDbBlockReference
  2
A$C1A9A7DAB
 10
-2.154498540132025
 20
14.64803015409604
 30
0.0
  0
ENDSEC
  0
SECTION
  2
OBJECTS
  0
DICTIONARY
  5
C
330
0
100
AcDbDictionary
281
     1
  3
ACAD_2007HEADERVARS_RT
350
2550
  3
ACAD_COLOR
350
622
  3
ACAD_GROUP
350
D
  3
ACAD_LAYOUT
350
1A
  3
ACAD_MATERIAL
350
61E
  3
ACAD_MLINESTYLE
350
17
  3
ACAD_PLOTSETTINGS
350
19
  3
ACAD_PLOTSTYLENAME
350
E
  3
ACAD_TABLESTYLE
350
61C
  3
ACAD_VISUALSTYLE
350
2A
  3
AcDbVariableDictionary
350
735
  3
AcmDictionary
350
6EB
  3
AMG
350
628
  3
AMGSNAPSETTINGS
350
737
  3
ASE_INDEX_DICTIONARY
350
1B4D
  3
DWGPROPS
350
254F
  3
MAPISURF_MODULE
350
23D6
  0
DICTIONARY
  5
76B
330
2
100
AcDbDictionary
280
     1
281
     1
  3
ACAD_LAYERFILTERS
360
E0D
  3
ACAD_LAYERSTATES
360
76C
  3
ACLYDICTIONARY
360
E0C
  0
DICTIONARY
  5
730
330
1F
100
AcDbDictionary
280
     1
281
     1
  3
ACAD_INDEX
360
731
  3
ACAD_SORTENTS
360
74A
  0
DICTIONARY
  5
75A
330
759
100
AcDbDictionary
280
     1
281
     1
  3
ACAD_SORTENTS
360
1C49
  0
DICTIONARY
  5
11F1
330
11EB
100
AcDbDictionary
280
     1
281
     1
  3
ACAD_SORTENTS
360
11F2
  0
DICTIONARY
  5
247C
330
23E4
100
AcDbDictionary
280
     1
281
     1
  3
ACAD_SORTENTS
360
247D
  0
DICTIONARY
  5
251C
330
251B
100
AcDbDictionary
280
     1
281
     1
  3
ACAD_SORTENTS
360
251D
  0
DICTIONARY
  5
2526
330
2524
100
AcDbDictionary
280
     1
281
     1
  3
ACAD_SORTENTS
360
2527
  0
DICTIONARY
  5
255B
330
FC4
100
AcDbDictionary
280
     1
281
     1
  3
ACAD_MTEXT_RT
360
255C
  0
DICTIONARY
  5
2550
102
{ACAD_REACTORS
330
C
102
}
330
C
100
AcDbDictionary
281
     1
  3
DIMARCSYM
350
2551
  3
DIMLTYPE
350
2552
  0
DICTIONARY
  5
622
102
{ACAD_REACTORS
330
C
102
}
330
C
100
AcDbDictionary
281
     1
  0
DICTIONARY
  5
D
102
{ACAD_REACTORS
330
C
102
}
330
C
100
AcDbDictionary
281
     1
  0
DICTIONARY
  5
1A
102
{ACAD_REACTORS
330
C
102
}
330
C
100
AcDbDictionary
281
     1
  3
Layout1
350
1E
  3
Layout2
350
26
  3
Model
350
22
  0
DICTIONARY
  5
61E
102
{ACAD_REACTORS
330
C
102
}
330
C
100
AcDbDictionary
281
     1
  3
ByBlock
350
620
  3
ByLayer
350
61F
  3
Global
350
621
  0
DICTIONARY
  5
17
102
{ACAD_REACTORS
330
C
102
}
330
C
100
AcDbDictionary
281
     1
  3
Standard
350
18
  0
DICTIONARY
  5
19
102
{ACAD_REACTORS
330
C
102
}
330
C
100
AcDbDictionary
281
     1
  0
ACDBDICTIONARYWDFLT
  5
E
102
{ACAD_REACTORS
330
C
102
}
330
C
100
AcDbDictionary
281
     1
  3
Normal
350
F
100
AcDbDictionaryWithDefault
340
F
  0
DICTIONARY
  5
61C
102
{ACAD_REACTORS
330
C
102
}
330
C
100
AcDbDictionary
281
     1
  3
Standard
350
623
  0
DICTIONARY
  5
2A
102
{ACAD_REACTORS
330
C
102
}
330
C
100
AcDbDictionary
281
     1
  3
2dWireframe
350
2F
  3
3D Hidden
350
31
  3
3dWireframe
350
30
  3
Basic
350
32
  3
Brighten
350
36
  3
ColorChange
350
3A
  3
Conceptual
350
34
  3
Dim
350
35
  3
Facepattern
350
39
  3
Flat
350
2B
  3
FlatWithEdges
350
2C
  3
Gouraud
350
2D
  3
GouraudWithEdges
350
2E
  3
Linepattern
350
38
  3
Realistic
350
33
  3
Thicken
350
37
  0
DICTIONARY
  5
735
102
{ACAD_REACTORS
330
C
102
}
330
C
100
AcDbDictionary
281
     1
  3
CTABLESTYLE
350
736
  3
DIMASSOC
350
254E
  3
INDEXCTL
350
254D
  3
SORTENTS
350
254C
  0
DICTIONARY
  5
6EB
102
{ACAD_REACTORS
330
C
102
}
330
C
100
AcDbDictionary
281
     1
  3
AcmStdDictionary
350
6FB
  3
AMDTSECTSYM_ARROWCOLOR
350
71B
  0
DICTIONARY
  5
628
102
{ACAD_REACTORS
330
C
102
}
330
C
100
AcDbDictionary
281
     1
  3
AcMgSettings
350
629
  0
DICTIONARY
  5
737
102
{ACAD_REACTORS
330
C
102
}
330
C
100
AcDbDictionary
281
     1
  3
DIMENSION
350
73C
  3
FEA
350
73B
  3
HATCH (1)
350
738
  3
HATCH (2)
350
739
  3
SIMPLE WELD
350
73D
  3
SYMBOLS
350
73A
  0
DICTIONARY
  5
1B4D
102
{ACAD_REACTORS
330
C
102
}
330
C
100
AcDbDictionary
281
     1
  3
ASEBlockHierarchyIndexRecord
350
1B4F
1001
DCO15
1040
1621684463.686
  0
XRECORD
  5
254F
102
{ACAD_REACTORS
330
C
102
}
330
C
100
AcDbXrecord
280
     1
  1
DWGPROPS COOKIE
  2

  3

  4

  6

  7

  8
amartinez
  9

300
AmdtFileType=84
301
=
302
=
303
=
304
=
305
=
306
=
307
=
308
=
309
=
 40
0.2930502893518518
 41
2454571.568951991
 42
2454784.454200208
  1

 90
        1
  0
DICTIONARY
  5
E0D
102
{ACAD_REACTORS
330
76B
102
}
330
76B
100
AcDbDictionary
281
     1
  0
DICTIONARY
  5
76C
102
{ACAD_REACTORS
330
76B
102
}
330
76B
100
AcDbDictionary
281
     1
  0
DICTIONARY
  5
E0C
102
{ACAD_REACTORS
330
76B
102
}
330
76B
100
AcDbDictionary
281
     1
1001
ACAD
1000
<All
  0
DICTIONARY
  5
731
102
{ACAD_REACTORS
330
730
102
}
330
730
100
AcDbDictionary
281
     1
  3
*A1
350
732
  0
SORTENTSTABLE
  5
74A
102
{ACAD_REACTORS
330
730
102
}
330
730
100
AcDbSortentsTable
330
1F
331
7DA
  5
7F4
331
1351
  5
1368
331
129A
  5
12B3
331
1224
  5
123B
331
125B
  5
1272
331
CF9
  5
CE3
331
1F43
  5
1F43
331
1359
  5
1370
331
12A2
  5
12BB
331
122C
  5
1246
331
D88
  5
E00
331
D01
  5
D1E
331
1B77
  5
1C9E
331
2052
  5
2052
331
1322
  5
1339
331
1F4B
  5
1F4B
331
24AA
  5
24AA
331
24E1
  5
24E1
331
1234
  5
124E
331
11E5
  5
121F
331
126B
  5
1282
331
DB0
  5
E05
331
24E9
  5
24E9
331
205A
  5
205A
331
1F53
  5
1F53
331
24B2
  5
24B2
331
1369
  5
1381
331
132A
  5
1344
331
1156
  5
1209
331
1273
  5
128A
331
1B50
  5
1B6D
331
1D36
  5
7DA
331
24F1
  5
24F1
331
2062
  5
2062
331
1F6B
  5
1F6B
331
24BA
  5
24BA
331
24F9
  5
24F9
331
2483
  5
2483
331
24C2
  5
24C2
331
1371
  5
1389
331
1332
  5
134C
331
127B
  5
1292
331
D39
  5
D84
331
DE8
  5
F21
331
1B58
  5
7D8
331
206A
  5
206A
331
1F73
  5
1F73
331
1342
  5
1359
331
124C
  5
1264
331
1283
  5
129A
331
120D
  5
122B
331
1B60
  5
7DC
331
7CB
  5
7EC
331
D41
  5
DB3
331
2501
  5
2501
331
1F7B
  5
1F7B
331
1F34
  5
1F34
331
248B
  5
248B
331
24CA
  5
24CA
331
1254
  5
126B
331
128B
  5
12A2
331
D49
  5
DB8
331
13F9
  5
1B53
331
2509
  5
2509
331
1F3C
  5
1F3C
331
2493
  5
2493
331
24D2
  5
24D2
331
1D07
  5
1D41
331
2511
  5
2511
331
1FE3
  5
1FE3
331
249B
  5
249B
331
24DA
  5
24DA
331
2519
  5
2519
331
24A3
  5
24A3
331
7DB
  5
7F5
331
E00
  5
F30
331
1352
  5
1369
331
129B
  5
12B4
331
1225
  5
123C
331
125C
  5
1273
331
1B70
  5
1C97
331
1F44
  5
1F44
331
135A
  5
1371
331
122D
  5
1247
331
11DE
  5
1212
331
D89
  5
E01
331
D02
  5
D33
331
1B78
  5
1C9F
331
2053
  5
2053
331
1323
  5
133A
331
1F4C
  5
1F4C
331
24AB
  5
24AB
331
24E2
  5
24E2
331
1235
  5
124F
331
11E6
  5
1220
331
126C
  5
1283
331
DB1
  5
E11
331
24EA
  5
24EA
331
205B
  5
205B
331
1F54
  5
1F54
331
24B3
  5
24B3
331
136A
  5
1382
331
132B
  5
1345
331
1274
  5
128B
331
1B51
  5
1B6E
331
24F2
  5
24F2
331
2063
  5
2063
331
1F6C
  5
1F6C
331
24BB
  5
24BB
331
24FA
  5
24FA
331
2484
  5
2484
331
24C3
  5
24C3
331
745
  5
745
331
1C50
  5
1CA0
331
1372
  5
138A
331
127C
  5
1293
331
74D
  5
7DE
331
D3A
  5
D85
331
DE9
  5
F22
331
1B59
  5
74D
331
1F74
  5
1F74
331
1343
  5
135A
331
124D
  5
1265
331
1284
  5
129B
331
120E
  5
122C
331
1B61
  5
7DD
331
7CC
  5
7EF
331
D42
  5
DB4
331
2502
  5
2502
331
1F7C
  5
1F7C
331
1F35
  5
1F35
331
248C
  5
248C
331
24CB
  5
24CB
331
1B69
  5
1B74
331
13FA
  5
1B54
331
1255
  5
126C
331
11BF
  5
120E
331
134B
  5
1362
331
250A
  5
250A
331
1294
  5
12AD
331
1F3D
  5
1F3D
331
2494
  5
2494
331
24D3
  5
24D3
331
121E
  5
1235
331
2512
  5
2512
331
1FE4
  5
1FE4
331
249C
  5
249C
331
24DB
  5
24DB
331
24A4
  5
24A4
331
CF3
  5
D10
331
D7A
  5
DBD
331
E01
  5
F32
331
7DC
  5
7FA
331
1B71
  5
1C98
331
129C
  5
12B5
331
1226
  5
123D
331
125D
  5
1274
331
CFB
  5
D13
331
1353
  5
136A
331
1F45
  5
1F45
331
122E
  5
1248
331
11DF
  5
1213
331
D8A
  5
E02
331
135B
  5
1372
331
2054
  5
2054
331
1F4D
  5
1F4D
331
24AC
  5
24AC
331
24E3
  5
24E3
331
1236
  5
1251
331
126D
  5
1284
331
11E7
  5
1221
331
D1B
  5
D4A
331
DB2
  5
E1F
331
1324
  5
133E
331
205C
  5
205C
331
1DE0
  5
1DE0
331
24B4
  5
24B4
331
1B52
  5
7AA
331
136B
  5
1383
331
1275
  5
128C
331
132C
  5
1346
331
24EB
  5
24EB
331
2064
  5
2064
331
1F6D
  5
1F6D
331
24BC
  5
24BC
331
24F3
  5
24F3
331
2485
  5
2485
331
24C4
  5
24C4
331
24FB
  5
24FB
331
746
  5
7AC
331
1246
  5
125E
331
127D
  5
1294
331
D3B
  5
D86
331
DEA
  5
F23
331
1C51
  5
1CA1
331
74E
  5
7AF
331
1F75
  5
1F75
331
1B62
  5
7D6
331
124E
  5
1266
331
120F
  5
122D
331
1285
  5
129C
331
CCC
  5
CE2
331
D43
  5
DB5
331
1344
  5
135B
331
7CD
  5
7F0
331
1F7D
  5
1F7D
331
1F36
  5
1F36
331
248D
  5
248D
331
24CC
  5
24CC
331
1B6A
  5
1B75
331
1D01
  5
746
331
13FB
  5
1B55
331
1256
  5
126D
331
134C
  5
1363
331
7D5
  5
7F2
331
2503
  5
2503
331
1F3E
  5
1F3E
331
2495
  5
2495
331
24D4
  5
24D4
331
250B
  5
250B
331
121F
  5
1236
331
1295
  5
12AE
331
249D
  5
249D
331
24DC
  5
24DC
331
2513
  5
2513
331
24A5
  5
24A5
331
11C0
  5
120F
331
CF4
  5
D17
331
E02
  5
F33
331
7DD
  5
7FB
331
1B72
  5
1C99
331
1354
  5
136B
331
125E
  5
1275
331
D83
  5
DCC
331
CFC
  5
D18
331
129D
  5
12B6
331
1F46
  5
1F46
331
122F
  5
1249
331
11E0
  5
1214
331
D8B
  5
E03
331
1AFB
  5
1B61
331
204D
  5
204D
331
24AD
  5
24AD
331
24E4
  5
24E4
331
1F4E
  5
1F4E
331
1364
  5
137C
331
1237
  5
1252
331
11E8
  5
1222
331
DB3
  5
E3B
331
1325
  5
133F
331
2055
  5
2055
331
24B5
  5
24B5
331
24EC
  5
24EC
331
1DE1
  5
1DF0
331
136C
  5
1384
331
1276
  5
128D
331
132D
  5
1347
331
205D
  5
205D
331
24BD
  5
24BD
331
24F4
  5
24F4
331
1F6E
  5
1F6E
331
2065
  5
2065
331
2486
  5
2486
331
24C5
  5
24C5
331
24FC
  5
24FC
331
747
  5
7BF
331
1247
  5
125F
331
127E
  5
1295
331
D3C
  5
D88
331
DEB
  5
F24
331
74F
  5
7C2
331
1B63
  5
1B73
331
124F
  5
1267
331
1286
  5
129D
331
CCD
  5
D12
331
D44
  5
D87
331
1345
  5
135C
331
757
  5
7DF
331
1F76
  5
1F76
331
248E
  5
248E
331
24CD
  5
24CD
331
2504
  5
2504
331
1F7E
  5
1F7E
331
1B6B
  5
1B76
331
1D02
  5
776
331
1257
  5
126E
331
134D
  5
1364
331
7D6
  5
7F3
331
1F37
  5
1F37
331
2496
  5
2496
331
24D5
  5
24D5
331
250C
  5
250C
331
1D0A
  5
1D43
331
1296
  5
12AF
331
1F3F
  5
1F3F
331
249E
  5
249E
331
24DD
  5
24DD
331
2514
  5
2514
331
24A6
  5
24A6
331
1220
  5
1237
331
11C1
  5
1211
331
CF5
  5
D15
331
E03
  5
F34
331
7DE
  5
7FC
331
1B73
  5
1C9A
331
1355
  5
136C
331
1228
  5
123F
331
125F
  5
1276
331
CFD
  5
D1A
331
D84
  5
DEC
331
129E
  5
12B7
331
204E
  5
204E
331
1230
  5
124A
331
11E1
  5
121A
331
D8C
  5
E04
331
1AFC
  5
1B62
331
1F47
  5
1F47
331
24AE
  5
24AE
331
24E5
  5
24E5
331
2056
  5
2056
331
1365
  5
137D
331
1238
  5
1253
331
11E9
  5
1223
331
DB4
  5
E49
331
1326
  5
1340
331
1F4F
  5
1F4F
331
24ED
  5
24ED
331
136D
  5
1385
331
1277
  5
128E
331
132E
  5
1348
331
205E
  5
205E
331
24B6
  5
24B6
331
24F5
  5
24F5
331
2066
  5
2066
331
1F6F
  5
1F6F
331
24BE
  5
24BE
331
24FD
  5
24FD
331
2487
  5
2487
331
24C6
  5
24C6
331
D35
  5
D82
331
DE4
  5
F1D
331
7B7
  5
7E0
331
748
  5
7D3
331
1248
  5
1260
331
127F
  5
1296
331
DEC
  5
F28
331
750
  5
7C1
331
1DF2
  5
E2D
331
1B64
  5
1B71
331
1CE3
  5
1D35
331
1211
  5
122E
331
1287
  5
129E
331
DFC
  5
F29
331
CCE
  5
D14
331
D45
  5
D8B
331
1346
  5
135D
331
1F77
  5
1F77
331
2505
  5
2505
331
1F7F
  5
1F7F
331
1B6C
  5
1B77
331
1D03
  5
7AB
331
134E
  5
1365
331
1F38
  5
1F38
331
248F
  5
248F
331
24CE
  5
24CE
331
250D
  5
250D
331
1D0B
  5
1D45
331
19AD
  5
1B56
331
2497
  5
2497
331
24D6
  5
24D6
331
2515
  5
2515
331
249F
  5
249F
331
24DE
  5
24DE
331
24A7
  5
24A7
331
CF6
  5
D11
331
E04
  5
F36
331
7DF
  5
7FD
331
1221
  5
1238
331
1258
  5
126F
331
1B74
  5
1C9B
331
1AF5
  5
1B58
331
1356
  5
136D
331
129F
  5
12B8
331
1F40
  5
1F40
331
D85
  5
DED
331
CFE
  5
D1B
331
1229
  5
1240
331
1260
  5
1277
331
204F
  5
204F
331
1F48
  5
1F48
331
1231
  5
124B
331
11E2
  5
121B
331
2057
  5
2057
331
1366
  5
137E
331
1327
  5
1341
331
1F50
  5
1F50
331
24AF
  5
24AF
331
24E6
  5
24E6
331
DB5
  5
E65
331
1270
  5
1287
331
24EE
  5
24EE
331
136E
  5
1386
331
132F
  5
1349
331
205F
  5
205F
331
24B7
  5
24B7
331
24F6
  5
24F6
331
2067
  5
2067
331
24BF
  5
24BF
331
24FE
  5
24FE
331
24C7
  5
24C7
331
DE5
  5
F1E
331
7B8
  5
7E1
331
1173
  5
120B
331
1278
  5
128F
331
1B5D
  5
1B70
331
1F70
  5
1F70
331
1249
  5
1261
331
D3E
  5
D92
331
DED
  5
DFE
331
7C8
  5
7E6
331
751
  5
7D2
331
11A3
  5
120D
331
1280
  5
1297
331
1CE4
  5
1CA2
331
1347
  5
135E
331
1F78
  5
1F78
331
2488
  5
2488
331
DFD
  5
F2D
331
CCF
  5
D16
331
D46
  5
D89
331
1212
  5
122F
331
1288
  5
129F
331
2506
  5
2506
331
1F80
  5
1F80
331
1B6D
  5
1B78
331
134F
  5
1366
331
1F39
  5
1F39
331
2490
  5
2490
331
24CF
  5
24CF
331
121A
  5
1232
331
250E
  5
250E
331
2498
  5
2498
331
24D7
  5
24D7
331
2516
  5
2516
331
24A0
  5
24A0
331
24DF
  5
24DF
331
FC4
  5
1062
331
E05
  5
DFF
331
7E0
  5
7FE
331
1222
  5
1239
331
1259
  5
1270
331
1B75
  5
1C9C
331
1AF6
  5
1B59
331
1357
  5
136E
331
12A0
  5
12B9
331
1F41
  5
1F41
331
CFF
  5
D1C
331
D86
  5
DEE
331
122A
  5
1244
331
1261
  5
1278
331
2050
  5
2050
331
1F49
  5
1F49
331
24A8
  5
24A8
331
1232
  5
124C
331
A28
  5
7AD
331
11E3
  5
121C
331
2058
  5
2058
331
1D34
  5
1D46
331
1328
  5
1342
331
1F51
  5
1F51
331
24B0
  5
24B0
331
24E7
  5
24E7
331
1271
  5
1288
331
24EF
  5
24EF
331
1B56
  5
1B6F
331
136F
  5
1387
331
2060
  5
2060
331
24B8
  5
24B8
331
24F7
  5
24F7
331
24C0
  5
24C0
331
24FF
  5
24FF
331
1330
  5
134A
331
D37
  5
D83
331
DE6
  5
F1F
331
7B9
  5
7E3
331
1279
  5
1290
331
2068
  5
2068
331
1B5E
  5
7DB
331
1340
  5
1357
331
1F71
  5
1F71
331
124A
  5
1262
331
D3F
  5
DB0
331
7C9
  5
7E8
331
120B
  5
122A
331
1281
  5
1298
331
1CE5
  5
1D36
331
13F7
  5
1B51
331
1348
  5
135F
331
1F79
  5
1F79
331
2489
  5
2489
331
24C8
  5
24C8
331
1252
  5
1269
331
DFE
  5
F2E
331
D47
  5
DB6
331
1213
  5
1230
331
1289
  5
12A0
331
2507
  5
2507
331
1B6E
  5
1C50
331
1F3A
  5
1F3A
331
2491
  5
2491
331
24D0
  5
24D0
331
121B
  5
1233
331
250F
  5
250F
331
1FE1
  5
1FE1
331
2499
  5
2499
331
24D8
  5
24D8
331
2517
  5
2517
331
24A1
  5
24A1
331
1350
  5
1367
331
1299
  5
12B2
331
1223
  5
123A
331
125A
  5
1271
331
1B76
  5
1C9D
331
1AF7
  5
1B5C
331
1358
  5
136F
331
12A1
  5
12BA
331
1F42
  5
1F42
331
D87
  5
DFD
331
D00
  5
D1D
331
122B
  5
1245
331
1262
  5
1279
331
2051
  5
2051
331
1F4A
  5
1F4A
331
24A9
  5
24A9
331
24E0
  5
24E0
331
1233
  5
124D
331
11E4
  5
121E
331
24E8
  5
24E8
331
2059
  5
2059
331
1D35
  5
1D47
331
1329
  5
1343
331
1F52
  5
1F52
331
24B1
  5
24B1
331
1272
  5
1289
331
24F0
  5
24F0
331
2061
  5
2061
331
24B9
  5
24B9
331
24F8
  5
24F8
331
24C1
  5
24C1
331
1370
  5
1388
331
1331
  5
134B
331
7BA
  5
7E5
331
DE7
  5
F20
331
2069
  5
2069
331
1B5F
  5
1B72
331
1341
  5
1358
331
1F72
  5
1F72
331
124B
  5
1263
331
1282
  5
1299
331
7CA
  5
7E9
331
D40
  5
DB2
331
2500
  5
2500
331
1CE6
  5
1D3F
331
13F8
  5
1B52
331
1349
  5
1360
331
1F7A
  5
1F7A
331
248A
  5
248A
331
24C9
  5
24C9
331
1253
  5
126A
331
1214
  5
1231
331
128A
  5
12A1
331
D48
  5
DB7
331
DFF
  5
F2F
331
2508
  5
2508
331
1F3B
  5
1F3B
331
2492
  5
2492
331
24D1
  5
24D1
331
121C
  5
1234
331
1B6F
  5
1C51
331
1D06
  5
1D40
331
2510
  5
2510
331
1FE2
  5
1FE2
331
249A
  5
249A
331
24D9
  5
24D9
331
2518
  5
2518
331
24A2
  5
24A2
  0
SORTENTSTABLE
  5
1C49
102
{ACAD_REACTORS
330
75A
102
}
330
75A
100
AcDbSortentsTable
330
759
  0
SORTENTSTABLE
  5
11F2
102
{ACAD_REACTORS
330
11F1
102
}
330
11F1
100
AcDbSortentsTable
330
11EB
  0
SORTENTSTABLE
  5
247D
102
{ACAD_REACTORS
330
247C
102
}
330
247C
100
AcDbSortentsTable
330
23E4
  0
SORTENTSTABLE
  5
251D
102
{ACAD_REACTORS
330
251C
102
}
330
251C
100
AcDbSortentsTable
330
251B
  0
SORTENTSTABLE
  5
2527
102
{ACAD_REACTORS
330
2526
102
}
330
2526
100
AcDbSortentsTable
330
2524
  0
XRECORD
  5
255C
102
{ACAD_REACTORS
330
255B
102
}
330
255B
100
AcDbXrecord
280
     1
 40
1760.0
  1
^I
  0
XRECORD
  5
2551
102
{ACAD_REACTORS
330
2550
102
}
330
2550
100
AcDbXrecord
280
     1
 70
     1
  0
XRECORD
  5
2552
102
{ACAD_REACTORS
330
2550
102
}
330
2550
100
AcDbXrecord
280
     1
340
15
  0
LAYOUT
  5
1E
102
{ACAD_XDICTIONARY
360
2553
102
}
102
{ACAD_REACTORS
330
1A
102
}
330
1A
100
AcDbPlotSettings
  1

  2
none_device
  4

  6

 40
0.0
 41
0.0
 42
0.0
 43
0.0
 44
0.0
 45
0.0
 46
0.0
 47
0.0
 48
0.0
 49
0.0
140
0.0
141
0.0
142
1.0
143
1.0
 70
   688
 72
     0
 73
     0
 74
     5
  7

 75
    16
147
1.0
148
0.0
149
0.0
100
AcDbLayout
  1
Layout1
 70
     1
 71
     1
 10
0.0
 20
0.0
 11
12.0
 21
9.0
 12
0.0
 22
0.0
 32
0.0
 14
1.000000000000000E+20
 24
1.000000000000000E+20
 34
1.000000000000000E+20
 15
-1.000000000000000E+20
 25
-1.000000000000000E+20
 35
-1.000000000000000E+20
146
0.0
 13
0.0
 23
0.0
 33
0.0
 16
1.0
 26
0.0
 36
0.0
 17
0.0
 27
1.0
 37
0.0
 76
     0
330
1B
  0
LAYOUT
  5
26
102
{ACAD_XDICTIONARY
360
2557
102
}
102
{ACAD_REACTORS
330
1A
102
}
330
1A
100
AcDbPlotSettings
  1

  2
none_device
  4

  6

 40
0.0
 41
0.0
 42
0.0
 43
0.0
 44
0.0
 45
0.0
 46
0.0
 47
0.0
 48
0.0
 49
0.0
140
0.0
141
0.0
142
1.0
143
1.0
 70
   688
 72
     0
 73
     0
 74
     5
  7

 75
    16
147
1.0
148
0.0
149
0.0
100
AcDbLayout
  1
Layout2
 70
     1
 71
     2
 10
0.0
 20
0.0
 11
0.0
 21
0.0
 12
0.0
 22
0.0
 32
0.0
 14
0.0
 24
0.0
 34
0.0
 15
0.0
 25
0.0
 35
0.0
146
0.0
 13
0.0
 23
0.0
 33
0.0
 16
1.0
 26
0.0
 36
0.0
 17
0.0
 27
1.0
 37
0.0
 76
     0
330
23
  0
LAYOUT
  5
22
102
{ACAD_XDICTIONARY
360
2555
102
}
102
{ACAD_REACTORS
330
1A
102
}
330
1A
100
AcDbPlotSettings
  1

  2
none_device
  4

  6

 40
0.0
 41
0.0
 42
0.0
 43
0.0
 44
0.0
 45
0.0
 46
0.0
 47
0.0
 48
0.0
 49
0.0
140
0.0
141
0.0
142
1.0
143
1.0
 70
  1712
 72
     0
 73
     0
 74
     0
  7

 75
     0
147
1.0
148
0.0
149
0.0
100
AcDbLayout
  1
Model
 70
     1
 71
     0
 10
0.0
 20
0.0
 11
12.0
 21
9.0
 12
0.0
 22
0.0
 32
0.0
 14
1.000000000000000E+20
 24
1.000000000000000E+20
 34
1.000000000000000E+20
 15
-1.000000000000000E+20
 25
-1.000000000000000E+20
 35
-1.000000000000000E+20
146
0.0
 13
0.0
 23
0.0
 33
0.0
 16
1.0
 26
0.0
 36
0.0
 17
0.0
 27
1.0
 37
0.0
 76
     0
330
1F
331
29
  0
MATERIAL
  5
620
102
{ACAD_XDICTIONARY
360
2091
102
}
102
{ACAD_REACTORS
330
61E
102
}
330
61E
100
AcDbMaterial
  1
ByBlock
  0
MATERIAL
  5
61F
102
{ACAD_XDICTIONARY
360
208F
102
}
102
{ACAD_REACTORS
330
61E
102
}
330
61E
100
AcDbMaterial
  1
ByLayer
  0
MATERIAL
  5
621
102
{ACAD_XDICTIONARY
360
2093
102
}
102
{ACAD_REACTORS
330
61E
102
}
330
61E
100
AcDbMaterial
  1
Global
  0
MLINESTYLE
  5
18
102
{ACAD_REACTORS
330
17
102
}
330
17
100
AcDbMlineStyle
  2
STANDARD
 70
     0
  3

 62
   256
 51
90.0
 52
90.0
 71
     2
 49
0.5
 62
   256
  6
BYLAYER
 49
-0.5
 62
   256
  6
BYLAYER
  0
ACDBPLACEHOLDER
  5
F
102
{ACAD_REACTORS
330
E
102
}
330
E
  0
TABLESTYLE
  5
623
102
{ACAD_XDICTIONARY
360
2559
102
}
102
{ACAD_REACTORS
330
61C
102
}
330
61C
100
AcDbTableStyle
  3
Standard
 70
     0
 71
     0
 40
0.06
 41
0.06
280
     0
281
     0
  7
Standard
140
0.18
170
     2
 62
     0
 63
     7
283
     0
274
    -2
284
     1
 64
     0
275
    -2
285
     1
 65
     0
276
    -2
286
     1
 66
     0
277
    -2
287
     1
 67
     0
278
    -2
288
     1
 68
     0
279
    -2
289
     1
 69
     0
  7
Standard
140
0.25
170
     5
 62
     0
 63
     7
283
     0
274
    -2
284
     1
 64
     0
275
    -2
285
     1
 65
     0
276
    -2
286
     1
 66
     0
277
    -2
287
     1
 67
     0
278
    -2
288
     1
 68
     0
279
    -2
289
     1
 69
     0
  7
Standard
140
0.18
170
     5
 62
     0
 63
     7
283
     0
274
    -2
284
     1
 64
     0
275
    -2
285
     1
 65
     0
276
    -2
286
     1
 66
     0
277
    -2
287
     1
 67
     0
278
    -2
288
     1
 68
     0
279
    -2
289
     1
 69
     0
  0
VISUALSTYLE
  5
2F
102
{ACAD_REACTORS
330
2A
102
}
330
2A
100
AcDbVisualStyle
  2
2dWireframe
 70
     4
 71
     0
 72
     2
 73
     0
 90
        0
 40
-0.6
 41
-30.0
 62
     5
 63
     7
 74
     1
 91
        4
 64
     7
 65
   257
 75
     1
175
     1
 42
1.0
 92
        0
 66
   257
 43
1.0
 76
     1
 77
     6
 78
     2
 67
     7
 79
     5
170
     0
171
     0
290
     0
174
     0
 93
        1
 44
0.0
173
     0
291
     0
 45
0.0
1001
ACAD
1000
AcDbSavedByObjectVersion
1070
     0
  0
VISUALSTYLE
  5
31
102
{ACAD_REACTORS
330
2A
102
}
330
2A
100
AcDbVisualStyle
  2
3D Hidden
 70
     6
 71
     1
 72
     2
 73
     2
 90
        0
 40
-0.6
 41
-30.0
 62
     5
 63
     7
 74
     2
 91
        2
 64
     7
 65
   257
 75
     2
175
     1
 42
40.0
 92
        0
 66
   257
 43
1.0
 76
     1
 77
     6
 78
     2
 67
     7
 79
     3
170
     0
171
     0
290
     0
174
     0
 93
        1
 44
0.0
173
     0
291
     0
 45
0.0
1001
ACAD
1000
AcDbSavedByObjectVersion
1070
     0
  0
VISUALSTYLE
  5
30
102
{ACAD_REACTORS
330
2A
102
}
330
2A
100
AcDbVisualStyle
  2
3dWireframe
 70
     5
 71
     0
 72
     2
 73
     0
 90
        0
 40
-0.6
 41
-30.0
 62
     5
 63
     7
 74
     1
 91
        4
 64
     7
 65
   257
 75
     1
175
     1
 42
1.0
 92
        0
 66
   257
 43
1.0
 76
     1
 77
     6
 78
     2
 67
     7
 79
     5
170
     0
171
     0
290
     0
174
     0
 93
        1
 44
0.0
173
     0
291
     0
 45
0.0
1001
ACAD
1000
AcDbSavedByObjectVersion
1070
     0
  0
VISUALSTYLE
  5
32
102
{ACAD_REACTORS
330
2A
102
}
330
2A
100
AcDbVisualStyle
  2
Basic
 70
     7
 71
     1
 72
     0
 73
     1
 90
        0
 40
-0.6
 41
-30.0
 62
     5
 63
     7
 74
     0
 91
        4
 64
     7
 65
   257
 75
     1
175
     1
 42
1.0
 92
        8
 66
     7
 43
1.0
 76
     1
 77
     6
 78
     2
 67
     7
 79
     5
170
     0
171
     0
290
     0
174
     0
 93
        1
 44
0.0
173
     0
291
     1
 45
0.0
1001
ACAD
1000
AcDbSavedByObjectVersion
1070
     0
  0
VISUALSTYLE
  5
36
102
{ACAD_REACTORS
330
2A
102
}
330
2A
100
AcDbVisualStyle
  2
Brighten
 70
    12
 71
     2
 72
     2
 73
     0
 90
        0
 40
-0.6
 41
-30.0
 62
     5
 63
     7
 74
     1
 91
        4
 64
     7
 65
   257
 75
     1
175
     1
 42
1.0
 92
        8
 66
     7
 43
1.0
 76
     1
 77
     6
 78
     2
 67
     7
 79
     5
170
     0
171
     0
290
     0
174
     0
 93
        1
 44
50.0
173
     0
291
     1
 45
0.0
1001
ACAD
1000
AcDbSavedByObjectVersion
1070
     0
  0
VISUALSTYLE
  5
3A
102
{ACAD_REACTORS
330
2A
102
}
330
2A
100
AcDbVisualStyle
  2
ColorChange
 70
    16
 71
     2
 72
     2
 73
     3
 90
        0
 40
-0.6
 41
-30.0
 62
     5
 63
     8
 74
     1
 91
        4
 64
     7
 65
   257
 75
     1
175
     1
 42
1.0
 92
        8
 66
     8
 43
1.0
 76
     1
 77
     6
 78
     2
 67
     7
 79
     5
170
     0
171
     0
290
     0
174
     0
 93
        1
 44
0.0
173
     0
291
     1
 45
0.0
1001
ACAD
1000
AcDbSavedByObjectVersion
1070
     0
  0
VISUALSTYLE
  5
34
102
{ACAD_REACTORS
330
2A
102
}
330
2A
100
AcDbVisualStyle
  2
Conceptual
 70
     9
 71
     3
 72
     2
 73
     0
 90
        0
 40
-0.6
 41
-30.0
 62
     5
 63
     7
 74
     2
 91
        2
 64
     7
 65
   257
 75
     1
175
     1
 42
40.0
 92
        8
 66
     7
 43
1.0
 76
     1
 77
     6
 78
     2
 67
     7
 79
     3
170
     0
171
     0
290
     0
174
     0
 93
        1
 44
0.0
173
     0
291
     0
 45
0.0
1001
ACAD
1000
AcDbSavedByObjectVersion
1070
     0
  0
VISUALSTYLE
  5
35
102
{ACAD_REACTORS
330
2A
102
}
330
2A
100
AcDbVisualStyle
  2
Dim
 70
    11
 71
     2
 72
     2
 73
     0
 90
        0
 40
-0.6
 41
-30.0
 62
     5
 63
     7
 74
     1
 91
        4
 64
     7
 65
   257
 75
     1
175
     1
 42
1.0
 92
        8
 66
     7
 43
1.0
 76
     1
 77
     6
 78
     2
 67
     7
 79
     5
170
     0
171
     0
290
     0
174
     0
 93
        1
 44
-50.0
173
     0
291
     1
 45
0.0
1001
ACAD
1000
AcDbSavedByObjectVersion
1070
     0
  0
VISUALSTYLE
  5
39
102
{ACAD_REACTORS
330
2A
102
}
330
2A
100
AcDbVisualStyle
  2
Facepattern
 70
    15
 71
     2
 72
     2
 73
     0
 90
        0
 40
-0.6
 41
-30.0
 62
     5
 63
     7
 74
     1
 91
        4
 64
     7
 65
   257
 75
     1
175
     1
 42
1.0
 92
        8
 66
     7
 43
1.0
 76
     1
 77
     6
 78
     2
 67
     7
 79
     5
170
     0
171
     0
290
     0
174
     0
 93
        1
 44
0.0
173
     0
291
     1
 45
0.0
1001
ACAD
1000
AcDbSavedByObjectVersion
1070
     0
  0
VISUALSTYLE
  5
2B
102
{ACAD_REACTORS
330
2A
102
}
330
2A
100
AcDbVisualStyle
  2
Flat
 70
     0
 71
     2
 72
     1
 73
     1
 90
        2
 40
-0.6
 41
30.0
 62
     5
 63
     7
 74
     0
 91
        4
 64
     7
 65
   257
 75
     1
175
     1
 42
1.0
 92
        8
 66
     7
 43
1.0
 76
     1
 77
     6
 78
     2
 67
     7
 79
     5
170
     0
171
     0
290
     0
174
     0
 93
       13
 44
0.0
173
     0
291
     1
 45
0.0
1001
ACAD
1000
AcDbSavedByObjectVersion
1070
     0
  0
VISUALSTYLE
  5
2C
102
{ACAD_REACTORS
330
2A
102
}
330
2A
100
AcDbVisualStyle
  2
FlatWithEdges
 70
     1
 71
     2
 72
     1
 73
     1
 90
        2
 40
-0.6
 41
30.0
 62
     5
 63
     7
 74
     1
 91
        4
 64
     7
 65
   257
 75
     1
175
     1
 42
1.0
 92
        0
 66
   257
 43
1.0
 76
     1
 77
     6
 78
     2
 67
     7
 79
     5
170
     0
171
     0
290
     0
174
     0
 93
       13
 44
0.0
173
     0
291
     1
 45
0.0
1001
ACAD
1000
AcDbSavedByObjectVersion
1070
     0
  0
VISUALSTYLE
  5
2D
102
{ACAD_REACTORS
330
2A
102
}
330
2A
100
AcDbVisualStyle
  2
Gouraud
 70
     2
 71
     2
 72
     2
 73
     1
 90
        2
 40
-0.6
 41
30.0
 62
     5
 63
     7
 74
     0
 91
        4
 64
     7
 65
   257
 75
     1
175
     1
 42
1.0
 92
        0
 66
     7
 43
1.0
 76
     1
 77
     6
 78
     2
 67
     7
 79
     5
170
     0
171
     0
290
     0
174
     0
 93
       13
 44
0.0
173
     0
291
     1
 45
0.0
1001
ACAD
1000
AcDbSavedByObjectVersion
1070
     0
  0
VISUALSTYLE
  5
2E
102
{ACAD_REACTORS
330
2A
102
}
330
2A
100
AcDbVisualStyle
  2
GouraudWithEdges
 70
     3
 71
     2
 72
     2
 73
     1
 90
        2
 40
-0.6
 41
30.0
 62
     5
 63
     7
 74
     1
 91
        4
 64
     7
 65
   257
 75
     1
175
     1
 42
1.0
 92
        0
 66
   257
 43
1.0
 76
     1
 77
     6
 78
     2
 67
     7
 79
     5
170
     0
171
     0
290
     0
174
     0
 93
       13
 44
0.0
173
     0
291
     1
 45
0.0
1001
ACAD
1000
AcDbSavedByObjectVersion
1070
     0
  0
VISUALSTYLE
  5
38
102
{ACAD_REACTORS
330
2A
102
}
330
2A
100
AcDbVisualStyle
  2
Linepattern
 70
    14
 71
     2
 72
     2
 73
     0
 90
        0
 40
-0.6
 41
-30.0
 62
     5
 63
     7
 74
     1
 91
        4
 64
     7
 65
   257
 75
     7
175
     7
 42
1.0
 92
        8
 66
     7
 43
1.0
 76
     1
 77
     6
 78
     2
 67
     7
 79
     5
170
     0
171
     0
290
     0
174
     0
 93
        1
 44
0.0
173
     0
291
     1
 45
0.0
1001
ACAD
1000
AcDbSavedByObjectVersion
1070
     0
  0
VISUALSTYLE
  5
33
102
{ACAD_REACTORS
330
2A
102
}
330
2A
100
AcDbVisualStyle
  2
Realistic
 70
     8
 71
     2
 72
     2
 73
     0
 90
        0
 40
-0.6
 41
-30.0
 62
     5
 63
     7
 74
     1
 91
        0
 64
     7
 65
   257
 75
     1
175
     1
 42
1.0
 92
        8
 66
     8
 43
1.0
 76
     1
 77
     6
 78
     2
 67
     7
 79
     5
170
     0
171
     0
290
     0
174
     0
 93
       13
 44
0.0
173
     0
291
     0
 45
0.0
1001
ACAD
1000
AcDbSavedByObjectVersion
1070
     0
  0
VISUALSTYLE
  5
37
102
{ACAD_REACTORS
330
2A
102
}
330
2A
100
AcDbVisualStyle
  2
Thicken
 70
    13
 71
     2
 72
     2
 73
     0
 90
        0
 40
-0.6
 41
-30.0
 62
     5
 63
     7
 74
     1
 91
        4
 64
     7
 65
   257
 75
     1
175
     1
 42
1.0
 92
       12
 66
     7
 43
1.0
 76
     1
 77
     6
 78
     2
 67
     7
 79
     5
170
     0
171
     0
290
     0
174
     0
 93
        1
 44
0.0
173
     0
291
     1
 45
0.0
1001
ACAD
1000
AcDbSavedByObjectVersion
1070
     0
  0
DICTIONARYVAR
  5
736
102
{ACAD_REACTORS
330
735
102
}
330
735
100
DictionaryVariables
280
     0
  1
STANDARD
  0
DICTIONARYVAR
  5
254E
102
{ACAD_REACTORS
330
735
102
}
330
735
100
DictionaryVariables
280
     0
  1
1
  0
DICTIONARYVAR
  5
254D
102
{ACAD_REACTORS
330
735
102
}
330
735
100
DictionaryVariables
280
     0
  1
1
  0
DICTIONARYVAR
  5
254C
102
{ACAD_REACTORS
330
735
102
}
330
735
100
DictionaryVariables
280
     0
  1
127
  0
DICTIONARY
  5
6FB
102
{ACAD_REACTORS
330
6EB
102
}
330
6EB
100
AcDbDictionary
281
     1
  0
XRECORD
  5
71B
102
{ACAD_REACTORS
330
6EB
102
}
330
6EB
100
AcDbXrecord
280
     1
 90
-1023410169
  0
DICTIONARY
  5
629
102
{ACAD_REACTORS
330
628
102
}
330
628
100
AcDbDictionary
281
     1
  3
DWGSETTINGS
350
22E8
  3
TRANSSETTINGS
350
22E9
  0
ACAMGFILTERDAT
  5
73C
102
{ACAD_REACTORS
330
737
102
}
330
737
100
AcAmgFilterDat
 70
    15
  1
DIMENSION,AMDT_*_DIM
  2
*
  3
*
  4
*
  5
*
290
     1
  0
ACAMGFILTERDAT
  5
73B
102
{ACAD_REACTORS
330
737
102
}
330
737
100
AcAmgFilterDat
 70
    15
  1
*
  2
AM_FEA-AM_*
  3
*
  4
*
  5
*
290
     1
  0
ACAMGFILTERDAT
  5
738
102
{ACAD_REACTORS
330
737
102
}
330
737
100
AcAmgFilterDat
 70
    15
  1
HATCH
  2
*
  3
*
  4
*
  5
*
290
     1
  0
ACAMGFILTERDAT
  5
739
102
{ACAD_REACTORS
330
737
102
}
330
737
100
AcAmgFilterDat
 70
    15
  1
LINE
  2
8,8N,*-8,*-8N,AM_8,AM_8N,*-AM_8,*-AM_8N
  3
*
  4
*
  5
INSERT,STDPART2D
290
     1
  0
ACAMGFILTERDAT
  5
73D
102
{ACAD_REACTORS
330
737
102
}
330
737
100
AcAmgFilterDat
 70
    15
  1
ARC
  2
AM_5
  3
*
  4
2
  5
INSERT
290
     0
  0
ACAMGFILTERDAT
  5
73A
102
{ACAD_REACTORS
330
737
102
}
330
737
100
AcAmgFilterDat
 70
    15
  1
ACMFCFRAME,ACMDATUMTARGET,ACMDATUMID,ACMWELDSYM,ACMSURFSYM,ACMFEATID,ACMPARTREF,ACMBALLOON,AMDTEDGESYM,AMGSCREWCALCTABLE
  2
*
  3
*
  4
*
  5
*
290
     1
  0
XRECORD
  5
1B4F
102
{ACAD_REACTORS
330
1B4D
102
}
330
1B4D
100
AcDbXrecord
280
     1
330
0
  0
LAYER_INDEX
  5
732
102
{ACAD_REACTORS
330
731
102
}
330
731
100
AcDbIndex
 40
2454784.454200208
100
AcDbLayerIndex
  8
0
360
733
 90
       31
  8
Part
360
734
 90
      277
  8
Label
360
7D0
 90
        7
  8
Defpoints
360
7D1
 90
        0
  8
Dimensions
360
BA6
 90
        1
  8
Notes
360
CFA
 90
       14
  8
Schematics
360
120A
 90
      243
  8
clips
360
252C
 90
       11
  8
IPT
360
252D
 90
        3
  0
DICTIONARY
  5
2553
330
1E
100
AcDbDictionary
280
     1
281
     1
  3
ACAD_XREC_ROUNDTRIP
360
2554
  0
DICTIONARY
  5
2557
330
26
100
AcDbDictionary
280
     1
281
     1
  3
ACAD_XREC_ROUNDTRIP
360
2558
  0
DICTIONARY
  5
2555
330
22
100
AcDbDictionary
280
     1
281
     1
  3
ACAD_XREC_ROUNDTRIP
360
2556
  0
DICTIONARY
  5
2091
330
620
100
AcDbDictionary
280
     1
281
     1
  3
ACAD_XREC_ROUNDTRIP
360
2092
  0
DICTIONARY
  5
208F
330
61F
100
AcDbDictionary
280
     1
281
     1
  3
ACAD_XREC_ROUNDTRIP
360
2090
  0
DICTIONARY
  5
2093
330
621
100
AcDbDictionary
280
     1
281
     1
  3
ACAD_XREC_ROUNDTRIP
360
2094
  0
DICTIONARY
  5
2559
330
623
100
AcDbDictionary
280
     1
281
     1
  3
ACAD_XREC_ROUNDTRIP
360
255A
  0
IDBUFFER
  5
733
330
0
100
AcDbIdBuffer
330
204D
330
204E
330
204F
330
2050
330
2051
330
2052
330
2053
330
2054
330
2055
330
2056
330
2057
330
2058
330
2059
330
205A
330
205B
330
205C
330
205D
330
205E
330
205F
330
2060
330
2061
330
2062
330
2063
330
2064
330
2065
330
2066
330
2067
330
2068
330
2069
330
206A
330
252B
  0
IDBUFFER
  5
734
330
0
100
AcDbIdBuffer
330
745
330
746
330
747
330
748
330
74D
330
74E
330
74F
330
750
330
751
330
7B7
330
7B8
330
7B9
330
7BA
330
7C8
330
7C9
330
7CA
330
7CB
330
7D6
330
7DA
330
7DB
330
7DC
330
7DD
330
7DE
330
A28
330
CCC
330
CCD
330
CCE
330
CCF
330
CF3
330
CF4
330
CF5
330
CF6
330
CF9
330
CFB
330
CFC
330
CFD
330
CFE
330
CFF
330
D00
330
D01
330
D02
330
D1B
330
D35
330
D37
330
D39
330
D3A
330
D3B
330
D3C
330
D3E
330
D3F
330
D40
330
D41
330
D42
330
D43
330
D44
330
D45
330
D46
330
D47
330
D48
330
D49
330
D7A
330
D83
330
D84
330
D85
330
D86
330
D87
330
D88
330
D89
330
D8A
330
D8B
330
D8C
330
DB0
330
DB1
330
DB2
330
DB3
330
DB4
330
DB5
330
DE4
330
DE5
330
DE6
330
DE7
330
DE8
330
DE9
330
DEA
330
DEB
330
DEC
330
DED
330
DFC
330
DFD
330
DFE
330
DFF
330
E00
330
E01
330
E02
330
E03
330
E04
330
E05
330
1B50
330
1B51
330
1B52
330
1B58
330
1B59
330
1B5D
330
1B5E
330
1B5F
330
1B60
330
1B61
330
1B62
330
1B63
330
1B64
330
1B69
330
1B6A
330
1B6B
330
1B6C
330
1B6D
330
1B6E
330
1B6F
330
1B70
330
1B71
330
1B72
330
1B73
330
1B74
330
1B75
330
1B76
330
1B77
330
1B78
330
1C50
330
1C51
330
1CE3
330
1CE4
330
1CE5
330
1CE6
330
1D01
330
1D02
330
1D03
330
1D06
330
1D07
330
1D0A
330
1D0B
330
1D34
330
1D35
330
1D36
330
1DE0
330
1DE1
330
1DF2
330
1FE1
330
1FE2
330
1FE3
330
1FE4
330
2483
330
2484
330
2485
330
2486
330
2487
330
2489
330
248A
330
248B
330
248C
330
248D
330
248E
330
248F
330
2490
330
2491
330
2492
330
2493
330
2494
330
2495
330
2496
330
2497
330
2498
330
2499
330
249A
330
249B
330
249C
330
249D
330
249E
330
249F
330
24A0
330
24A1
330
24A2
330
24A3
330
24A4
330
24A5
330
24A6
330
24A7
330
24A8
330
24A9
330
24AA
330
24AB
330
24AC
330
24AD
330
24AE
330
24AF
330
24B0
330
24B1
330
24B2
330
24B3
330
24B4
330
24B5
330
24B6
330
24B7
330
24B8
330
24B9
330
24BA
330
24BB
330
24BC
330
24BD
330
24BE
330
24BF
330
24C0
330
24C1
330
24C2
330
24C3
330
24C4
330
24C5
330
24C6
330
24C7
330
24C8
330
24C9
330
24CA
330
24CB
330
24CC
330
24CD
330
24CE
330
24CF
330
24D0
330
24D1
330
24D2
330
24D3
330
24D4
330
24D5
330
24D6
330
24D7
330
24D8
330
24D9
330
24DA
330
24DB
330
24DC
330
24DD
330
24DE
330
24DF
330
24E0
330
24E1
330
24E2
330
24E3
330
24E4
330
24E5
330
24E6
330
24E7
330
24E8
330
24E9
330
24EA
330
24EB
330
24EC
330
24ED
330
24EE
330
24EF
330
24F0
330
24F1
330
24F2
330
24F3
330
24F4
330
24F5
330
24F6
330
24F7
330
24F8
330
24F9
330
24FA
330
24FB
330
24FC
330
24FD
330
24FE
330
24FF
330
2500
330
2501
330
2502
330
2503
  0
IDBUFFER
  5
7D0
330
0
100
AcDbIdBuffer
330
757
330
7CC
330
7CD
330
7D5
330
7DF
330
7E0
330
1B56
  0
IDBUFFER
  5
7D1
330
0
100
AcDbIdBuffer
  0
IDBUFFER
  5
BA6
330
0
100
AcDbIdBuffer
330
FC4
  0
IDBUFFER
  5
CFA
330
0
100
AcDbIdBuffer
330
13F7
330
13F8
330
13F9
330
13FA
330
13FB
330
2488
330
2504
330
2513
330
2514
330
2515
330
2516
330
2517
330
2518
330
2519
  0
IDBUFFER
  5
120A
330
0
100
AcDbIdBuffer
330
1156
330
1173
330
11A3
330
11BF
330
11C0
330
11C1
330
11DE
330
11DF
330
11E0
330
11E1
330
11E2
330
11E3
330
11E4
330
11E5
330
11E6
330
11E7
330
11E8
330
11E9
330
120B
330
120D
330
120E
330
120F
330
1211
330
1212
330
1213
330
1214
330
121A
330
121B
330
121C
330
121E
330
121F
330
1220
330
1221
330
1222
330
1223
330
1224
330
1225
330
1226
330
1228
330
1229
330
122A
330
122B
330
122C
330
122D
330
122E
330
122F
330
1230
330
1231
330
1232
330
1233
330
1234
330
1235
330
1236
330
1237
330
1238
330
1246
330
1247
330
1248
330
1249
330
124A
330
124B
330
124C
330
124D
330
124E
330
124F
330
1252
330
1253
330
1254
330
1255
330
1256
330
1257
330
1258
330
1259
330
125A
330
125B
330
125C
330
125D
330
125E
330
125F
330
1260
330
1261
330
1262
330
126B
330
126C
330
126D
330
1270
330
1271
330
1272
330
1273
330
1274
330
1275
330
1276
330
1277
330
1278
330
1279
330
127B
330
127C
330
127D
330
127E
330
127F
330
1280
330
1281
330
1282
330
1283
330
1284
330
1285
330
1286
330
1287
330
1288
330
1289
330
128A
330
128B
330
1294
330
1295
330
1296
330
1299
330
129A
330
129B
330
129C
330
129D
330
129E
330
129F
330
12A0
330
12A1
330
12A2
330
1322
330
1323
330
1324
330
1325
330
1326
330
1327
330
1328
330
1329
330
132A
330
132B
330
132C
330
132D
330
132E
330
132F
330
1330
330
1331
330
1332
330
1340
330
1341
330
1342
330
1343
330
1344
330
1345
330
1346
330
1347
330
1348
330
1349
330
134B
330
134C
330
134D
330
134E
330
134F
330
1350
330
1351
330
1352
330
1353
330
1354
330
1355
330
1356
330
1357
330
1358
330
1359
330
135A
330
135B
330
1364
330
1365
330
1366
330
1369
330
136A
330
136B
330
136C
330
136D
330
136E
330
136F
330
1370
330
1371
330
1372
330
19AD
330
1AF5
330
1AF6
330
1AF7
330
1AFB
330
1AFC
330
1F34
330
1F35
330
1F36
330
1F37
330
1F38
330
1F39
330
1F3A
330
1F3B
330
1F3C
330
1F3D
330
1F3E
330
1F3F
330
1F40
330
1F41
330
1F42
330
1F43
330
1F44
330
1F45
330
1F46
330
1F47
330
1F48
330
1F49
330
1F4A
330
1F4B
330
1F4C
330
1F4D
330
1F4E
330
1F4F
330
1F50
330
1F51
330
1F52
330
1F53
330
1F54
330
1F6B
330
1F6C
330
1F6D
330
1F6E
330
1F6F
330
1F70
330
1F71
330
1F72
330
1F73
330
1F74
330
1F75
330
1F76
330
1F77
330
1F78
330
1F79
330
1F7A
330
1F7B
330
1F7C
330
1F7D
330
1F7E
330
1F7F
330
1F80
  0
IDBUFFER
  5
252C
330
0
100
AcDbIdBuffer
330
2505
330
2506
330
2507
330
2508
330
2509
330
250A
330
250B
330
250C
330
250D
330
250E
330
2512
  0
IDBUFFER
  5
252D
330
0
100
AcDbIdBuffer
330
250F
330
2510
330
2511
  0
XRECORD
  5
2554
102
{ACAD_REACTORS
330
2553
102
}
330
2553
100
AcDbXrecord
280
     1
102
SHADEPLOT
 70
     0
102
SHADEPLOTRESLEVEL
 70
     2
102
SHADEPLOTCUSTOMDPI
 70
   300
  0
XRECORD
  5
2558
102
{ACAD_REACTORS
330
2557
102
}
330
2557
100
AcDbXrecord
280
     1
102
SHADEPLOT
 70
     0
102
SHADEPLOTRESLEVEL
 70
     2
102
SHADEPLOTCUSTOMDPI
 70
   300
  0
XRECORD
  5
2556
102
{ACAD_REACTORS
330
2555
102
}
330
2555
100
AcDbXrecord
280
     1
102
SHADEPLOT
 70
     0
102
SHADEPLOTRESLEVEL
 70
     2
102
SHADEPLOTCUSTOMDPI
 70
   300
  0
XRECORD
  5
2092
102
{ACAD_REACTORS
330
2091
102
}
330
2091
100
AcDbXrecord
280
     1
102
MATERIAL
148
0.0
149
0.0
149
0.0
 93
        0
 94
       63
282
     0
 72
     1
 77
     1
171
     1
175
     1
179
     1
273
     0
  0
XRECORD
  5
2090
102
{ACAD_REACTORS
330
208F
102
}
330
208F
100
AcDbXrecord
280
     1
102
MATERIAL
148
0.0
149
0.0
149
0.0
 93
        0
 94
       63
282
     0
 72
     1
 77
     1
171
     1
175
     1
179
     1
273
     0
  0
XRECORD
  5
2094
102
{ACAD_REACTORS
330
2093
102
}
330
2093
100
AcDbXrecord
280
     1
102
MATERIAL
148
0.0
149
0.0
149
0.0
 93
        0
 94
       63
282
     0
 72
     1
 77
     1
171
     1
175
     1
179
     1
273
     0
  0
XRECORD
  5
255A
102
{ACAD_REACTORS
330
2559
102
}
330
2559
100
AcDbXrecord
280
     1
102
ACAD_ROUNDTRIP_PRE2007_TABLESTYLE
 90
      512
 91
        0
  1

 92
      512
 93
        0
  2

 94
      512
 95
        0
  3

  0
ENDSEC
  0
EOF
