  0
SECTION
  2
HEADER
  9
$ACADVER
  1
AC1015
  9
$ACADMAINTVER
 70
    20
  9
$DWGCODEPAGE
  3
ANSI_1252
  9
$INSBASE
 10
0.0
 20
0.0
 30
0.0
  9
$EXTMIN
 10
54.4033786840197
 20
26.73428712862258
 30
0.0
  9
$EXTMAX
 10
72.32552359602756
 20
44.07684665193406
 30
0.0
  9
$LIMMIN
 10
0.0
 20
0.0
  9
$LIMMAX
 10
17.0
 20
11.0
  9
$ORTHOMODE
 70
     0
  9
$REGENMODE
 70
     1
  9
$FILLMODE
 70
     1
  9
$QTEXTMODE
 70
     0
  9
$MIRRTEXT
 70
     1
  9
$LTSCALE
 40
1.0
  9
$ATTMODE
 70
     1
  9
$TEXTSIZE
 40
3.5
  9
$TRACEWID
 40
0.05
  9
$TEXTSTYLE
  7
ACANSGDT
  9
$CLAYER
  8
Notes
  9
$CELTYPE
  6
BYLAYER
  9
$CECOLOR
 62
   256
  9
$CELTSCALE
 40
1.0
  9
$DISPSILH
 70
     0
  9
$DIMSCALE
 40
1.0
  9
$DIMASZ
 40
0.1
  9
$DIMEXO
 40
0.05
  9
$DIMDLI
 40
0.5
  9
$DIMRND
 40
0.0
  9
$DIMDLE
 40
0.0
  9
$DIMEXE
 40
0.1
  9
$DIMTP
 40
0.1
  9
$DIMTM
 40
0.1
  9
$DIMTXT
 40
0.12
  9
$DIMCEN
 40
0.0
  9
$DIMTSZ
 40
0.0
  9
$DIMTOL
 70
     0
  9
$DIMLIM
 70
     0
  9
$DIMTIH
 70
     1
  9
$DIMTOH
 70
     1
  9
$DIMSE1
 70
     0
  9
$DIMSE2
 70
     0
  9
$DIMTAD
 70
     0
  9
$DIMZIN
 70
     7
  9
$DIMBLK
  1

  9
$DIMASO
 70
     1
  9
$DIMSHO
 70
     1
  9
$DIMPOST
  1

  9
$DIMAPOST
  1
mm
  9
$DIMALT
 70
     0
  9
$DIMALTD
 70
     2
  9
$DIMALTF
 40
25.4
  9
$DIMLFAC
 40
1.0
  9
$DIMTOFL
 70
     0
  9
$DIMTVP
 40
0.0
  9
$DIMTIX
 70
     0
  9
$DIMSOXD
 70
     0
  9
$DIMSAH
 70
     0
  9
$DIMBLK1
  1

  9
$DIMBLK2
  1

  9
$DIMSTYLE
  2
AM_ANSI
  9
$DIMCLRD
 70
   256
  9
$DIMCLRE
 70
   256
  9
$DIMCLRT
 70
   256
  9
$DIMTFAC
 40
0.71
  9
$DIMGAP
 40
0.06
  9
$DIMJUST
 70
     0
  9
$DIMSD1
 70
     0
  9
$DIMSD2
 70
     0
  9
$DIMTOLJ
 70
     1
  9
$DIMTZIN
 70
     7
  9
$DIMALTZ
 70
     0
  9
$DIMALTTZ
 70
     0
  9
$DIMUPT
 70
     0
  9
$DIMDEC
 70
     2
  9
$DIMTDEC
 70
     2
  9
$DIMALTU
 70
     2
  9
$DIMALTTD
 70
     2
  9
$DIMTXSTY
  7
STANDARD
  9
$DIMAUNIT
 70
     0
  9
$DIMADEC
 70
     0
  9
$DIMALTRND
 40
0.0
  9
$DIMAZIN
 70
     2
  9
$DIMDSEP
 70
    46
  9
$DIMATFIT
 70
     3
  9
$DIMFRAC
 70
     0
  9
$DIMLDRBLK
  1

  9
$DIMLUNIT
 70
     2
  9
$DIMLWD
 70
    -1
  9
$DIMLWE
 70
    -1
  9
$DIMTMOVE
 70
     0
  9
$LUNITS
 70
     2
  9
$LUPREC
 70
     4
  9
$SKETCHINC
 40
0.1
  9
$FILLETRAD
 40
0.125
  9
$AUNITS
 70
     0
  9
$AUPREC
 70
     0
  9
$MENU
  1
.
  9
$ELEVATION
 40
0.0
  9
$PELEVATION
 40
0.0
  9
$THICKNESS
 40
0.0
  9
$LIMCHECK
 70
     0
  9
$CHAMFERA
 40
0.125
  9
$CHAMFERB
 40
0.125
  9
$CHAMFERC
 40
1.0
  9
$CHAMFERD
 40
0.0
  9
$SKPOLY
 70
     1
  9
$TDCREATE
 40
2454649.530650371
  9
$TDUCREATE
 40
2454649.863983704
  9
$TDUPDATE
 40
2454784.453935487
  9
$TDUUPDATE
 40
2454784.787268819
  9
$TDINDWG
 40
0.1962299769
  9
$TDUSRTIMER
 40
0.1962298032
  9
$USRTIMER
 70
     1
  9
$ANGBASE
 50
0.0
  9
$ANGDIR
 70
     0
  9
$PDMODE
 70
     0
  9
$PDSIZE
 40
0.0
  9
$PLINEWID
 40
0.0
  9
$SPLFRAME
 70
     0
  9
$SPLINETYPE
 70
     6
  9
$SPLINESEGS
 70
     8
  9
$HANDSEED
  5
11EB
  9
$SURFTAB1
 70
     6
  9
$SURFTAB2
 70
     6
  9
$SURFTYPE
 70
     6
  9
$SURFU
 70
     6
  9
$SURFV
 70
     6
  9
$UCSBASE
  2

  9
$UCSNAME
  2

  9
$UCSORG
 10
0.0
 20
0.0
 30
0.0
  9
$UCSXDIR
 10
1.0
 20
0.0
 30
0.0
  9
$UCSYDIR
 10
0.0
 20
1.0
 30
0.0
  9
$UCSORTHOREF
  2

  9
$UCSORTHOVIEW
 70
     0
  9
$UCSORGTOP
 10
0.0
 20
0.0
 30
0.0
  9
$UCSORGBOTTOM
 10
0.0
 20
0.0
 30
0.0
  9
$UCSORGLEFT
 10
0.0
 20
0.0
 30
0.0
  9
$UCSORGRIGHT
 10
0.0
 20
0.0
 30
0.0
  9
$UCSORGFRONT
 10
0.0
 20
0.0
 30
0.0
  9
$UCSORGBACK
 10
0.0
 20
0.0
 30
0.0
  9
$PUCSBASE
  2

  9
$PUCSNAME
  2

  9
$PUCSORG
 10
0.0
 20
0.0
 30
0.0
  9
$PUCSXDIR
 10
1.0
 20
0.0
 30
0.0
  9
$PUCSYDIR
 10
0.0
 20
1.0
 30
0.0
  9
$PUCSORTHOREF
  2

  9
$PUCSORTHOVIEW
 70
     0
  9
$PUCSORGTOP
 10
0.0
 20
0.0
 30
0.0
  9
$PUCSORGBOTTOM
 10
0.0
 20
0.0
 30
0.0
  9
$PUCSORGLEFT
 10
0.0
 20
0.0
 30
0.0
  9
$PUCSORGRIGHT
 10
0.0
 20
0.0
 30
0.0
  9
$PUCSORGFRONT
 10
0.0
 20
0.0
 30
0.0
  9
$PUCSORGBACK
 10
0.0
 20
0.0
 30
0.0
  9
$USERI1
 70
     0
  9
$USERI2
 70
     0
  9
$USERI3
 70
     0
  9
$USERI4
 70
     0
  9
$USERI5
 70
     0
  9
$USERR1
 40
0.0
  9
$USERR2
 40
0.0
  9
$USERR3
 40
0.0
  9
$USERR4
 40
0.0
  9
$USERR5
 40
0.0
  9
$WORLDVIEW
 70
     1
  9
$SHADEDGE
 70
     3
  9
$SHADEDIF
 70
    70
  9
$TILEMODE
 70
     1
  9
$MAXACTVP
 70
    48
  9
$PINSBASE
 10
0.0
 20
0.0
 30
0.0
  9
$PLIMCHECK
 70
     0
  9
$PEXTMIN
 10
1.000000000000000E+20
 20
1.000000000000000E+20
 30
1.000000000000000E+20
  9
$PEXTMAX
 10
-1.000000000000000E+20
 20
-1.000000000000000E+20
 30
-1.000000000000000E+20
  9
$PLIMMIN
 10
-0.2500002402958907
 20
-0.2499999962453767
  9
$PLIMMAX
 10
10.74999951940821
 20
8.249999763458731
  9
$UNITMODE
 70
     0
  9
$VISRETAIN
 70
     1
  9
$PLINEGEN
 70
     0
  9
$PSLTSCALE
 70
     1
  9
$TREEDEPTH
 70
  3020
  9
$CMLSTYLE
  2
STANDARD
  9
$CMLJUST
 70
     0
  9
$CMLSCALE
 40
1.0
  9
$PROXYGRAPHICS
 70
     1
  9
$MEASUREMENT
 70
     0
  9
$CELWEIGHT
370
    -1
  9
$ENDCAPS
280
     0
  9
$JOINSTYLE
280
     0
  9
$LWDISPLAY
290
     0
  9
$INSUNITS
 70
     1
  9
$HYPERLINKBASE
  1

  9
$STYLESHEET
  1

  9
$XEDIT
290
     1
  9
$CEPSNTYPE
380
     0
  9
$PSTYLEMODE
290
     1
  9
$FINGERPRINTGUID
  2
{E49898EF-C9A1-4823-9733-8D183DBD06E7}
  9
$VERSIONGUID
  2
{5770BF47-0748-48F0-A463-A67B405F31C5}
  9
$EXTNAMES
290
     1
  9
$PSVPSCALE
 40
0.0
  9
$OLESTARTUP
290
     0
  0
ENDSEC
  0
SECTION
  2
CLASSES
  0
CLASS
  1
ACMESTATEMGR
  2
AcMeStateMgr
  3
AcMeServices
 90
        0
280
     0
281
     0
  0
CLASS
  1
ACMESCOPE
  2
AcMeScope
  3
AcMeServices
 90
        0
280
     0
281
     0
  0
CLASS
  1
ACMECOMMANDHISTORY
  2
AcMeCommandHistory
  3
AcMeServices
 90
        0
280
     0
281
     0
  0
CLASS
  1
ACRFINSADJUSTERMGR
  2
AcRfInsAdjusterMgr
  3
AcMeServices
 90
        0
280
     0
281
     0
  0
CLASS
  1
ACMEDRAWINGMAN
  2
AcMeDrawingMan
  3
AcMeServices
 90
        0
280
     0
281
     0
  0
CLASS
  1
AMATTR
  2
AcMeAttribute
  3
AcMeServices
 90
    32768
280
     0
281
     0
  0
CLASS
  1
ACMEBOMCOLUMN
  2
AcMeBOMColumn
  3
AcMeServices
 90
    32768
280
     0
281
     0
  0
CLASS
  1
ACMEBOMCONF
  2
AcMeBOMConf
  3
AcMeServices
 90
    32768
280
     0
281
     0
  0
CLASS
  1
ACMEBOMTABLE
  2
AcMeBOMTable
  3
AcMeServices
 90
    32768
280
     0
281
     0
  0
CLASS
  1
ACMEBOMENTRY
  2
AcMeBOMEntry
  3
AcMeServices
 90
    32768
280
     0
281
     0
  0
CLASS
  1
ACMEVIEW
  2
AcMeView
  3
AcMeServices
 90
        0
280
     0
281
     0
  0
CLASS
  1
ACGREFMASTER
  2
AcGrefMaster
  3
AcAttribServices
 90
        0
280
     0
281
     0
  0
CLASS
  1
AMIMASTER
  2
AmiMaster
  3
AmiServices
 90
        0
280
     0
281
     0
  0
CLASS
  1
ACASGREFMASTER
  2
AcAsGrefMaster
  3
AutoSurfResolverServices
 90
        0
280
     0
281
     0
  0
CLASS
  1
ADAPPL
  2
AcAdAppl
  3
DesignerServices
 90
        0
280
     0
281
     0
  0
CLASS
  1
DEPMGR
  2
AcAdDepMgr
  3
DesignerServices
 90
        0
280
     0
281
     0
  0
CLASS
  1
PARAMMGR
  2
AcAdParamMgr
  3
DesignerServices
 90
        0
280
     0
281
     0
  0
CLASS
  1
PARAMSCOPE
  2
AcAdParamScope
  3
DesignerServices
 90
        0
280
     0
281
     0
  0
CLASS
  1
ACIMSYSVARMAN
  2
AcImSysVarManager
  3
AcMeServices
 90
        0
280
     0
281
     0
  0
CLASS
  1
ACIMINTSYSVAR
  2
AcImIntSysVar
  3
AcMeServices
 90
        0
280
     0
281
     0
  0
CLASS
  1
ACIMREALSYSVAR
  2
AcImRealSysVar
  3
AcMeServices
 90
        0
280
     0
281
     0
  0
CLASS
  1
ACIMSTRSYSVAR
  2
AcImStrSysVar
  3
AcMeServices
 90
        0
280
     0
281
     0
  0
CLASS
  1
NAMEDAPPL
  2
AcAdNamedAppl
  3
DesignerServices
 90
        0
280
     0
281
     0
  0
CLASS
  1
ADHNTMPLT
  2
AdHoleNoteTemplateMgr
  3
DesignerServices
 90
    32768
280
     0
281
     0
  0
CLASS
  1
AM_HNTEMPLATE_MGR_NAME
  2
AdHoleNoteTemplateMgrName
  3
DesignerServices
 90
    32768
280
     0
281
     0
  0
CLASS
  1
ACADGREFMODULE
  2
AcAdGrefModule
  3
AdGrefServices
 90
        0
280
     0
281
     0
  0
CLASS
  1
AM_DRAWING_MGR
  2
AcDmDwgMgr
  3
AcMechDwgViewMgmt
 90
        0
280
     0
281
     0
  0
CLASS
  1
AM_DWG_DOCUMENT
  2
AcDmDwgDocument
  3
AcMechDwgViewMgmt
 90
        0
280
     0
281
     0
  0
CLASS
  1
AM_DWG_SHEET
  2
AcDmSheet
  3
AcMechDwgViewMgmt
 90
        0
280
     0
281
     0
  0
CLASS
  1
AM_VIEWDIMPARMAP
  2
AcDmViewDimParMap
  3
AcMechDwgViewMgmt
 90
        0
280
     0
281
     0
  0
CLASS
  1
AM_DWGMGR_NAME
  2
AcDmDwgMgrName
  3
AcMechDwgViewMgmt
 90
        0
280
     0
281
     0
  0
CLASS
  1
ACAMPROJECT
  2
AcAmProject
  3
DesignerAssemblies
 90
        0
280
     0
281
     0
  0
CLASS
  1
ACAMGRCOMPSET
  2
AcAmGrCompSet
  3
DesignerAssemblies
 90
    32768
280
     0
281
     0
  0
CLASS
  1
ACAMGRCOMPDEFSET
  2
AcAmGrCompDefSet
  3
DesignerAssemblies
 90
        0
280
     0
281
     0
  0
CLASS
  1
ACAMGRCOMPDEF
  2
AcAmGrCompDef
  3
DesignerAssemblies
 90
        0
280
     0
281
     0
  0
CLASS
  1
ACCMCONTEXT
  2
AcCmContext
  3
DesignerAssemblies
 90
        0
280
     0
281
     0
  0
CLASS
  1
ACAMCOMPDEF
  2
AcAmCompDef
  3
DesignerAssemblies
 90
        0
280
     0
281
     0
  0
CLASS
  1
ACAMCOMPDEFMGR
  2
AcAmCompDefMgr
  3
DesignerAssemblies
 90
        0
280
     0
281
     0
  0
CLASS
  1
AMCONTEXTMGR
  2
AcAmContextMgr
  3
DesignerAssemblies
 90
        0
280
     0
281
     0
  0
CLASS
  1
ACAMCONTEXTMODELER
  2
AcAmContextModeler
  3
DesignerAssemblies
 90
        0
280
     0
281
     0
  0
CLASS
  1
ACDMVIEWGEOM
  2
AcDmViewGeometry
  3
AcMechDwgViewMgmt
 90
    32768
280
     0
281
     1
  0
CLASS
  1
CBROWSERAPPOBJECT
  2
CBrowserAppObject
  3
McadcomServices
 90
        0
280
     0
281
     0
  0
CLASS
  1
IM_STATIC_MAN
  2
AcImStaticVarManager
  3
AcMeServices
 90
        0
280
     0
281
     0
  0
CLASS
  1
ASAPP
  2
AcAsAppObject
  3
AutoSurfServices
 90
        0
280
     0
281
     0
  0
CLASS
  1
ACIMDBLSTATICVAR
  2
AcImDblStaticVar
  3
AcMeServices
 90
        0
280
     0
281
     0
  0
CLASS
  1
ACIMSTRSTATICVAR
  2
AcImStrStaticVar
  3
AcMeServices
 90
        0
280
     0
281
     0
  0
CLASS
  1
ACIMINTSTATICVAR
  2
AcImIntStaticVar
  3
AcMeServices
 90
        0
280
     0
281
     0
  0
CLASS
  1
CATALOGSTATE
  2
AcAmCatalogState
  3
DesignerAssemblies
 90
        0
280
     0
281
     0
  0
CLASS
  1
DM_PLACEHOLDER
  2
AcDmSelsetPlaceholder
  3
AcMechDwgViewMgmt
 90
        0
280
     0
281
     0
  0
CLASS
  1
DICTIONARYVAR
  2
AcDbDictionaryVar
  3
ObjectDBX Classes
 90
        0
280
     0
281
     0
  0
CLASS
  1
ACMSTANDARDJIS
  2
AcmStandardJIS
  3
"Amdt_StdImp|Product Description: AutoCAD Mechanical|Company: Autodesk"
 90
    32768
280
     0
281
     0
  0
CLASS
  1
ACMSTANDARDANSI
  2
AcmStandardANSI
  3
"Amdt_StdImp|Product Description: AutoCAD Mechanical|Company: Autodesk"
 90
        0
280
     0
281
     0
  0
CLASS
  1
ACMSTANDARDBSI
  2
AcmStandardBSI
  3
"Amdt_StdImp|Product Description: AutoCAD Mechanical|Company: Autodesk"
 90
    32768
280
     0
281
     0
  0
CLASS
  1
ACMSTANDARDDIN
  2
AcmStandardDIN
  3
"Amdt_StdImp|Product Description: AutoCAD Mechanical|Company: Autodesk"
 90
    32768
280
     0
281
     0
  0
CLASS
  1
ACMSTANDARDISO
  2
AcmStandardISO
  3
"Amdt_StdImp|Product Description: AutoCAD Mechanical|Company: Autodesk"
 90
    32768
280
     0
281
     0
  0
CLASS
  1
LAYER_INDEX
  2
AcDbLayerIndex
  3
ObjectDBX Classes
 90
        0
280
     0
281
     0
  0
CLASS
  1
IDBUFFER
  2
AcDbIdBuffer
  3
ObjectDBX Classes
 90
        0
280
     0
281
     0
  0
CLASS
  1
ACDBDICTIONARYWDFLT
  2
AcDbDictionaryWithDefault
  3
ObjectDBX Classes
 90
        0
280
     0
281
     0
  0
CLASS
  1
ACME_DOCUMENT
  2
AcMeDbDoc
  3
AcMeServices
 90
        0
280
     0
281
     0
  0
CLASS
  1
AMGSETTINGSOBJ
  2
AmgSettingsObj
  3
"AcadM|Product Description: AutoCAD Mechanical|Company: Autodesk"
 90
        0
280
     0
281
     0
  0
CLASS
  1
AMGOBJPROPCFG
  2
AmgObjPropCfg
  3
"AmgLay|Product Description: AutoCAD Mechanical|Company: Autodesk"
 90
        1
280
     0
281
     0
  0
CLASS
  1
ACDBENTITYCACHE
  2
AcMeEntityCache
  3
AcMeServices
 90
        0
280
     0
281
     0
  0
CLASS
  1
GSMANAGER
  2
AcMeGSManager
  3
AcMeServices
 90
        0
280
     0
281
     0
  0
CLASS
  1
AMDTINTERNALREACTOR
  2
AmdtInternalReactor
  3
AcMeServices
 90
        0
280
     0
281
     0
  0
CLASS
  1
ACME_DATABASE
  2
AcMeDbDatabase
  3
AcMeServices
 90
        0
280
     0
281
     0
  0
CLASS
  1
ACGREFACADMASTER
  2
AcGrefacadMaster
  3
AcGrefServices
 90
        0
280
     0
281
     0
  0
CLASS
  1
AMDTMENUSTATEMGR
  2
AmdtMenuStateMgr
  3
McadcomServices
 90
        0
280
     0
281
     0
  0
CLASS
  1
AMDTMCOMMENUSTATE
  2
AmdtMcomMenuState
  3
McadcomServices
 90
        0
280
     0
281
     0
  0
CLASS
  1
MAPIADMODULE
  2
MApiAdModule
  3
MApiAdServices
 90
        0
280
     0
281
     0
  0
CLASS
  1
AMDTDMMENUSTATE
  2
AmdtDmMenuState
  3
AcMechDwgViewMgmt
 90
        0
280
     0
281
     0
  0
CLASS
  1
AMDTADMENUSTATE
  2
AmdtAdMenuState
  3
DesignerServices
 90
        0
280
     0
281
     0
  0
CLASS
  1
AMDTAMMENUSTATE
  2
AmdtAmMenuState
  3
DesignerAssemblies
 90
        0
280
     0
281
     0
  0
CLASS
  1
ACMDATADICTIONARY
  2
AcmDataDictionary
  3
"AcmSymBB|Product Description: AutoCAD Mechanical|Company: Autodesk"
 90
        0
280
     0
281
     0
  0
CLASS
  1
ACMDATAENTRYBLOCK
  2
AcmDataEntryBlock
  3
"AcmSymBB|Product Description: AutoCAD Mechanical|Company: Autodesk"
 90
        0
280
     0
281
     0
  0
CLASS
  1
AMDTBROWSERDBTAB
  2
AmdtBrowserDbTab
  3
McadcomServices
 90
        0
280
     0
281
     0
  0
CLASS
  1
ACAMGFILTERDAT
  2
AcAmgFilterDat
  3
"AcadM|Product Description: AutoCAD Mechanical|Company: Autodesk"
 90
        0
280
     0
281
     0
  0
CLASS
  1
MAPIAMMOUDLE
  2
MApiAmModule
  3
MApiAmServices
 90
        0
280
     0
281
     0
  0
CLASS
  1
AMDTMAPISURFMOUDULE
  2
AmdtMApiSurfModule
  3
MApiSurfServices
 90
        0
280
     0
281
     0
  0
CLASS
  1
ACMSURFSTANDARDANSI
  2
AcmSurfTextStdANSI
  3
"Amdt_StdImp|Product Description: AutoCAD Mechanical|Company: Autodesk"
 90
        0
280
     0
281
     0
  0
CLASS
  1
ACMFCFSTANDARDANSI
  2
AcmFCFStdANSI
  3
"Amdt_StdImp|Product Description: AutoCAD Mechanical|Company: Autodesk"
 90
        0
280
     0
281
     0
  0
CLASS
  1
ACMWELDSTANDARDANSI
  2
AcmWeldingStdANSI
  3
"Amdt_StdImp|Product Description: AutoCAD Mechanical|Company: Autodesk"
 90
        0
280
     0
281
     0
  0
CLASS
  1
ACMIDSTANDARDANSI
  2
AcmIdStdANSI
  3
"Amdt_StdImp|Product Description: AutoCAD Mechanical|Company: Autodesk"
 90
        0
280
     0
281
     0
  0
CLASS
  1
ACMDATUMSTANDARDANSI
  2
AcmDatumStdANSI
  3
"Amdt_StdImp|Product Description: AutoCAD Mechanical|Company: Autodesk"
 90
        0
280
     0
281
     0
  0
CLASS
  1
ACMBOMSTANDARDANSI
  2
AcmBOMStdANSI
  3
"Amdt_StdImp|Product Description: AutoCAD Mechanical|Company: Autodesk"
 90
        0
280
     0
281
     0
  0
CLASS
  1
ACAMGLAYSTD
  2
AcAmgLayStd
  3
"AmgLay|Product Description: AutoCAD Mechanical|Company: Autodesk"
 90
        0
280
     0
281
     0
  0
CLASS
  1
ACAMGDIMSTD
  2
AcAmgDimStd
  3
"AmgDim|Product Description: AutoCAD Mechanical|Company: Autodesk"
 90
        0
280
     0
281
     0
  0
CLASS
  1
ACAMGTITLESTD
  2
AcAmgTitleStd
  3
"AmgTitle|Product Description: AutoCAD Mechanical|Company: Autodesk"
 90
        0
280
     0
281
     0
  0
CLASS
  1
ACMDETAILSTANDARDANSI
  2
AmdtDetailSymStdANSI
  3
"Amdt_StdImp|Product Description: AutoCAD Mechanical|Company: Autodesk"
 90
        0
280
     0
281
     0
  0
CLASS
  1
ACMSECTIONSTANDARDANSI
  2
AmdtSectionSymStdANSI
  3
"Amdt_StdImp|Product Description: AutoCAD Mechanical|Company: Autodesk"
 90
        0
280
     0
281
     0
  0
CLASS
  1
ACMCENTERLINESTANDARDANSI
  2
AmdtCenterLineStdANSI
  3
"Amdt_StdImp|Product Description: AutoCAD Mechanical|Company: Autodesk"
 90
        0
280
     0
281
     0
  0
CLASS
  1
ACMTHREADLINESTANDARDANSI
  2
AmdtThreadLineStdANSI
  3
"Amdt_StdImp|Product Description: AutoCAD Mechanical|Company: Autodesk"
 90
        0
280
     0
281
     0
  0
CLASS
  1
ACMSURFSTANDARDBSI
  2
AcmSurfTextStdBSI
  3
"Amdt_StdImp|Product Description: AutoCAD Mechanical|Company: Autodesk"
 90
    32768
280
     0
281
     0
  0
CLASS
  1
ACMFCFSTANDARDBSI
  2
AcmFCFStdBSI
  3
"Amdt_StdImp|Product Description: AutoCAD Mechanical|Company: Autodesk"
 90
    32768
280
     0
281
     0
  0
CLASS
  1
ACMWELDSTANDARDBSI
  2
AcmWeldingStdBSI
  3
"Amdt_StdImp|Product Description: AutoCAD Mechanical|Company: Autodesk"
 90
    32768
280
     0
281
     0
  0
CLASS
  1
ACMIDSTANDARDBSI
  2
AcmIdStdBSI
  3
"Amdt_StdImp|Product Description: AutoCAD Mechanical|Company: Autodesk"
 90
    32768
280
     0
281
     0
  0
CLASS
  1
ACMDATUMSTANDARDBSI
  2
AcmDatumStdBSI
  3
"Amdt_StdImp|Product Description: AutoCAD Mechanical|Company: Autodesk"
 90
    32768
280
     0
281
     0
  0
CLASS
  1
ACMBOMSTANDARDBSI
  2
AcmBOMStdBSI
  3
"Amdt_StdImp|Product Description: AutoCAD Mechanical|Company: Autodesk"
 90
    32768
280
     0
281
     0
  0
CLASS
  1
ACMDETAILSTANDARDBSI
  2
AmdtDetailSymStdBSI
  3
"Amdt_StdImp|Product Description: AutoCAD Mechanical|Company: Autodesk"
 90
    32768
280
     0
281
     0
  0
CLASS
  1
ACMSECTIONSTANDARDBSI
  2
AmdtSectionSymStdBSI
  3
"Amdt_StdImp|Product Description: AutoCAD Mechanical|Company: Autodesk"
 90
    32768
280
     0
281
     0
  0
CLASS
  1
ACMCENTERLINESTANDARDBSI
  2
AmdtCenterLineStdBSI
  3
"Amdt_StdImp|Product Description: AutoCAD Mechanical|Company: Autodesk"
 90
    32768
280
     0
281
     0
  0
CLASS
  1
ACMTHREADLINESTANDARDBSI
  2
AmdtThreadLineStdBSI
  3
"Amdt_StdImp|Product Description: AutoCAD Mechanical|Company: Autodesk"
 90
    32768
280
     0
281
     0
  0
CLASS
  1
AMDTEDGESTANDARDDIN
  2
AmdtEdgeStdDIN
  3
"Amdt_StdImp|Product Description: AutoCAD Mechanical|Company: Autodesk"
 90
    32768
280
     0
281
     0
  0
CLASS
  1
ACMSURFSTANDARDDIN
  2
AcmSurfTextStdDIN
  3
"Amdt_StdImp|Product Description: AutoCAD Mechanical|Company: Autodesk"
 90
    32768
280
     0
281
     0
  0
CLASS
  1
ACMFCFSTANDARDDIN
  2
AcmFCFStdDIN
  3
"Amdt_StdImp|Product Description: AutoCAD Mechanical|Company: Autodesk"
 90
    32768
280
     0
281
     0
  0
CLASS
  1
ACMWELDSTANDARDDIN
  2
AcmWeldingStdDIN
  3
"Amdt_StdImp|Product Description: AutoCAD Mechanical|Company: Autodesk"
 90
    32768
280
     0
281
     0
  0
CLASS
  1
ACMIDSTANDARDDIN
  2
AcmIdStdDIN
  3
"Amdt_StdImp|Product Description: AutoCAD Mechanical|Company: Autodesk"
 90
    32768
280
     0
281
     0
  0
CLASS
  1
ACMDATUMSTANDARDDIN
  2
AcmDatumStdDIN
  3
"Amdt_StdImp|Product Description: AutoCAD Mechanical|Company: Autodesk"
 90
    32768
280
     0
281
     0
  0
CLASS
  1
ACMBOMSTANDARDDIN
  2
AcmBOMStdDIN
  3
"Amdt_StdImp|Product Description: AutoCAD Mechanical|Company: Autodesk"
 90
    32768
280
     0
281
     0
  0
CLASS
  1
ACMDETAILSTANDARDDIN
  2
AmdtDetailSymStdDIN
  3
"Amdt_StdImp|Product Description: AutoCAD Mechanical|Company: Autodesk"
 90
    32768
280
     0
281
     0
  0
CLASS
  1
ACMSECTIONSTANDARDDIN
  2
AmdtSectionSymStdDIN
  3
"Amdt_StdImp|Product Description: AutoCAD Mechanical|Company: Autodesk"
 90
    32768
280
     0
281
     0
  0
CLASS
  1
ACMCENTERLINESTANDARDDIN
  2
AmdtCenterLineStdDIN
  3
"Amdt_StdImp|Product Description: AutoCAD Mechanical|Company: Autodesk"
 90
    32768
280
     0
281
     0
  0
CLASS
  1
ACMTHREADLINESTANDARDDIN
  2
AmdtThreadLineStdDIN
  3
"Amdt_StdImp|Product Description: AutoCAD Mechanical|Company: Autodesk"
 90
    32768
280
     0
281
     0
  0
CLASS
  1
ACMSURFSTANDARDISO
  2
AcmSurfTextStdISO
  3
"Amdt_StdImp|Product Description: AutoCAD Mechanical|Company: Autodesk"
 90
    32768
280
     0
281
     0
  0
CLASS
  1
ACMFCFSTANDARDISO
  2
AcmFCFStdISO
  3
"Amdt_StdImp|Product Description: AutoCAD Mechanical|Company: Autodesk"
 90
    32768
280
     0
281
     0
  0
CLASS
  1
ACMWELDSTANDARDISO
  2
AcmWeldingStdISO
  3
"Amdt_StdImp|Product Description: AutoCAD Mechanical|Company: Autodesk"
 90
    32768
280
     0
281
     0
  0
CLASS
  1
ACMIDSTANDARDISO
  2
AcmIdStdISO
  3
"Amdt_StdImp|Product Description: AutoCAD Mechanical|Company: Autodesk"
 90
    32768
280
     0
281
     0
  0
CLASS
  1
ACMDATUMSTANDARDISO
  2
AcmDatumStdISO
  3
"Amdt_StdImp|Product Description: AutoCAD Mechanical|Company: Autodesk"
 90
    32768
280
     0
281
     0
  0
CLASS
  1
ACMBOMSTANDARDISO
  2
AcmBOMStdISO
  3
"Amdt_StdImp|Product Description: AutoCAD Mechanical|Company: Autodesk"
 90
    32768
280
     0
281
     0
  0
CLASS
  1
AMDTEDGESTANDARDISO
  2
AmdtEdgeStdISO
  3
"Amdt_StdImp|Product Description: AutoCAD Mechanical|Company: Autodesk"
 90
    32768
280
     0
281
     0
  0
CLASS
  1
ACMDETAILSTANDARDISO
  2
AmdtDetailSymStdISO
  3
"Amdt_StdImp|Product Description: AutoCAD Mechanical|Company: Autodesk"
 90
    32768
280
     0
281
     0
  0
CLASS
  1
ACMSECTIONSTANDARDISO
  2
AmdtSectionSymStdISO
  3
"Amdt_StdImp|Product Description: AutoCAD Mechanical|Company: Autodesk"
 90
    32768
280
     0
281
     0
  0
CLASS
  1
ACMCENTERLINESTANDARDISO
  2
AmdtCenterLineStdISO
  3
"Amdt_StdImp|Product Description: AutoCAD Mechanical|Company: Autodesk"
 90
    32768
280
     0
281
     0
  0
CLASS
  1
ACMTHREADLINESTANDARDISO
  2
AmdtThreadLineStdISO
  3
"Amdt_StdImp|Product Description: AutoCAD Mechanical|Company: Autodesk"
 90
    32768
280
     0
281
     0
  0
CLASS
  1
ACMSURFSTANDARDJIS
  2
AcmSurfTextStdJIS
  3
"Amdt_StdImp|Product Description: AutoCAD Mechanical|Company: Autodesk"
 90
    32768
280
     0
281
     0
  0
CLASS
  1
ACMFCFSTANDARDJIS
  2
AcmFCFStdJIS
  3
"Amdt_StdImp|Product Description: AutoCAD Mechanical|Company: Autodesk"
 90
    32768
280
     0
281
     0
  0
CLASS
  1
ACMWELDSTANDARDJIS
  2
AcmWeldingStdJIS
  3
"Amdt_StdImp|Product Description: AutoCAD Mechanical|Company: Autodesk"
 90
    32768
280
     0
281
     0
  0
CLASS
  1
ACMIDSTANDARDJIS
  2
AcmIdStdJIS
  3
"Amdt_StdImp|Product Description: AutoCAD Mechanical|Company: Autodesk"
 90
    32768
280
     0
281
     0
  0
CLASS
  1
ACMDATUMSTANDARDJIS
  2
AcmDatumStdJIS
  3
"Amdt_StdImp|Product Description: AutoCAD Mechanical|Company: Autodesk"
 90
    32768
280
     0
281
     0
  0
CLASS
  1
ACMBOMSTANDARDJIS
  2
AcmBOMStdJIS
  3
"Amdt_StdImp|Product Description: AutoCAD Mechanical|Company: Autodesk"
 90
    32768
280
     0
281
     0
  0
CLASS
  1
ACMDETAILSTANDARDJIS
  2
AmdtDetailSymStdJIS
  3
"Amdt_StdImp|Product Description: AutoCAD Mechanical|Company: Autodesk"
 90
    32768
280
     0
281
     0
  0
CLASS
  1
ACMSECTIONSTANDARDJIS
  2
AmdtSectionSymStdJIS
  3
"Amdt_StdImp|Product Description: AutoCAD Mechanical|Company: Autodesk"
 90
    32768
280
     0
281
     0
  0
CLASS
  1
ACMCENTERLINESTANDARDJIS
  2
AmdtCenterLineStdJIS
  3
"Amdt_StdImp|Product Description: AutoCAD Mechanical|Company: Autodesk"
 90
    32768
280
     0
281
     0
  0
CLASS
  1
ACMTHREADLINESTANDARDJIS
  2
AmdtThreadLineStdJIS
  3
"Amdt_StdImp|Product Description: AutoCAD Mechanical|Company: Autodesk"
 90
    32768
280
     0
281
     0
  0
CLASS
  1
ACMNOTESTANDARDANSI
  2
AmdtNoteStdANSI
  3
"Amdt_StdImp|Product Description: AutoCAD Mechanical|Company: Autodesk"
 90
        0
280
     0
281
     0
  0
CLASS
  1
ACAMGHOLECHARTSTDANSI
  2
AcAmgHoleChartStdANSI
  3
ACMSYMBB_MODULE_NAME
 90
        0
280
     0
281
     0
  0
CLASS
  1
TABLESTYLE
  2
AcDbTableStyle
  3
ObjectDBX Classes
 90
     4095
280
     0
281
     0
  0
CLASS
  1
AMDTNOTETEMPLATEDB
  2
AmdtNoteTemplateDB
  3
AMDT_STDIMP_MODULE_NAME
 90
        0
280
     0
281
     0
  0
CLASS
  1
MATERIAL
  2
AcDbMaterial
  3
ObjectDBX Classes
 90
     1024
280
     0
281
     0
  0
CLASS
  1
VISUALSTYLE
  2
AcDbVisualStyle
  3
ObjectDBX Classes
 90
     4095
280
     0
281
     0
  0
CLASS
  1
ACRFATTGENMGR
  2
AcRfAttGeneralMgr
  3
AcAttribServices
 90
        0
280
     0
281
     0
  0
CLASS
  1
ACRFOBJATTMGR
  2
AcRfObjAttGroupMgr
  3
AcAttribServices
 90
        0
280
     0
281
     0
  0
CLASS
  1
ACRFMCADAPIATTHOLDER
  2
AcRfMCADAPIAttHolder
  3
AcAttribServices
 90
        0
280
     0
281
     0
  0
CLASS
  1
AMDTSYSATTR
  2
AmdtSystemAttribute
  3
AcAttribServices
 90
        0
280
     0
281
     0
  0
CLASS
  1
ACMTAPERSTANDARDANSI
  2
AcmTaperStdANSI
  3
"Amdt_StdImp|Product Description: AutoCAD Mechanical|Company: Autodesk"
 90
        0
280
     0
281
     0
  0
CLASS
  1
SORTENTSTABLE
  2
AcDbSortentsTable
  3
ObjectDBX Classes
 90
        0
280
     0
281
     0
  0
CLASS
  1
ACDBPLACEHOLDER
  2
AcDbPlaceHolder
  3
ObjectDBX Classes
 90
        0
280
     0
281
     0
  0
CLASS
  1
LAYOUT
  2
AcDbLayout
  3
ObjectDBX Classes
 90
        0
280
     0
281
     0
  0
ENDSEC
  0
SECTION
  2
TABLES
  0
TABLE
  2
VPORT
  5
8
330
0
100
AcDbSymbolTable
 70
     1
  0
VPORT
  5
57D
330
8
100
AcDbSymbolTableRecord
100
AcDbViewportTableRecord
  2
*Active
 70
     0
 10
0.0
 20
0.0
 11
1.0
 21
1.0
 12
-1.600014916969087
 22
2.992111242923807
 13
0.0
 23
0.0
 14
0.125
 24
0.125
 15
1.0
 25
1.0
 16
0.0
 26
0.0
 36
1.0
 17
64.96568951244571
 27
34.47458533631245
 37
0.0
 40
21.6518347820829
 41
1.8627648839556
 42
50.0
 43
0.0
 44
0.0
 50
0.0
 51
0.0
 71
     0
 72
   100
 73
     1
 74
     1
 75
     0
 76
     0
 77
     0
 78
     0
281
     0
 65
     0
110
0.0
120
0.0
130
0.0
111
1.0
121
0.0
131
0.0
112
0.0
122
1.0
132
0.0
 79
     0
146
0.0
  0
ENDTAB
  0
TABLE
  2
LTYPE
  5
5
330
0
100
AcDbSymbolTable
 70
    37
  0
LTYPE
  5
13
330
5
100
AcDbSymbolTableRecord
100
AcDbLinetypeTableRecord
  2
BYBLOCK
 70
     0
  3

 72
    65
 73
     0
 40
0.0
  0
LTYPE
  5
14
330
5
100
AcDbSymbolTableRecord
100
AcDbLinetypeTableRecord
  2
BYLAYER
 70
     0
  3

 72
    65
 73
     0
 40
0.0
  0
LTYPE
  5
15
330
5
100
AcDbSymbolTableRecord
100
AcDbLinetypeTableRecord
  2
CONTINUOUS
 70
     0
  3
Solid line
 72
    65
 73
     0
 40
0.0
  0
LTYPE
  5
8C
330
5
100
AcDbSymbolTableRecord
100
AcDbLinetypeTableRecord
  2
HIDDEN
 70
     0
  3
__ __ __ __ __ __ __ __ __ __ __ __ __ __ __ __
 72
    65
 73
     2
 40
0.375
 49
0.25
 74
     0
 49
-0.125
 74
     0
  0
LTYPE
  5
8E
330
5
100
AcDbSymbolTableRecord
100
AcDbLinetypeTableRecord
  2
PHANTOM2
 70
     0
  3
___ _ _ ___ _ _ ___ _ _ ___ _ _ ___ _ _ ___ _ _
 72
    65
 73
     6
 40
1.25
 49
0.625
 74
     0
 49
-0.125
 74
     0
 49
0.125
 74
     0
 49
-0.125
 74
     0
 49
0.125
 74
     0
 49
-0.125
 74
     0
  0
LTYPE
  5
99
330
5
100
AcDbSymbolTableRecord
100
AcDbLinetypeTableRecord
  2
CENTER
 70
     0
  3
____ _ ____ _ ____ _ ____ _ ____ _ ____ _ ____ 
 72
    65
 73
     4
 40
2.0
 49
1.25
 74
     0
 49
-0.25
 74
     0
 49
0.25
 74
     0
 49
-0.25
 74
     0
  0
LTYPE
  5
F2
330
5
100
AcDbSymbolTableRecord
100
AcDbLinetypeTableRecord
  2
ASULTYPE
 70
     0
  3
Solid line
 72
    65
 73
     2
 40
3.0
 49
2.5
 74
     0
 49
0.5
 74
     0
  0
LTYPE
  5
F3
330
5
100
AcDbSymbolTableRecord
100
AcDbLinetypeTableRecord
  2
ASVLTYPE
 70
     0
  3
__ __ __ __ __ __ __ __ __ __ __ __ __ __ __ __ __ __ __ __ __
 72
    65
 73
     2
 40
0.75
 49
0.5
 74
     0
 49
-0.25
 74
     0
  0
LTYPE
  5
15C
330
5
100
AcDbSymbolTableRecord
100
AcDbLinetypeTableRecord
  2
AM_ISO02W050
 70
     0
  3
__ __ __ __ __ __ __ __ __ __ __ __ __ __ __
 72
    65
 73
     2
 40
7.5
 49
6.0
 74
     0
 49
-1.5
 74
     0
  0
LTYPE
  5
15D
330
5
100
AcDbSymbolTableRecord
100
AcDbLinetypeTableRecord
  2
AM_ISO08W050
 70
     0
  3
____ . ____ . ____ . ____ . ____ . ____ . ____
 72
    65
 73
     4
 40
18.0
 49
12.0
 74
     0
 49
-1.5
 74
     0
 49
3.0
 74
     0
 49
-1.5
 74
     0
  0
LTYPE
  5
15E
330
5
100
AcDbSymbolTableRecord
100
AcDbLinetypeTableRecord
  2
AM_ISO09W050
 70
     0
  3
_____ . . _____ . . _____ . . ____ .. ____
 72
    65
 73
     6
 40
22.5
 49
12.0
 74
     0
 49
-1.5
 74
     0
 49
3.0
 74
     0
 49
-1.5
 74
     0
 49
3.0
 74
     0
 49
-1.5
 74
     0
  0
LTYPE
  5
15F
330
5
100
AcDbSymbolTableRecord
100
AcDbLinetypeTableRecord
  2
AM_ISO02W050x2
 70
     0
  3
 _ _ _ _ _ _ _ _ _ _ _ _
 72
    65
 73
     2
 40
3.75
 49
3.0
 74
     0
 49
-0.75
 74
     0
  0
LTYPE
  5
160
330
5
100
AcDbSymbolTableRecord
100
AcDbLinetypeTableRecord
  2
AM_ISO08W050x2
 70
     0
  3
__ . __ . __ . __ . __ . __
 72
    65
 73
     4
 40
9.0
 49
6.0
 74
     0
 49
-0.75
 74
     0
 49
1.5
 74
     0
 49
-0.75
 74
     0
  0
LTYPE
  5
163
330
5
100
AcDbSymbolTableRecord
100
AcDbLinetypeTableRecord
  2
amzigzag
 70
     0
  3
/\/-/\/-/\/-/\/-/\/-/\/
 72
    65
 73
     2
 40
11.0001
 49
0.0001
 74
     4
 75
   136
340
538
 46
0.04
 50
0.0
 44
0.0
 45
0.0
 49
-11.0
 74
     0
  0
LTYPE
  5
164
330
5
100
AcDbSymbolTableRecord
100
AcDbLinetypeTableRecord
  2
HIDDEN2
 70
     0
  3
Hidden (.5x) _ _ _ _ _ _ _ _ _ _ _ _ _ _ _ _ _
 72
    65
 73
     2
 40
0.1875
 49
0.125
 74
     0
 49
-0.0625
 74
     0
  0
LTYPE
  5
165
330
5
100
AcDbSymbolTableRecord
100
AcDbLinetypeTableRecord
  2
CENTER2
 70
     0
  3
Center (.5x) ___ _ ___ _ ___ _ ___ _ ___ _ ___
 72
    65
 73
     4
 40
1.125
 49
0.75
 74
     0
 49
-0.125
 74
     0
 49
0.125
 74
     0
 49
-0.125
 74
     0
  0
LTYPE
  5
2A6
330
5
100
AcDbSymbolTableRecord
100
AcDbLinetypeTableRecord
  2
Amconstr
 70
     0
  3
_______________________
 72
    65
 73
     2
 40
9999.0
 49
9999.0
 74
     0
 49
0.0
 74
     0
  0
LTYPE
  5
2B1
330
5
100
AcDbSymbolTableRecord
100
AcDbLinetypeTableRecord
  2
Amzigzag2
 70
     0
  3
/\/-/\/-/\/-/\/-/\/-/\/
 72
    65
 73
     2
 40
0.4401
 49
0.0001
 74
     4
 75
   136
340
538
 46
0.0016
 50
0.0
 44
0.0
 45
0.0
 49
-0.4400000000000002
 74
     0
  0
LTYPE
  5
2B2
330
5
100
AcDbSymbolTableRecord
100
AcDbLinetypeTableRecord
  2
AM_DIN_F_W050
 70
     0
  3
__ __ __ __ __ __ __ __ __ __ __ __ __ __ __
 72
    65
 73
     2
 40
6.25
 49
4.75
 74
     0
 49
-1.5
 74
     0
  0
LTYPE
  5
2B3
330
5
100
AcDbSymbolTableRecord
100
AcDbLinetypeTableRecord
  2
AM_DIN_G_W050
 70
     0
  3
____ . ____ . ____ . ____ . ____ . ____ . ____
 72
    65
 73
     4
 40
13.75
 49
9.75
 74
     0
 49
-1.5
 74
     0
 49
1.0
 74
     0
 49
-1.5
 74
     0
  0
LTYPE
  5
2B4
330
5
100
AcDbSymbolTableRecord
100
AcDbLinetypeTableRecord
  2
AM_DIN_K_W050
 70
     0
  3
_____ . . _____ . . _____ . . ____ .. ____
 72
    65
 73
     6
 40
16.25
 49
9.75
 74
     0
 49
-1.5
 74
     0
 49
1.0
 74
     0
 49
-1.5
 74
     0
 49
1.0
 74
     0
 49
-1.5
 74
     0
  0
LTYPE
  5
2B5
330
5
100
AcDbSymbolTableRecord
100
AcDbLinetypeTableRecord
  2
AM_DIN_G_W050x2
 70
     0
  3
__ . __ . __ . __ . __ . __
 72
    65
 73
     4
 40
6.875
 49
4.75
 74
     0
 49
-0.875
 74
     0
 49
0.375
 74
     0
 49
-0.875
 74
     0
  0
LTYPE
  5
2B6
330
5
100
AcDbSymbolTableRecord
100
AcDbLinetypeTableRecord
  2
AM_DIN_F_W050x2
 70
     0
  3
 _ _ _ _ _ _ _ _ _ _ _ _
 72
    65
 73
     2
 40
3.125
 49
2.25
 74
     0
 49
-0.875
 74
     0
  0
LTYPE
  5
2CC
330
5
100
AcDbSymbolTableRecord
100
AcDbLinetypeTableRecord
  2
ACANSTGBM
 70
     0
  3
__ . . __ . .
 72
    65
 73
     6
 40
9.0
 49
4.0
 74
     0
 49
-1.0
 74
     0
 49
1.0
 74
     0
 49
-1.0
 74
     0
 49
1.0
 74
     0
 49
-1.0
 74
     0
  0
LTYPE
  5
2CD
330
5
100
AcDbSymbolTableRecord
100
AcDbLinetypeTableRecord
  2
ACANSTGLM
 70
     0
  3
_ _ _ _ _
 72
    65
 73
     2
 40
3.0
 49
2.0
 74
     0
 49
-1.0
 74
     0
  0
LTYPE
  5
2E5
330
5
100
AcDbSymbolTableRecord
100
AcDbLinetypeTableRecord
  2
ACBSWELD
 70
     0
  3
_ _ _ _ _
 72
    65
 73
     2
 40
2.0
 49
2.0
 74
     0
 49
-1.0
 74
     0
  0
LTYPE
  5
2E8
330
5
100
AcDbSymbolTableRecord
100
AcDbLinetypeTableRecord
  2
ACBSITGB
 70
     0
  3
__ . . __ . .
 72
    65
 73
     6
 40
9.0
 49
4.0
 74
     0
 49
-1.0
 74
     0
 49
1.0
 74
     0
 49
-1.0
 74
     0
 49
1.0
 74
     0
 49
-1.0
 74
     0
  0
LTYPE
  5
2E9
330
5
100
AcDbSymbolTableRecord
100
AcDbLinetypeTableRecord
  2
ACBSITGL
 70
     0
  3
_ _ _ _ _
 72
    65
 73
     2
 40
3.0
 49
2.0
 74
     0
 49
-1.0
 74
     0
  0
LTYPE
  5
300
330
5
100
AcDbSymbolTableRecord
100
AcDbLinetypeTableRecord
  2
ACDINWELD
 70
     0
  3
_ _ _ _ _
 72
    65
 73
     2
 40
2.0
 49
2.0
 74
     0
 49
-1.0
 74
     0
  0
LTYPE
  5
303
330
5
100
AcDbSymbolTableRecord
100
AcDbLinetypeTableRecord
  2
ACDINTGB
 70
     0
  3
__ . . __ . .
 72
    65
 73
     6
 40
9.0
 49
4.0
 74
     0
 49
-1.0
 74
     0
 49
1.0
 74
     0
 49
-1.0
 74
     0
 49
1.0
 74
     0
 49
-1.0
 74
     0
  0
LTYPE
  5
304
330
5
100
AcDbSymbolTableRecord
100
AcDbLinetypeTableRecord
  2
ACDINTGL
 70
     0
  3
_ _ _ _ _
 72
    65
 73
     2
 40
3.0
 49
2.0
 74
     0
 49
-1.0
 74
     0
  0
LTYPE
  5
31A
330
5
100
AcDbSymbolTableRecord
100
AcDbLinetypeTableRecord
  2
ACISOWELD
 70
     0
  3
_ _ _ _ _
 72
    65
 73
     2
 40
2.0
 49
2.0
 74
     0
 49
-1.0
 74
     0
  0
LTYPE
  5
31D
330
5
100
AcDbSymbolTableRecord
100
AcDbLinetypeTableRecord
  2
ACISOTGB
 70
     0
  3
__ . . __ . .
 72
    65
 73
     6
 40
9.0
 49
4.0
 74
     0
 49
-1.0
 74
     0
 49
1.0
 74
     0
 49
-1.0
 74
     0
 49
1.0
 74
     0
 49
-1.0
 74
     0
  0
LTYPE
  5
31E
330
5
100
AcDbSymbolTableRecord
100
AcDbLinetypeTableRecord
  2
ACISOTGL
 70
     0
  3
_ _ _ _ _
 72
    65
 73
     2
 40
3.0
 49
2.0
 74
     0
 49
-1.0
 74
     0
  0
LTYPE
  5
337
330
5
100
AcDbSymbolTableRecord
100
AcDbLinetypeTableRecord
  2
ACJISTGB
 70
     0
  3
__ . . __ . .
 72
    65
 73
     6
 40
9.0
 49
4.0
 74
     0
 49
-1.0
 74
     0
 49
1.0
 74
     0
 49
-1.0
 74
     0
 49
1.0
 74
     0
 49
-1.0
 74
     0
  0
LTYPE
  5
338
330
5
100
AcDbSymbolTableRecord
100
AcDbLinetypeTableRecord
  2
ACJISTGL
 70
     0
  3
_ _ _ _ _
 72
    65
 73
     2
 40
3.0
 49
2.0
 74
     0
 49
-1.0
 74
     0
  0
LTYPE
  5
3A6
330
5
100
AcDbSymbolTableRecord
100
AcDbLinetypeTableRecord
  2
ACANSTGB
 70
     0
  3
__ . . __ . .
 72
    65
 73
     6
 40
0.35433070866
 49
0.15748031496
 74
     0
 49
-0.03937007874
 74
     0
 49
0.03937007874
 74
     0
 49
-0.03937007874
 74
     0
 49
0.03937007874
 74
     0
 49
-0.03937007874
 74
     0
  0
LTYPE
  5
3A7
330
5
100
AcDbSymbolTableRecord
100
AcDbLinetypeTableRecord
  2
ACANSTGL
 70
     0
  3
_ _ _ _ _
 72
    65
 73
     2
 40
0.11811023622
 49
0.07874015748
 74
     0
 49
-0.03937007874
 74
     0
  0
LTYPE
  5
6AC
330
5
100
AcDbSymbolTableRecord
100
AcDbLinetypeTableRecord
  2
DASHED
 70
     0
  3
- - - - - - - - - - - - - - - - - - - -
 72
    65
 73
     2
 40
0.2
 49
0.1
 74
     0
 49
-0.1
 74
     0
  0
ENDTAB
  0
TABLE
  2
LAYER
  5
2
102
{ACAD_XDICTIONARY
360
44C
102
}
330
0
100
AcDbSymbolTable
 70
    10
  0
LAYER
  5
F
330
2
100
AcDbSymbolTableRecord
100
AcDbLayerTableRecord
  2
0
 70
     0
 62
     7
  6
CONTINUOUS
370
    -3
390
14F
  0
LAYER
  5
6AD
330
2
100
AcDbSymbolTableRecord
100
AcDbLayerTableRecord
  2
BORDER
 70
     0
 62
     9
  6
CONTINUOUS
370
    -3
390
14F
  0
LAYER
  5
6AE
330
2
100
AcDbSymbolTableRecord
100
AcDbLayerTableRecord
  2
Dimensions
 70
     0
 62
     4
  6
CONTINUOUS
370
    -3
390
14F
  0
LAYER
  5
6AF
330
2
100
AcDbSymbolTableRecord
100
AcDbLayerTableRecord
  2
Notes
 70
     0
 62
     3
  6
CONTINUOUS
370
    -3
390
14F
  0
LAYER
  5
6B0
330
2
100
AcDbSymbolTableRecord
100
AcDbLayerTableRecord
  2
Part
 70
     0
 62
     1
  6
CONTINUOUS
370
    -3
390
14F
  0
LAYER
  5
6B1
330
2
100
AcDbSymbolTableRecord
100
AcDbLayerTableRecord
  2
DEFPOINTS
 70
     0
 62
     7
  6
CONTINUOUS
290
     0
370
    -3
390
14F
  0
LAYER
  5
6B2
330
2
100
AcDbSymbolTableRecord
100
AcDbLayerTableRecord
  2
DEFAULT_1
 70
     0
 62
     7
  6
CENTER
370
    -3
390
14F
  0
LAYER
  5
BEB
330
2
100
AcDbSymbolTableRecord
100
AcDbLayerTableRecord
  2
Label
 70
     0
 62
    30
  6
CONTINUOUS
370
    -3
390
14F
1001
AcAecLayerStandard
1000

1000

  0
LAYER
  5
EEC
330
2
100
AcDbSymbolTableRecord
100
AcDbLayerTableRecord
  2
Schematics
 70
     0
 62
   220
  6
CONTINUOUS
370
    -3
390
14F
1001
AcAecLayerStandard
1000

1000

  0
LAYER
  5
11B0
330
2
100
AcDbSymbolTableRecord
100
AcDbLayerTableRecord
  2
Buttons
 70
     0
 62
    81
  6
CONTINUOUS
370
    -3
390
14F
1001
AcAecLayerStandard
1000

1000

  0
ENDTAB
  0
TABLE
  2
STYLE
  5
3
330
0
100
AcDbSymbolTable
 70
    19
  0
STYLE
  5
10
330
3
100
AcDbSymbolTableRecord
100
AcDbTextStyleTableRecord
  2
STANDARD
 70
     0
 40
0.0
 41
1.0
 50
0.0
 71
     0
 42
0.12
  3
ARIAL.TTF
  4

1001
ACAD
1000
Arial
1071
       34
  0
STYLE
  5
11D
330
3
100
AcDbSymbolTableRecord
100
AcDbTextStyleTableRecord
  2
ADESK1
 70
     0
 40
0.0
 41
1.0
 50
0.0
 71
     0
 42
0.12
  3
romans.shx
  4

  0
STYLE
  5
162
330
3
100
AcDbSymbolTableRecord
100
AcDbTextStyleTableRecord
  2

 70
     1
 40
0.0
 41
1.0
 50
0.0
 71
     0
 42
0.12
  3
ltypeshp.shx
  4

  0
STYLE
  5
2C5
330
3
100
AcDbSymbolTableRecord
100
AcDbTextStyleTableRecord
  2
ACANSTSI
 70
     0
 40
1.0
 41
1.0
 50
0.0
 71
     0
 42
3.5
  3
romans.shx
  4

  0
STYLE
  5
2C8
330
3
100
AcDbSymbolTableRecord
100
AcDbTextStyleTableRecord
  2
ACANSGDT
 70
     0
 40
0.0
 41
1.0
 50
0.0
 71
     0
 42
3.5
  3
amgdt.shx
  4

  0
STYLE
  5
2E0
330
3
100
AcDbSymbolTableRecord
100
AcDbTextStyleTableRecord
  2
ACBSITS
 70
     0
 40
1.0
 41
1.0
 50
0.0
 71
     0
 42
3.5
  3
isocp.shx
  4

  0
STYLE
  5
2E3
330
3
100
AcDbSymbolTableRecord
100
AcDbTextStyleTableRecord
  2
ACBSIGDT
 70
     0
 40
0.0
 41
1.0
 50
0.0
 71
     0
 42
3.5
  3
amgdt.shx
  4

  0
STYLE
  5
2FA
330
3
100
AcDbSymbolTableRecord
100
AcDbTextStyleTableRecord
  2
ACDINTS
 70
     0
 40
1.0
 41
1.0
 50
0.0
 71
     0
 42
3.5
  3
isocp.shx
  4

  0
STYLE
  5
2FE
330
3
100
AcDbSymbolTableRecord
100
AcDbTextStyleTableRecord
  2
ACDINGDT
 70
     0
 40
0.0
 41
1.0
 50
0.0
 71
     0
 42
3.5
  3
amgdt.shx
  4

  0
STYLE
  5
315
330
3
100
AcDbSymbolTableRecord
100
AcDbTextStyleTableRecord
  2
ACISOTS
 70
     0
 40
1.0
 41
1.0
 50
0.0
 71
     0
 42
3.5
  3
isocp.shx
  4

  0
STYLE
  5
318
330
3
100
AcDbSymbolTableRecord
100
AcDbTextStyleTableRecord
  2
ACISOGDT
 70
     0
 40
0.0
 41
1.0
 50
0.0
 71
     0
 42
3.5
  3
amgdt.shx
  4

  0
STYLE
  5
330
330
3
100
AcDbSymbolTableRecord
100
AcDbTextStyleTableRecord
  2
ACJISTS
 70
     0
 40
1.0
 41
1.0
 50
0.0
 71
     0
 42
3.5
  3
isocp.shx
  4
bigfont.shx
  0
STYLE
  5
333
330
3
100
AcDbSymbolTableRecord
100
AcDbTextStyleTableRecord
  2
ACJISGDT
 70
     0
 40
0.0
 41
1.0
 50
0.0
 71
     0
 42
3.5
  3
amgdt.shx
  4

  0
STYLE
  5
39B
330
3
100
AcDbSymbolTableRecord
100
AcDbTextStyleTableRecord
  2
ACANSTS
 70
     0
 40
1.0
 41
1.0
 50
0.0
 71
     0
 42
0.12
  3
romans.shx
  4

  0
STYLE
  5
4F1
330
3
100
AcDbSymbolTableRecord
100
AcDbTextStyleTableRecord
  2
USER1
 70
     0
 40
0.0
 41
1.0
 50
0.0
 71
     0
 42
0.12
  3
TXT.SHX
  4

  0
STYLE
  5
4F2
330
3
100
AcDbSymbolTableRecord
100
AcDbTextStyleTableRecord
  2
USER2
 70
     0
 40
0.0
 41
1.0
 50
0.0
 71
     0
 42
0.12
  3
SIMPLEX.SHX
  4

  0
STYLE
  5
4F3
330
3
100
AcDbSymbolTableRecord
100
AcDbTextStyleTableRecord
  2
USER3
 70
     0
 40
0.0
 41
1.0
 50
0.0
 71
     0
 42
0.12
  3
ITALIC.SHX
  4

  0
STYLE
  5
538
330
3
100
AcDbSymbolTableRecord
100
AcDbTextStyleTableRecord
  2

 70
     1
 40
0.0
 41
1.0
 50
0.0
 71
     0
 42
0.12
  3
genltshp.shx
  4

  0
STYLE
  5
6B3
330
3
100
AcDbSymbolTableRecord
100
AcDbTextStyleTableRecord
  2
SIMPLEX
 70
     0
 40
0.1
 41
1.0
 50
0.0
 71
     0
 42
0.05
  3
C:\R13\COM\FONTS\SIMPLEX.SHX
  4

  0
ENDTAB
  0
TABLE
  2
VIEW
  5
6
330
0
100
AcDbSymbolTable
 70
     3
  0
VIEW
  5
193
330
6
100
AcDbSymbolTableRecord
100
AcDbViewTableRecord
  2
AMDTVIEW1
 70
     0
 40
11.38251346627189
 10
7.263840830449826
 20
5.691256733135945
 41
14.52768166089965
 11
0.0
 21
0.0
 31
1.0
 12
0.0
 22
0.0
 32
0.0
 42
50.0
 43
0.0
 44
0.0
 50
0.0
 71
     0
281
     0
 72
     0
  0
VIEW
  5
194
330
6
100
AcDbSymbolTableRecord
100
AcDbViewTableRecord
  2
AMDTVIEW2
 70
     0
 40
11.38251346627189
 10
7.263840830449826
 20
5.691256733135945
 41
14.52768166089965
 11
0.0
 21
0.0
 31
1.0
 12
0.0
 22
0.0
 32
0.0
 42
50.0
 43
0.0
 44
0.0
 50
0.0
 71
     0
281
     0
 72
     0
  0
VIEW
  5
195
330
6
100
AcDbSymbolTableRecord
100
AcDbViewTableRecord
  2
AMDTVIEW3
 70
     0
 40
11.38251346627189
 10
7.263840830449826
 20
5.691256733135945
 41
14.52768166089965
 11
0.0
 21
0.0
 31
1.0
 12
0.0
 22
0.0
 32
0.0
 42
50.0
 43
0.0
 44
0.0
 50
0.0
 71
     0
281
     0
 72
     0
  0
ENDTAB
  0
TABLE
  2
UCS
  5
7
330
0
100
AcDbSymbolTable
 70
     0
  0
ENDTAB
  0
TABLE
  2
APPID
  5
9
330
0
100
AcDbSymbolTable
 70
    21
  0
APPID
  5
11
330
9
100
AcDbSymbolTableRecord
100
AcDbRegAppTableRecord
  2
ACAD
 70
     0
  0
APPID
  5
9C
330
9
100
AcDbSymbolTableRecord
100
AcDbRegAppTableRecord
  2
AD_DRAW
 70
     0
  0
APPID
  5
B6
330
9
100
AcDbSymbolTableRecord
100
AcDbRegAppTableRecord
  2
DESIGNERASSEMBLIES
 70
     0
  0
APPID
  5
BD
330
9
100
AcDbSymbolTableRecord
100
AcDbRegAppTableRecord
  2
MCAD_NO_VIS
 70
     0
  0
APPID
  5
F4
330
9
100
AcDbSymbolTableRecord
100
AcDbRegAppTableRecord
  2
ASURF_PCURVE_APPNAME
 70
     0
  0
APPID
  5
168
330
9
100
AcDbSymbolTableRecord
100
AcDbRegAppTableRecord
  2
ACAD_TEMP_GRAPHIC
 70
     0
  0
APPID
  5
172
330
9
100
AcDbSymbolTableRecord
100
AcDbRegAppTableRecord
  2
ACATTRIBSERVICES
 70
     0
  0
APPID
  5
18F
330
9
100
AcDbSymbolTableRecord
100
AcDbRegAppTableRecord
  2
ACADM_DIM_EDIT
 70
     0
  0
APPID
  5
19D
330
9
100
AcDbSymbolTableRecord
100
AcDbRegAppTableRecord
  2
GENIUS_GENDIM_13
 70
     0
  0
APPID
  5
19E
330
9
100
AcDbSymbolTableRecord
100
AcDbRegAppTableRecord
  2
GENIUS_GENDTOL_13
 70
     0
  0
APPID
  5
19F
330
9
100
AcDbSymbolTableRecord
100
AcDbRegAppTableRecord
  2
GENIUS_GE3DTOL_13
 70
     0
  0
APPID
  5
2A2
330
9
100
AcDbSymbolTableRecord
100
AcDbRegAppTableRecord
  2
AMG_3D2D_5.0
 70
     0
  0
APPID
  5
3EE
330
9
100
AcDbSymbolTableRecord
100
AcDbRegAppTableRecord
  2
AMDT_DM_ADJ
 70
     0
  0
APPID
  5
4AA
330
9
100
AcDbSymbolTableRecord
100
AcDbRegAppTableRecord
  2
ACAD_DSTYLE_DIMARC_LENGTH_SYMBOL
 70
     0
  0
APPID
  5
4AB
330
9
100
AcDbSymbolTableRecord
100
AcDbRegAppTableRecord
  2
ACAD_DSTYLE_DIMJOGGED_JOGANGLE_SYMBOL
 70
     0
  0
APPID
  5
5F8
330
9
100
AcDbSymbolTableRecord
100
AcDbRegAppTableRecord
  2
ACAD_EXEMPT_FROM_CAD_STANDARDS
 70
     0
  0
APPID
  5
6B4
330
9
100
AcDbSymbolTableRecord
100
AcDbRegAppTableRecord
  2
ACAD_PSEXT
 70
     0
  0
APPID
  5
BEC
330
9
100
AcDbSymbolTableRecord
100
AcDbRegAppTableRecord
  2
AcAecLayerStandard
 70
     0
  0
APPID
  5
1187
330
9
100
AcDbSymbolTableRecord
100
AcDbRegAppTableRecord
  2
GENIUS_GENSCREG_15
 70
     0
  0
APPID
  5
1188
330
9
100
AcDbSymbolTableRecord
100
AcDbRegAppTableRecord
  2
GENIUS_GENODEF_13
 70
     0
  0
APPID
  5
1189
330
9
100
AcDbSymbolTableRecord
100
AcDbRegAppTableRecord
  2
GENIUS_GENOBJ-N-SDF_13
 70
     0
  0
ENDTAB
  0
TABLE
  2
DIMSTYLE
  5
A
330
0
100
AcDbSymbolTable
 70
    35
100
AcDbDimStyleTable
 71
     5
340
2D3
340
322
340
308
340
2ED
340
33C
  0
DIMSTYLE
105
1D
330
A
100
AcDbSymbolTableRecord
100
AcDbDimStyleTableRecord
  2
STANDARD
 70
     0
340
10
  0
DIMSTYLE
105
2D3
330
A
100
AcDbSymbolTableRecord
100
AcDbDimStyleTableRecord
  2
AM_ANSI
 70
     0
  4
mm
 41
0.1
 42
0.05
 43
0.5
 44
0.1
 47
0.1
 48
0.1
 78
     7
 79
     2
140
0.12
141
0.0
146
0.71
147
0.06
176
   256
177
   256
178
   256
271
     2
272
     2
284
     7
340
10
371
    -1
372
    -1
1001
ACAD_DSTYLE_DIMJOGGED_JOGANGLE_SYMBOL
1070
   384
1040
0.7853981633974483
1001
ACAD_DSTYLE_DIMARC_LENGTH_SYMBOL
1070
   379
1070
     1
  0
DIMSTYLE
105
2D4
330
A
100
AcDbSymbolTableRecord
100
AcDbDimStyleTableRecord
  2
AM_ANSI$3
 70
     0
  4
mm
 41
0.1
 42
0.05
 43
0.5
 44
0.1
 47
0.1
 48
0.1
 78
     7
 79
     2
140
0.12
141
0.0
146
0.71
147
0.06
176
   256
177
   256
178
   256
271
     2
272
     2
284
     7
288
     1
289
     0
340
10
371
    -1
372
    -1
1001
ACAD_DSTYLE_DIMJOGGED_JOGANGLE_SYMBOL
1070
   384
1040
0.7853981633974483
1001
ACAD_DSTYLE_DIMARC_LENGTH_SYMBOL
1070
   379
1070
     1
  0
DIMSTYLE
105
2D5
330
A
100
AcDbSymbolTableRecord
100
AcDbDimStyleTableRecord
  2
AM_ANSI$4
 70
     0
  4
mm
 41
0.1
 42
0.05
 43
0.5
 44
0.1
 47
0.1
 48
0.1
 78
     7
 79
     2
140
0.12
141
0.0
146
0.71
147
0.06
176
   256
177
   256
178
   256
271
     2
272
     2
284
     7
288
     1
289
     0
340
10
371
    -1
372
    -1
1001
ACAD_DSTYLE_DIMJOGGED_JOGANGLE_SYMBOL
1070
   384
1040
0.7853981633974483
1001
ACAD_DSTYLE_DIMARC_LENGTH_SYMBOL
1070
   379
1070
     1
  0
DIMSTYLE
105
2D6
330
A
100
AcDbSymbolTableRecord
100
AcDbDimStyleTableRecord
  2
AM_ANSI$7
 70
     0
  4
mm
 41
0.1
 42
0.05
 43
0.5
 44
0.1
 47
0.1
 48
0.1
 78
     7
 79
     2
140
0.24
141
0.0
146
0.71
147
0.06
176
   256
177
   256
178
   256
271
     2
272
     2
284
     7
340
10
371
    -1
372
    -1
1001
ACAD_DSTYLE_DIMJOGGED_JOGANGLE_SYMBOL
1070
   384
1040
0.7853981633974483
1001
ACAD_DSTYLE_DIMARC_LENGTH_SYMBOL
1070
   379
1070
     1
  0
DIMSTYLE
105
2D7
330
A
100
AcDbSymbolTableRecord
100
AcDbDimStyleTableRecord
  2
AM_ANSI$SF
 70
     0
  4
mm
 41
0.1
 42
0.05
 43
0.5
 44
0.1
 47
0.1
 48
0.1
 75
     1
 76
     1
 78
     7
 79
     2
140
0.12
141
0.0
146
0.71
147
0.06
176
   256
177
   256
178
     2
274
     4
284
     7
340
10
371
    -1
372
    -1
1001
ACAD_DSTYLE_DIMJOGGED_JOGANGLE_SYMBOL
1070
   384
1040
0.7853981633974483
1001
ACAD_DSTYLE_DIMARC_LENGTH_SYMBOL
1070
   379
1070
     1
  0
DIMSTYLE
105
2D8
330
A
100
AcDbSymbolTableRecord
100
AcDbDimStyleTableRecord
  2
AM_ANSI$SH
 70
     0
  4
mm
 41
0.1
 42
0.05
 43
0.5
 44
0.1
 47
0.1
 48
0.1
 75
     1
 76
     1
 78
     7
 79
     2
140
0.12
141
0.0
146
0.71
147
0.06
173
     1
176
   256
177
   256
178
     2
274
     4
284
     7
340
10
343
2AD
371
    -1
372
    -1
1001
ACAD_DSTYLE_DIMJOGGED_JOGANGLE_SYMBOL
1070
   384
1040
0.7853981633974483
1001
ACAD_DSTYLE_DIMARC_LENGTH_SYMBOL
1070
   379
1070
     1
  0
DIMSTYLE
105
2ED
330
A
100
AcDbSymbolTableRecord
100
AcDbDimStyleTableRecord
  2
AM_BSI
 70
     0
  4
mm
 41
0.1574803149606299
 42
0.05
 43
0.5
 44
0.1
 47
0.1
 48
0.1
 73
     0
 74
     0
 77
     1
 78
     7
 79
     2
140
0.12
141
0.0
146
0.71
147
0.06
172
     1
176
   256
177
   256
178
     2
274
     4
283
     0
284
     7
340
10
371
    -1
372
    -1
  0
DIMSTYLE
105
2EE
330
A
100
AcDbSymbolTableRecord
100
AcDbDimStyleTableRecord
  2
AM_BSI$3
 70
     0
  4
mm
 41
0.1574803149606299
 42
0.05
 43
0.5
 44
0.1
 47
0.1
 48
0.1
 73
     0
 77
     1
 78
     7
 79
     2
140
0.12
141
0.0
146
0.71
147
0.06
176
   256
177
   256
178
     2
274
     4
283
     0
284
     7
288
     1
289
     0
340
10
371
    -1
372
    -1
  0
DIMSTYLE
105
2EF
330
A
100
AcDbSymbolTableRecord
100
AcDbDimStyleTableRecord
  2
AM_BSI$4
 70
     0
  4
mm
 41
0.1574803149606299
 42
0.05
 43
0.5
 44
0.1
 47
0.1
 48
0.1
 73
     0
 77
     1
 78
     7
 79
     2
140
0.12
141
0.0
146
0.71
147
0.06
176
   256
177
   256
178
     2
274
     4
283
     0
284
     7
288
     1
289
     0
340
10
371
    -1
372
    -1
  0
DIMSTYLE
105
2F0
330
A
100
AcDbSymbolTableRecord
100
AcDbDimStyleTableRecord
  2
AM_BSI$6
 70
     0
  4
mm
 41
0.1574803149606299
 42
0.05
 43
0.5
 44
0.1
 47
0.1
 48
0.1
 73
     0
 74
     0
 78
     7
 79
     2
140
0.12
141
0.0
146
0.71
147
0.06
172
     1
176
   256
177
   256
178
     2
274
     4
283
     0
284
     7
340
10
371
    -1
372
    -1
  0
DIMSTYLE
105
2F1
330
A
100
AcDbSymbolTableRecord
100
AcDbDimStyleTableRecord
  2
AM_BSI$7
 70
     0
  4
mm
 41
0.1
 42
0.05
 43
0.5
 44
0.1
 47
0.1
 48
0.1
 73
     0
 74
     0
 77
     1
 78
     7
 79
     2
140
0.24
141
0.0
146
0.71
147
0.06
172
     1
176
   256
177
   256
178
     2
274
     4
283
     0
284
     7
340
10
371
    -1
372
    -1
  0
DIMSTYLE
105
2F2
330
A
100
AcDbSymbolTableRecord
100
AcDbDimStyleTableRecord
  2
AM_BSI$SF
 70
     0
  4
mm
 41
0.1574803149606299
 42
0.05
 43
0.5
 44
0.1
 47
0.1
 48
0.1
 73
     0
 74
     0
 75
     1
 76
     1
 77
     1
 78
     7
 79
     2
140
0.12
141
0.0
146
0.71
147
0.06
172
     1
176
   256
177
   256
178
     2
274
     4
283
     0
284
     7
340
10
371
    -1
372
    -1
  0
DIMSTYLE
105
2F3
330
A
100
AcDbSymbolTableRecord
100
AcDbDimStyleTableRecord
  2
AM_BSI$SH
 70
     0
  4
mm
 41
0.1574803149606299
 42
0.05
 43
0.5
 44
0.1
 47
0.1
 48
0.1
 73
     0
 74
     0
 75
     1
 76
     1
 77
     1
 78
     7
 79
     2
140
0.12
141
0.0
144
2.0
146
0.71
147
0.06
172
     1
173
     1
176
   256
177
   256
178
     2
274
     4
283
     0
284
     7
340
10
371
    -1
372
    -1
  0
DIMSTYLE
105
308
330
A
100
AcDbSymbolTableRecord
100
AcDbDimStyleTableRecord
  2
AM_DIN
 70
     0
  4
mm
 41
0.1
 42
0.05
 43
0.5
 44
0.1
 47
0.1
 48
0.1
 73
     0
 74
     0
 77
     1
 78
     7
 79
     2
140
0.12
141
0.0
146
0.71
147
0.06
172
     1
176
   256
177
   256
178
     2
274
     4
283
     0
284
     7
340
10
371
    -1
372
    -1
  0
DIMSTYLE
105
309
330
A
100
AcDbSymbolTableRecord
100
AcDbDimStyleTableRecord
  2
AM_DIN$3
 70
     0
  4
mm
 41
0.1
 42
0.05
 43
0.5
 44
0.1
 47
0.1
 48
0.1
 73
     0
 77
     1
 78
     7
 79
     2
140
0.12
141
0.0
146
0.71
147
0.06
176
   256
177
   256
178
     2
274
     4
283
     0
284
     7
288
     1
289
     0
340
10
371
    -1
372
    -1
  0
DIMSTYLE
105
30A
330
A
100
AcDbSymbolTableRecord
100
AcDbDimStyleTableRecord
  2
AM_DIN$4
 70
     0
  4
mm
 41
0.1
 42
0.05
 43
0.5
 44
0.1
 47
0.1
 48
0.1
 73
     0
 77
     1
 78
     7
 79
     2
140
0.12
141
0.0
146
0.71
147
0.06
176
   256
177
   256
178
     2
274
     4
283
     0
284
     7
288
     1
289
     0
340
10
371
    -1
372
    -1
  0
DIMSTYLE
105
30B
330
A
100
AcDbSymbolTableRecord
100
AcDbDimStyleTableRecord
  2
AM_DIN$6
 70
     0
  4
mm
 41
0.1
 42
0.05
 43
0.5
 44
0.1
 47
0.1
 48
0.1
 73
     0
 74
     0
 78
     7
 79
     2
140
0.12
141
0.0
146
0.71
147
0.06
172
     1
176
   256
177
   256
178
     2
274
     4
283
     0
284
     7
340
10
371
    -1
372
    -1
  0
DIMSTYLE
105
30C
330
A
100
AcDbSymbolTableRecord
100
AcDbDimStyleTableRecord
  2
AM_DIN$7
 70
     0
  4
mm
 41
0.1
 42
0.05
 43
0.5
 44
0.1
 47
0.1
 48
0.1
 73
     0
 74
     0
 77
     1
 78
     7
 79
     2
140
0.24
141
0.0
146
0.71
147
0.06
172
     1
176
   256
177
   256
178
     2
274
     4
283
     0
284
     7
340
10
371
    -1
372
    -1
  0
DIMSTYLE
105
30D
330
A
100
AcDbSymbolTableRecord
100
AcDbDimStyleTableRecord
  2
AM_DIN$SF
 70
     0
  4
mm
 41
0.1
 42
0.05
 43
0.5
 44
0.1
 47
0.1
 48
0.1
 73
     0
 74
     0
 75
     1
 76
     1
 77
     1
 78
     7
 79
     2
140
0.12
141
0.0
146
0.71
147
0.06
172
     1
176
   256
177
   256
178
     2
274
     4
283
     0
284
     7
340
10
371
    -1
372
    -1
  0
DIMSTYLE
105
30E
330
A
100
AcDbSymbolTableRecord
100
AcDbDimStyleTableRecord
  2
AM_DIN$SH
 70
     0
  4
mm
 41
0.1
 42
0.05
 43
0.5
 44
0.1
 47
0.1
 48
0.1
 73
     0
 74
     0
 75
     1
 76
     1
 77
     1
 78
     7
 79
     2
140
0.12
141
0.0
144
2.0
146
0.71
147
0.06
172
     1
173
     1
176
   256
177
   256
178
     2
274
     4
283
     0
284
     7
340
10
371
    -1
372
    -1
  0
DIMSTYLE
105
322
330
A
100
AcDbSymbolTableRecord
100
AcDbDimStyleTableRecord
  2
AM_ISO
 70
     0
  4
mm
 41
0.1
 42
0.05
 43
0.5
 44
0.1
 47
0.1
 48
0.1
 73
     0
 74
     0
 77
     1
 78
     7
 79
     2
140
0.12
141
0.0
146
0.71
147
0.06
172
     1
176
   256
177
   256
178
     2
274
     4
283
     0
284
     7
340
10
371
    -1
372
    -1
  0
DIMSTYLE
105
323
330
A
100
AcDbSymbolTableRecord
100
AcDbDimStyleTableRecord
  2
AM_ISO$3
 70
     0
  4
mm
 41
0.1
 42
0.05
 43
0.5
 44
0.1
 47
0.1
 48
0.1
 73
     0
 77
     1
 78
     7
 79
     2
140
0.12
141
0.0
146
0.71
147
0.06
176
   256
177
   256
178
     2
274
     4
283
     0
284
     7
288
     1
289
     0
340
10
371
    -1
372
    -1
  0
DIMSTYLE
105
324
330
A
100
AcDbSymbolTableRecord
100
AcDbDimStyleTableRecord
  2
AM_ISO$4
 70
     0
  4
mm
 41
0.1
 42
0.05
 43
0.5
 44
0.1
 47
0.1
 48
0.1
 73
     0
 77
     1
 78
     7
 79
     2
140
0.12
141
0.0
146
0.71
147
0.06
176
   256
177
   256
178
     2
274
     4
283
     0
284
     7
288
     1
289
     0
340
10
371
    -1
372
    -1
  0
DIMSTYLE
105
325
330
A
100
AcDbSymbolTableRecord
100
AcDbDimStyleTableRecord
  2
AM_ISO$6
 70
     0
  4
mm
 41
0.1
 42
0.05
 43
0.5
 44
0.1
 47
0.1
 48
0.1
 73
     0
 74
     0
 78
     7
 79
     2
140
0.12
141
0.0
146
0.71
147
0.06
172
     1
176
   256
177
   256
178
     2
274
     4
283
     0
284
     7
340
10
371
    -1
372
    -1
  0
DIMSTYLE
105
326
330
A
100
AcDbSymbolTableRecord
100
AcDbDimStyleTableRecord
  2
AM_ISO$7
 70
     0
  4
mm
 41
0.1
 42
0.05
 43
0.5
 44
0.1
 47
0.1
 48
0.1
 73
     0
 74
     0
 77
     1
 78
     7
 79
     2
140
0.24
141
0.0
146
0.71
147
0.06
172
     1
176
   256
177
   256
178
     2
274
     4
283
     0
284
     7
340
10
371
    -1
372
    -1
  0
DIMSTYLE
105
327
330
A
100
AcDbSymbolTableRecord
100
AcDbDimStyleTableRecord
  2
AM_ISO$SF
 70
     0
  4
mm
 41
0.1
 42
0.05
 43
0.5
 44
0.1
 47
0.1
 48
0.1
 73
     0
 74
     0
 75
     1
 76
     1
 77
     1
 78
     7
 79
     2
140
0.12
141
0.0
146
0.71
147
0.06
172
     1
176
   256
177
   256
178
     2
274
     4
283
     0
284
     7
340
10
371
    -1
372
    -1
  0
DIMSTYLE
105
328
330
A
100
AcDbSymbolTableRecord
100
AcDbDimStyleTableRecord
  2
AM_ISO$SH
 70
     0
  4
mm
 41
0.1
 42
0.05
 43
0.5
 44
0.1
 47
0.1
 48
0.1
 73
     0
 74
     0
 75
     1
 76
     1
 77
     1
 78
     7
 79
     2
140
0.12
141
0.0
144
2.0
146
0.71
147
0.06
172
     1
173
     1
176
   256
177
   256
178
     2
274
     4
283
     0
284
     7
340
10
371
    -1
372
    -1
  0
DIMSTYLE
105
33C
330
A
100
AcDbSymbolTableRecord
100
AcDbDimStyleTableRecord
  2
AM_JIS
 70
     0
  4
mm
 41
0.1
 42
0.05
 43
0.5
 44
0.1
 47
0.1
 48
0.1
 73
     0
 74
     0
 77
     3
 78
     7
 79
     2
140
0.12
141
0.0
146
0.71
147
0.06
172
     1
176
   256
177
   256
178
     2
274
     4
283
     0
284
     7
340
10
371
    -1
372
    -1
  0
DIMSTYLE
105
33D
330
A
100
AcDbSymbolTableRecord
100
AcDbDimStyleTableRecord
  2
AM_JIS$3
 70
     0
  4
mm
 41
0.1
 42
0.05
 43
0.5
 44
0.1
 47
0.1
 48
0.1
 73
     0
 77
     3
 78
     7
 79
     2
140
0.12
141
0.0
146
0.71
147
0.06
176
   256
177
   256
178
     2
274
     4
283
     0
284
     7
288
     1
289
     0
340
10
371
    -1
372
    -1
  0
DIMSTYLE
105
33E
330
A
100
AcDbSymbolTableRecord
100
AcDbDimStyleTableRecord
  2
AM_JIS$4
 70
     0
  4
mm
 41
0.1
 42
0.05
 43
0.5
 44
0.1
 47
0.1
 48
0.1
 73
     0
 77
     3
 78
     7
 79
     2
140
0.12
141
0.0
146
0.71
147
0.06
176
   256
177
   256
178
     2
274
     4
283
     0
284
     7
288
     1
289
     0
340
10
371
    -1
372
    -1
  0
DIMSTYLE
105
33F
330
A
100
AcDbSymbolTableRecord
100
AcDbDimStyleTableRecord
  2
AM_JIS$6
 70
     0
  4
mm
 41
0.1
 42
0.05
 43
0.5
 44
0.1
 47
0.1
 48
0.1
 73
     0
 74
     0
 78
     7
 79
     2
140
0.12
141
0.0
146
0.71
147
0.06
172
     1
176
   256
177
   256
178
     2
274
     4
283
     0
284
     7
340
10
371
    -1
372
    -1
  0
DIMSTYLE
105
340
330
A
100
AcDbSymbolTableRecord
100
AcDbDimStyleTableRecord
  2
AM_JIS$7
 70
     0
  4
mm
 41
0.1
 42
0.05
 43
0.5
 44
0.1
 47
0.1
 48
0.1
 73
     0
 74
     0
 77
     3
 78
     7
 79
     2
140
0.24
141
0.0
146
0.71
147
0.06
172
     1
176
   256
177
   256
178
     2
274
     4
283
     0
284
     7
340
10
371
    -1
372
    -1
  0
DIMSTYLE
105
341
330
A
100
AcDbSymbolTableRecord
100
AcDbDimStyleTableRecord
  2
AM_JIS$SF
 70
     0
  4
mm
 41
0.1
 42
0.05
 43
0.5
 44
0.1
 47
0.1
 48
0.1
 73
     0
 74
     0
 75
     1
 76
     1
 77
     3
 78
     7
 79
     2
140
0.12
141
0.0
146
0.71
147
0.06
172
     1
176
   256
177
   256
178
     2
274
     4
283
     0
284
     7
340
10
371
    -1
372
    -1
  0
DIMSTYLE
105
342
330
A
100
AcDbSymbolTableRecord
100
AcDbDimStyleTableRecord
  2
AM_JIS$SH
 70
     0
  4
mm
 41
0.1
 42
0.05
 43
0.5
 44
0.1
 47
0.1
 48
0.1
 73
     0
 74
     0
 75
     1
 76
     1
 77
     3
 78
     7
 79
     2
140
0.12
141
0.0
144
2.0
146
0.71
147
0.06
172
     1
173
     1
176
   256
177
   256
178
     2
274
     4
283
     0
284
     7
340
10
371
    -1
372
    -1
  0
ENDTAB
  0
TABLE
  2
BLOCK_RECORD
  5
1
330
0
100
AcDbSymbolTable
 70
    16
  0
BLOCK_RECORD
  5
19
102
{ACAD_XDICTIONARY
360
11F
102
}
330
1
100
AcDbSymbolTableRecord
100
AcDbBlockTableRecord
  2
*MODEL_SPACE
340
152
  0
BLOCK_RECORD
  5
16
330
1
100
AcDbSymbolTableRecord
100
AcDbBlockTableRecord
  2
*PAPER_SPACE
340
153
  0
BLOCK_RECORD
  5
2A7
330
1
100
AcDbSymbolTableRecord
100
AcDbBlockTableRecord
  2
_Open30
340
0
  0
BLOCK_RECORD
  5
2AD
330
1
100
AcDbSymbolTableRecord
100
AcDbBlockTableRecord
  2
GENAXEH
340
0
  0
BLOCK_RECORD
  5
635
330
1
100
AcDbSymbolTableRecord
100
AcDbBlockTableRecord
  2
A$C68D607CE
340
0
  0
BLOCK_RECORD
  5
11B1
102
{ACAD_XDICTIONARY
360
11B6
102
}
330
1
100
AcDbSymbolTableRecord
100
AcDbBlockTableRecord
  2
A$C04591C4E
340
0
102
{BLKREFS
331
11BB
102
}
1001
ACAD
1000
DesignCenter Data
1002
{
1070
     1
1070
     1
1002
}
  0
ENDTAB
  0
ENDSEC
  0
SECTION
  2
BLOCKS
  0
BLOCK
  5
1A
330
19
100
AcDbEntity
  8
0
100
AcDbBlockBegin
  2
*MODEL_SPACE
 70
     0
 10
0.0
 20
0.0
 30
0.0
  3
*MODEL_SPACE
  1

  0
ENDBLK
  5
1B
330
19
100
AcDbEntity
  8
0
100
AcDbBlockEnd
  0
BLOCK
  5
17
330
16
100
AcDbEntity
 67
     1
  8
0
100
AcDbBlockBegin
  2
*PAPER_SPACE
 70
     0
 10
0.0
 20
0.0
 30
0.0
  3
*PAPER_SPACE
  1

  0
ENDBLK
  5
18
330
16
100
AcDbEntity
 67
     1
  8
0
100
AcDbBlockEnd
  0
BLOCK
  5
2AB
330
2A7
100
AcDbEntity
  8
0
100
AcDbBlockBegin
  2
_Open30
 70
     0
 10
0.0
 20
0.0
 30
0.0
  3
_Open30
  1

  0
LINE
  5
2A8
330
2A7
100
AcDbEntity
  8
0
  6
ByBlock
 62
     0
370
    -2
100
AcDbLine
 10
-1.0
 20
0.26794919
 30
0.0
 11
0.0
 21
0.0
 31
0.0
  0
LINE
  5
2A9
330
2A7
100
AcDbEntity
  8
0
  6
ByBlock
 62
     0
370
    -2
100
AcDbLine
 10
0.0
 20
0.0
 30
0.0
 11
-1.0
 21
-0.26794919
 31
0.0
  0
LINE
  5
2AA
330
2A7
100
AcDbEntity
  8
0
  6
ByBlock
 62
     0
370
    -2
100
AcDbLine
 10
0.0
 20
0.0
 30
0.0
 11
-1.0
 21
0.0
 31
0.0
  0
ENDBLK
  5
2AC
330
2A7
100
AcDbEntity
  8
0
100
AcDbBlockEnd
  0
BLOCK
  5
2AF
330
2AD
100
AcDbEntity
  8
0
100
AcDbBlockBegin
  2
GENAXEH
 70
     0
 10
0.0
 20
0.0
 30
0.0
  3
GENAXEH
  1

  0
LINE
  5
2AE
330
2AD
100
AcDbEntity
  8
0
100
AcDbLine
 10
-1.0
 20
0.0
 30
0.0
 11
1.0
 21
0.0
 31
0.0
  0
ENDBLK
  5
2B0
330
2AD
100
AcDbEntity
  8
0
100
AcDbBlockEnd
  0
BLOCK
  5
636
330
635
100
AcDbEntity
  8
0
100
AcDbBlockBegin
  2
A$C68D607CE
 70
     0
 10
0.0
 20
0.0
 30
0.0
  3
A$C68D607CE
  1

  0
LINE
  5
637
330
635
100
AcDbEntity
  8
Dimensions
  6
Continuous
100
AcDbLine
 10
2.591743021357459
 20
0.1600000174468406
 30
0.0
 11
2.591743021357459
 21
1.069934956720532
 31
0.0
  0
LINE
  5
638
330
635
100
AcDbEntity
  8
Dimensions
  6
Continuous
100
AcDbLine
 10
2.796544689457459
 20
0.1600000174468406
 30
0.0
 11
2.796544689457459
 21
1.069929815568384
 31
0.0
  0
LINE
  5
639
330
635
100
AcDbEntity
  8
Dimensions
  6
Continuous
100
AcDbLine
 10
2.779063306057459
 20
0.1600000174468406
 30
0.0
 11
2.779063306057459
 21
1.069930254404904
 31
0.0
  0
LINE
  5
63A
330
635
100
AcDbEntity
  8
Dimensions
  6
Continuous
100
AcDbLine
 10
2.75921267675746
 20
0.1600000174468406
 30
0.0
 11
2.75921267675746
 21
1.06993075271679
 31
0.0
  0
LINE
  5
63B
330
635
100
AcDbEntity
  8
Dimensions
  6
Continuous
100
AcDbLine
 10
2.736950213957458
 20
0.1600000174468406
 30
0.0
 11
2.736950213957458
 21
1.069931311573121
 31
0.0
  0
LINE
  5
63C
330
635
100
AcDbEntity
  8
Dimensions
  6
Continuous
100
AcDbLine
 10
2.712402599757459
 20
0.1600000174468406
 30
0.0
 11
2.712402599757459
 21
1.06993192779378
 31
0.0
  0
LINE
  5
63D
330
635
100
AcDbEntity
  8
Dimensions
  6
Continuous
100
AcDbLine
 10
2.68551716955746
 20
0.1600000174468406
 30
0.0
 11
2.68551716955746
 21
1.069932602700822
 31
0.0
  0
LINE
  5
63E
330
635
100
AcDbEntity
  8
Dimensions
  6
Continuous
100
AcDbLine
 10
2.65644691215746
 20
0.1600000174468406
 30
0.0
 11
2.65644691215746
 21
1.069933332453745
 31
0.0
  0
LINE
  5
63F
330
635
100
AcDbEntity
  8
Dimensions
  6
Continuous
100
AcDbLine
 10
2.625129459857459
 20
0.1600000174468406
 30
0.0
 11
2.625129459857459
 21
1.069934118618177
 31
0.0
  0
LINE
  5
640
330
635
100
AcDbEntity
  8
Dimensions
  6
Continuous
100
AcDbLine
 10
2.556215969157458
 20
0.1600000174468406
 30
0.0
 11
2.556215969157458
 21
1.069935848558875
 31
0.0
  0
LINE
  5
641
330
635
100
AcDbEntity
  8
Dimensions
  6
Continuous
100
AcDbLine
 10
2.51875046615746
 20
0.1600000174468406
 30
0.0
 11
2.51875046615746
 21
1.0699367890583
 31
0.0
  0
LINE
  5
642
330
635
100
AcDbEntity
  8
Dimensions
  6
Continuous
100
AcDbLine
 10
2.479266133657459
 20
0.1600000174468406
 30
0.0
 11
2.479266133657459
 21
1.06993778023656
 31
0.0
  0
LINE
  5
643
330
635
100
AcDbEntity
  8
Dimensions
  6
Continuous
100
AcDbLine
 10
2.43798765315746
 20
0.1600000174468406
 30
0.0
 11
2.43798765315746
 21
1.069938816453454
 31
0.0
  0
LINE
  5
644
330
635
100
AcDbEntity
  8
Dimensions
  6
Continuous
100
AcDbLine
 10
2.385806868357459
 20
0.1600000174468406
 30
0.0
 11
2.385806868357459
 21
1.06994012635174
 31
0.0
  0
LINE
  5
645
330
635
100
AcDbEntity
  8
Dimensions
  6
Continuous
100
AcDbLine
 10
2.293881535157459
 20
0.1600000174468406
 30
0.0
 11
2.293881535157459
 21
1.069942433960502
 31
0.0
  0
LINE
  5
646
330
635
100
AcDbEntity
  8
Dimensions
  6
Continuous
100
AcDbLine
 10
2.811557351057459
 20
0.1600000174468406
 30
0.0
 11
2.811557351057459
 21
1.070164752940115
 31
0.0
  0
LINE
  5
647
330
635
100
AcDbEntity
  8
Dimensions
  6
Continuous
100
AcDbLine
 10
2.824133499157459
 20
0.1600000174468406
 30
0.0
 11
2.824133499157459
 21
1.070164752940115
 31
0.0
  0
LINE
  5
648
330
635
100
AcDbEntity
  8
Dimensions
  6
Continuous
100
AcDbLine
 10
2.834201570457461
 20
0.1600000174468406
 30
0.0
 11
2.834201570457461
 21
1.070090265497448
 31
0.0
  0
LINE
  5
649
330
635
100
AcDbEntity
  8
Dimensions
  6
Continuous
100
AcDbLine
 10
2.84178316505746
 20
0.1600000174468406
 30
0.0
 11
2.84178316505746
 21
1.070090265497448
 31
0.0
  0
LINE
  5
64A
330
635
100
AcDbEntity
  8
Dimensions
  6
Continuous
100
AcDbLine
 10
2.846835140657461
 20
0.1600000174468406
 30
0.0
 11
2.846835140657461
 21
1.069928489532294
 31
0.0
  0
LINE
  5
64B
330
635
100
AcDbEntity
  8
Dimensions
  6
Continuous
100
AcDbLine
 10
2.849368335957461
 20
0.1600000174468406
 30
0.0
 11
2.849368335957461
 21
1.069928489532294
 31
0.0
  0
LINE
  5
64C
330
635
100
AcDbEntity
  8
Dimensions
  6
Continuous
100
AcDbLine
 10
0.5554867856574611
 20
0.1600000174468423
 30
0.0
 11
0.5554867856574611
 21
1.068578485800137
 31
0.0
  0
LINE
  5
64D
330
635
100
AcDbEntity
  8
Dimensions
  6
Continuous
100
AcDbLine
 10
0.4635614524574603
 20
0.1600000174468423
 30
0.0
 11
0.4635614524574603
 21
1.068578485800137
 31
0.0
  0
LINE
  5
64E
330
635
100
AcDbEntity
  8
Dimensions
  6
Continuous
100
AcDbLine
 10
0.4113806676574612
 20
0.1600000174468423
 30
0.0
 11
0.4113806676574612
 21
1.068578485800137
 31
0.0
  0
LINE
  5
64F
330
635
100
AcDbEntity
  8
Dimensions
  6
Continuous
100
AcDbLine
 10
0.3701021871574603
 20
0.1600000174468423
 30
0.0
 11
0.3701021871574603
 21
1.068578485800137
 31
0.0
  0
LINE
  5
650
330
635
100
AcDbEntity
  8
Dimensions
  6
Continuous
100
AcDbLine
 10
0.3306178546574614
 20
0.1600000174468423
 30
0.0
 11
0.3306178546574614
 21
1.068578485800137
 31
0.0
  0
LINE
  5
651
330
635
100
AcDbEntity
  8
Dimensions
  6
Continuous
100
AcDbLine
 10
0.2931523516574614
 20
0.1600000174468423
 30
0.0
 11
0.2931523516574614
 21
1.068578485800137
 31
0.0
  0
LINE
  5
652
330
635
100
AcDbEntity
  8
Dimensions
  6
Continuous
100
AcDbLine
 10
0.2576252994574606
 20
0.1600000174468423
 30
0.0
 11
0.2576252994574606
 21
1.068578485800137
 31
0.0
  0
LINE
  5
653
330
635
100
AcDbEntity
  8
Dimensions
  6
Continuous
100
AcDbLine
 10
0.2242388610574615
 20
0.1600000174468423
 30
0.0
 11
0.2242388610574615
 21
1.068578485800137
 31
0.0
  0
LINE
  5
654
330
635
100
AcDbEntity
  8
Dimensions
  6
Continuous
100
AcDbLine
 10
0.19292140865746
 20
0.1600000174468423
 30
0.0
 11
0.19292140865746
 21
1.068578485800137
 31
0.0
  0
LINE
  5
655
330
635
100
AcDbEntity
  8
Dimensions
  6
Continuous
100
AcDbLine
 10
0.163851151257461
 20
0.1600000174468423
 30
0.0
 11
0.163851151257461
 21
1.068578485800137
 31
0.0
  0
LINE
  5
656
330
635
100
AcDbEntity
  8
Dimensions
  6
Continuous
100
AcDbLine
 10
0.1369657210574608
 20
0.1600000174468423
 30
0.0
 11
0.1369657210574608
 21
1.068578485800137
 31
0.0
  0
LINE
  5
657
330
635
100
AcDbEntity
  8
Dimensions
  6
Continuous
100
AcDbLine
 10
0.1124181068574614
 20
0.1600000174468423
 30
0.0
 11
0.1124181068574614
 21
1.068578485800137
 31
0.0
  0
LINE
  5
658
330
635
100
AcDbEntity
  8
Dimensions
  6
Continuous
100
AcDbLine
 10
0.0901556440574609
 20
0.1600000174468423
 30
0.0
 11
0.0901556440574609
 21
1.068578485800137
 31
0.0
  0
LINE
  5
659
330
635
100
AcDbEntity
  8
Dimensions
  6
Continuous
100
AcDbLine
 10
0.0703050147574604
 20
0.1600000174468423
 30
0.0
 11
0.0703050147574604
 21
1.068578485800137
 31
0.0
  0
LINE
  5
65A
330
635
100
AcDbEntity
  8
Dimensions
  6
Continuous
100
AcDbLine
 10
0.0528236313574606
 20
0.1600000174468423
 30
0.0
 11
0.0528236313574606
 21
1.068578485800137
 31
0.0
  0
LINE
  5
65B
330
635
100
AcDbEntity
  8
Dimensions
  6
Continuous
100
AcDbLine
 10
0.0378109697574605
 20
0.1600000174468423
 30
0.0
 11
0.0378109697574605
 21
1.068578485800137
 31
0.0
  0
LINE
  5
65C
330
635
100
AcDbEntity
  8
Dimensions
  6
Continuous
100
AcDbLine
 10
0.0252348216574596
 20
0.1600000174468423
 30
0.0
 11
0.0252348216574596
 21
1.068578485800137
 31
0.0
  0
LINE
  5
65D
330
635
100
AcDbEntity
  8
Dimensions
  6
Continuous
100
AcDbLine
 10
0.0151667504574604
 20
0.1600000174468423
 30
0.0
 11
0.0151667504574604
 21
1.069328879533002
 31
0.0
  0
LINE
  5
65E
330
635
100
AcDbEntity
  8
Dimensions
  6
Continuous
100
AcDbLine
 10
0.0075851558574609
 20
0.1600000174468423
 30
0.0
 11
0.0075851558574609
 21
1.069761982733297
 31
0.0
  0
LINE
  5
65F
330
635
100
AcDbEntity
  8
Dimensions
  6
Continuous
100
AcDbLine
 10
0.0025331801574602
 20
0.1600000174468423
 30
0.0
 11
0.0025331801574602
 21
1.069809662117521
 31
0.0
  0
LINE
  5
660
330
635
100
AcDbEntity
  8
Dimensions
  6
Continuous
100
AcDbLine
 10
-0.0000000151425397
 20
0.1600000174468423
 30
0.0
 11
-0.0000000151425397
 21
1.069809662117521
 31
0.0
  0
LINE
  5
661
330
635
100
AcDbEntity
  8
Dimensions
100
AcDbLine
 10
-0.0000000151425397
 20
0.0000000174468422
 30
0.0
 11
2.849368335957461
 21
0.0000000174468404
 31
0.0
  0
LINE
  5
662
330
635
100
AcDbEntity
  8
Dimensions
100
AcDbLine
 10
2.293881535157459
 20
0.1600000174468406
 30
0.0
 11
0.5554867856574611
 21
0.1600000174468423
 31
0.0
  0
LINE
  5
663
330
635
100
AcDbEntity
  8
Dimensions
100
AcDbLine
 10
0.0075851558574591
 20
0.0000000174468422
 30
0.0
 11
0.0075851558574609
 21
0.1600000174468423
 31
0.0
  0
LINE
  5
664
330
635
100
AcDbEntity
  8
Dimensions
100
AcDbLine
 10
0.0025331801574602
 20
0.0000000174468422
 30
0.0
 11
0.0025331801574602
 21
0.1600000174468423
 31
0.0
  0
LINE
  5
665
330
635
100
AcDbEntity
  8
Dimensions
100
AcDbLine
 10
-0.0000000151425397
 20
0.0000000174468422
 30
0.0
 11
-0.0000000151425397
 21
0.1600000174468423
 31
0.0
  0
LINE
  5
666
330
635
100
AcDbEntity
  8
Dimensions
100
AcDbLine
 10
0.0151667504574604
 20
0.0000000174468422
 30
0.0
 11
0.0151667504574604
 21
0.1600000174468423
 31
0.0
  0
LINE
  5
667
330
635
100
AcDbEntity
  8
Dimensions
100
AcDbLine
 10
0.1124181068574597
 20
0.0000000174468422
 30
0.0
 11
0.1124181068574614
 21
0.1600000174468423
 31
0.0
  0
LINE
  5
668
330
635
100
AcDbEntity
  8
Dimensions
100
AcDbLine
 10
0.0901556440574609
 20
0.0000000174468422
 30
0.0
 11
0.0901556440574609
 21
0.1600000174468423
 31
0.0
  0
LINE
  5
669
330
635
100
AcDbEntity
  8
Dimensions
100
AcDbLine
 10
0.0703050147574604
 20
0.0000000174468422
 30
0.0
 11
0.0703050147574604
 21
0.1600000174468423
 31
0.0
  0
LINE
  5
66A
330
635
100
AcDbEntity
  8
Dimensions
100
AcDbLine
 10
0.0528236313574606
 20
0.0000000174468422
 30
0.0
 11
0.0528236313574606
 21
0.1600000174468423
 31
0.0
  0
LINE
  5
66B
330
635
100
AcDbEntity
  8
Dimensions
100
AcDbLine
 10
0.0378109697574605
 20
0.0000000174468422
 30
0.0
 11
0.0378109697574605
 21
0.1600000174468423
 31
0.0
  0
LINE
  5
66C
330
635
100
AcDbEntity
  8
Dimensions
100
AcDbLine
 10
0.0252348216574596
 20
0.0000000174468422
 30
0.0
 11
0.0252348216574596
 21
0.1600000174468423
 31
0.0
  0
LINE
  5
66D
330
635
100
AcDbEntity
  8
Dimensions
100
AcDbLine
 10
0.2242388610574597
 20
0.0000000174468422
 30
0.0
 11
0.2242388610574615
 21
0.1600000174468423
 31
0.0
  0
LINE
  5
66E
330
635
100
AcDbEntity
  8
Dimensions
100
AcDbLine
 10
0.19292140865746
 20
0.0000000174468422
 30
0.0
 11
0.19292140865746
 21
0.1600000174468423
 31
0.0
  0
LINE
  5
66F
330
635
100
AcDbEntity
  8
Dimensions
100
AcDbLine
 10
0.2576252994574606
 20
0.0000000174468422
 30
0.0
 11
0.2576252994574606
 21
0.1600000174468423
 31
0.0
  0
LINE
  5
670
330
635
100
AcDbEntity
  8
Dimensions
100
AcDbLine
 10
0.163851151257461
 20
0.0000000174468422
 30
0.0
 11
0.163851151257461
 21
0.1600000174468423
 31
0.0
  0
LINE
  5
671
330
635
100
AcDbEntity
  8
Dimensions
100
AcDbLine
 10
0.1369657210574608
 20
0.0000000174468422
 30
0.0
 11
0.1369657210574608
 21
0.1600000174468423
 31
0.0
  0
LINE
  5
672
330
635
100
AcDbEntity
  8
Dimensions
100
AcDbLine
 10
0.3701021871574603
 20
0.0000000174468422
 30
0.0
 11
0.3701021871574603
 21
0.1600000174468423
 31
0.0
  0
LINE
  5
673
330
635
100
AcDbEntity
  8
Dimensions
100
AcDbLine
 10
0.3306178546574596
 20
0.0000000174468422
 30
0.0
 11
0.3306178546574614
 21
0.1600000174468423
 31
0.0
  0
LINE
  5
674
330
635
100
AcDbEntity
  8
Dimensions
100
AcDbLine
 10
0.2931523516574597
 20
0.0000000174468422
 30
0.0
 11
0.2931523516574614
 21
0.1600000174468423
 31
0.0
  0
LINE
  5
675
330
635
100
AcDbEntity
  8
Dimensions
100
AcDbLine
 10
0.5554867856574611
 20
0.0000000174468422
 30
0.0
 11
0.5554867856574611
 21
0.1600000174468423
 31
0.0
  0
LINE
  5
676
330
635
100
AcDbEntity
  8
Dimensions
100
AcDbLine
 10
0.4113806676574612
 20
0.0000000174468422
 30
0.0
 11
0.4113806676574612
 21
0.1600000174468423
 31
0.0
  0
LINE
  5
677
330
635
100
AcDbEntity
  8
Dimensions
100
AcDbLine
 10
0.4635614524574603
 20
0.0000000174468422
 30
0.0
 11
0.4635614524574603
 21
0.1600000174468423
 31
0.0
  0
LINE
  5
678
330
635
100
AcDbEntity
  8
Dimensions
100
AcDbLine
 10
0.0528236313574606
 20
0.1600000174468423
 30
0.0
 11
0.0703050147574604
 21
0.1600000174468423
 31
0.0
  0
LINE
  5
679
330
635
100
AcDbEntity
  8
Dimensions
100
AcDbLine
 10
-0.0000000151425397
 20
0.1600000174468423
 30
0.0
 11
0.0025331801574602
 21
0.1600000174468423
 31
0.0
  0
LINE
  5
67A
330
635
100
AcDbEntity
  8
Dimensions
100
AcDbLine
 10
0.0252348216574596
 20
0.1600000174468423
 30
0.0
 11
0.0378109697574605
 21
0.1600000174468423
 31
0.0
  0
LINE
  5
67B
330
635
100
AcDbEntity
  8
Dimensions
100
AcDbLine
 10
0.0075851558574609
 20
0.1600000174468423
 30
0.0
 11
0.0151667504574604
 21
0.1600000174468423
 31
0.0
  0
LINE
  5
67C
330
635
100
AcDbEntity
  8
Dimensions
100
AcDbLine
 10
0.3306178546574614
 20
0.1600000174468423
 30
0.0
 11
0.3701021871574603
 21
0.1600000174468423
 31
0.0
  0
LINE
  5
67D
330
635
100
AcDbEntity
  8
Dimensions
100
AcDbLine
 10
0.0901556440574609
 20
0.1600000174468423
 30
0.0
 11
0.1124181068574614
 21
0.1600000174468423
 31
0.0
  0
LINE
  5
67E
330
635
100
AcDbEntity
  8
Dimensions
100
AcDbLine
 10
0.1369657210574608
 20
0.1600000174468423
 30
0.0
 11
0.163851151257461
 21
0.1600000174468423
 31
0.0
  0
LINE
  5
67F
330
635
100
AcDbEntity
  8
Dimensions
100
AcDbLine
 10
0.19292140865746
 20
0.1600000174468423
 30
0.0
 11
0.2242388610574615
 21
0.1600000174468423
 31
0.0
  0
LINE
  5
680
330
635
100
AcDbEntity
  8
Dimensions
100
AcDbLine
 10
0.2576252994574606
 20
0.1600000174468423
 30
0.0
 11
0.2931523516574614
 21
0.1600000174468423
 31
0.0
  0
LINE
  5
681
330
635
100
AcDbEntity
  8
Dimensions
100
AcDbLine
 10
0.4113806676574612
 20
0.1600000174468423
 30
0.0
 11
0.4635614524574603
 21
0.1600000174468423
 31
0.0
  0
LINE
  5
682
330
635
100
AcDbEntity
  8
Dimensions
100
AcDbLine
 10
2.43798765315746
 20
0.0000000174468404
 30
0.0
 11
2.43798765315746
 21
0.1600000174468406
 31
0.0
  0
LINE
  5
683
330
635
100
AcDbEntity
  8
Dimensions
100
AcDbLine
 10
2.556215969157458
 20
0.0000000174468404
 30
0.0
 11
2.556215969157458
 21
0.1600000174468406
 31
0.0
  0
LINE
  5
684
330
635
100
AcDbEntity
  8
Dimensions
100
AcDbLine
 10
2.51875046615746
 20
0.0000000174468404
 30
0.0
 11
2.51875046615746
 21
0.1600000174468406
 31
0.0
  0
LINE
  5
685
330
635
100
AcDbEntity
  8
Dimensions
100
AcDbLine
 10
2.479266133657459
 20
0.0000000174468404
 30
0.0
 11
2.479266133657459
 21
0.1600000174468406
 31
0.0
  0
LINE
  5
686
330
635
100
AcDbEntity
  8
Dimensions
100
AcDbLine
 10
2.712402599757459
 20
0.0000000174468404
 30
0.0
 11
2.712402599757459
 21
0.1600000174468406
 31
0.0
  0
LINE
  5
687
330
635
100
AcDbEntity
  8
Dimensions
100
AcDbLine
 10
2.68551716955746
 20
0.0000000174468404
 30
0.0
 11
2.68551716955746
 21
0.1600000174468406
 31
0.0
  0
LINE
  5
688
330
635
100
AcDbEntity
  8
Dimensions
100
AcDbLine
 10
2.846835140657461
 20
0.0000000174468404
 30
0.0
 11
2.846835140657461
 21
0.1600000174468406
 31
0.0
  0
LINE
  5
689
330
635
100
AcDbEntity
  8
Dimensions
100
AcDbLine
 10
2.796544689457459
 20
0.0000000174468404
 30
0.0
 11
2.796544689457459
 21
0.1600000174468406
 31
0.0
  0
LINE
  5
68A
330
635
100
AcDbEntity
  8
Dimensions
100
AcDbLine
 10
2.779063306057459
 20
0.0000000174468404
 30
0.0
 11
2.779063306057459
 21
0.1600000174468406
 31
0.0
  0
LINE
  5
68B
330
635
100
AcDbEntity
  8
Dimensions
100
AcDbLine
 10
2.75921267675746
 20
0.0000000174468404
 30
0.0
 11
2.75921267675746
 21
0.1600000174468406
 31
0.0
  0
LINE
  5
68C
330
635
100
AcDbEntity
  8
Dimensions
100
AcDbLine
 10
2.736950213957458
 20
0.0000000174468404
 30
0.0
 11
2.736950213957458
 21
0.1600000174468406
 31
0.0
  0
LINE
  5
68D
330
635
100
AcDbEntity
  8
Dimensions
100
AcDbLine
 10
2.84178316505746
 20
0.0000000174468404
 30
0.0
 11
2.84178316505746
 21
0.1600000174468406
 31
0.0
  0
LINE
  5
68E
330
635
100
AcDbEntity
  8
Dimensions
100
AcDbLine
 10
2.834201570457461
 20
0.0000000174468404
 30
0.0
 11
2.834201570457461
 21
0.1600000174468406
 31
0.0
  0
LINE
  5
68F
330
635
100
AcDbEntity
  8
Dimensions
100
AcDbLine
 10
2.824133499157459
 20
0.0000000174468404
 30
0.0
 11
2.824133499157459
 21
0.1600000174468406
 31
0.0
  0
LINE
  5
690
330
635
100
AcDbEntity
  8
Dimensions
100
AcDbLine
 10
2.811557351057459
 20
0.0000000174468404
 30
0.0
 11
2.811557351057459
 21
0.1600000174468406
 31
0.0
  0
LINE
  5
691
330
635
100
AcDbEntity
  8
Dimensions
100
AcDbLine
 10
2.591743021357459
 20
0.0000000174468404
 30
0.0
 11
2.591743021357459
 21
0.1600000174468406
 31
0.0
  0
LINE
  5
692
330
635
100
AcDbEntity
  8
Dimensions
100
AcDbLine
 10
2.65644691215746
 20
0.0000000174468404
 30
0.0
 11
2.65644691215746
 21
0.1600000174468406
 31
0.0
  0
LINE
  5
693
330
635
100
AcDbEntity
  8
Dimensions
100
AcDbLine
 10
2.625129459857459
 20
0.0000000174468404
 30
0.0
 11
2.625129459857459
 21
0.1600000174468406
 31
0.0
  0
LINE
  5
694
330
635
100
AcDbEntity
  8
Dimensions
100
AcDbLine
 10
2.849368335957461
 20
0.0000000174468404
 30
0.0
 11
2.849368335957461
 21
0.1600000174468406
 31
0.0
  0
LINE
  5
695
330
635
100
AcDbEntity
  8
Dimensions
100
AcDbLine
 10
2.293881535157459
 20
0.0000000174468404
 30
0.0
 11
2.293881535157459
 21
0.1600000174468406
 31
0.0
  0
LINE
  5
696
330
635
100
AcDbEntity
  8
Dimensions
100
AcDbLine
 10
2.385806868357459
 20
0.0000000174468404
 30
0.0
 11
2.385806868357459
 21
0.1600000174468406
 31
0.0
  0
LINE
  5
697
330
635
100
AcDbEntity
  8
Dimensions
100
AcDbLine
 10
2.385806868357459
 20
0.1600000174468406
 30
0.0
 11
2.43798765315746
 21
0.1600000174468406
 31
0.0
  0
LINE
  5
698
330
635
100
AcDbEntity
  8
Dimensions
100
AcDbLine
 10
2.736950213957458
 20
0.1600000174468406
 30
0.0
 11
2.75921267675746
 21
0.1600000174468406
 31
0.0
  0
LINE
  5
699
330
635
100
AcDbEntity
  8
Dimensions
100
AcDbLine
 10
2.556215969157458
 20
0.1600000174468406
 30
0.0
 11
2.591743021357459
 21
0.1600000174468406
 31
0.0
  0
LINE
  5
69A
330
635
100
AcDbEntity
  8
Dimensions
100
AcDbLine
 10
2.479266133657459
 20
0.1600000174468406
 30
0.0
 11
2.51875046615746
 21
0.1600000174468406
 31
0.0
  0
LINE
  5
69B
330
635
100
AcDbEntity
  8
Dimensions
100
AcDbLine
 10
2.625129459857459
 20
0.1600000174468406
 30
0.0
 11
2.65644691215746
 21
0.1600000174468406
 31
0.0
  0
LINE
  5
69C
330
635
100
AcDbEntity
  8
Dimensions
100
AcDbLine
 10
2.68551716955746
 20
0.1600000174468406
 30
0.0
 11
2.712402599757459
 21
0.1600000174468406
 31
0.0
  0
LINE
  5
69D
330
635
100
AcDbEntity
  8
Dimensions
100
AcDbLine
 10
2.846835140657461
 20
0.1600000174468406
 30
0.0
 11
2.849368335957461
 21
0.1600000174468406
 31
0.0
  0
LINE
  5
69E
330
635
100
AcDbEntity
  8
Dimensions
100
AcDbLine
 10
2.834201570457461
 20
0.1600000174468406
 30
0.0
 11
2.84178316505746
 21
0.1600000174468406
 31
0.0
  0
LINE
  5
69F
330
635
100
AcDbEntity
  8
Dimensions
100
AcDbLine
 10
2.811557351057459
 20
0.1600000174468406
 30
0.0
 11
2.824133499157459
 21
0.1600000174468406
 31
0.0
  0
LINE
  5
6A0
330
635
100
AcDbEntity
  8
Dimensions
100
AcDbLine
 10
2.779063306057459
 20
0.1600000174468406
 30
0.0
 11
2.796544689457459
 21
0.1600000174468406
 31
0.0
  0
LINE
  5
6A1
330
635
100
AcDbEntity
  8
Dimensions
100
AcDbLine
 10
-0.0000000151425397
 20
1.07000001744684
 30
0.0
 11
2.849368335957461
 21
1.069928489532294
 31
0.0
  0
LINE
  5
6A2
330
635
100
AcDbEntity
  8
Dimensions
100
AcDbLine
 10
2.619567939857459
 20
1.330000017446842
 30
0.0
 11
0.2298003809574602
 21
1.330000017446842
 31
0.0
  0
LINE
  5
6A3
330
635
100
AcDbEntity
  8
Dimensions
100
AcDbLine
 10
2.49968416045746
 20
1.35000001744684
 30
0.0
 11
0.3496841604574605
 21
1.35000001744684
 31
0.0
  0
LINE
  5
6A4
330
635
100
AcDbEntity
  8
Dimensions
100
AcDbLine
 10
0.389696156657461
 20
1.39000001744684
 30
0.0
 11
2.459658724957459
 21
1.39000001744684
 31
0.0
  0
LINE
  5
6A5
330
635
100
AcDbEntity
  8
Dimensions
100
AcDbLine
 10
0.2297952303574604
 20
1.330000017446842
 30
0.0
 11
-0.0000000151425397
 21
1.07000001744684
 31
0.0
  0
ARC
  5
6A6
330
635
100
AcDbEntity
  8
Dimensions
100
AcDbCircle
 10
0.3896841604574597
 20
1.35000001744684
 30
0.0
 40
0.04
100
AcDbArc
 50
89.99999999943891
 51
179.9999999991584
  0
LINE
  5
6A7
330
635
100
AcDbEntity
  8
Dimensions
100
AcDbLine
 10
0.3496841604574605
 20
1.35000001744684
 30
0.0
 11
0.3496841604574605
 21
1.330000017446842
 31
0.0
  0
LINE
  5
6A8
330
635
100
AcDbEntity
  8
Dimensions
100
AcDbLine
 10
2.61957309045746
 20
1.330000017446842
 30
0.0
 11
2.849368335957461
 21
1.069928489532294
 31
0.0
  0
ARC
  5
6A9
330
635
100
AcDbEntity
  8
Dimensions
100
AcDbCircle
 10
2.459684160457459
 20
1.35000001744684
 30
0.0
 40
0.04
100
AcDbArc
 50
359.9999999997194
 51
89.99999999943891
  0
LINE
  5
6AA
330
635
100
AcDbEntity
  8
Dimensions
100
AcDbLine
 10
2.49968416045746
 20
1.35000001744684
 30
0.0
 11
2.49968416045746
 21
1.330000017446842
 31
0.0
  0
ENDBLK
  5
6AB
330
635
100
AcDbEntity
  8
0
100
AcDbBlockEnd
  0
BLOCK
  5
11B8
330
11B1
100
AcDbEntity
  8
0
100
AcDbBlockBegin
  2
A$C04591C4E
 70
     0
 10
0.0
 20
0.0
 30
0.0
  3
A$C04591C4E
  1

  0
MTEXT
  5
11B2
330
11B1
100
AcDbEntity
  8
0
100
AcDbMText
 10
0.3171433408724198
 20
-0.7389514448316846
 30
0.0
 40
0.125
 41
0.6342866817448503
 71
     5
 72
     5
  1
2
 73
     1
 44
1.0
1001
ACAD
1000
MTEXTBEGIN
1070
    73
1070
     1
1070
    44
1040
1.0
1070
    74
1070
     0
1000
MTEXTEND
1000
ACAD_MTEXT_DEFINED_HEIGHT_BEGIN
1070
    46
1040
0.2499999999999993
1000
ACAD_MTEXT_DEFINED_HEIGHT_END
  0
MTEXT
  5
11B3
330
11B1
100
AcDbEntity
  8
0
100
AcDbMText
 10
2.81379436502096
 20
-0.7360126418230735
 30
0.0
 40
0.125
 41
4.359015366552219
 71
     5
 72
     5
  1
DIMENSIONS REMOVED, TERMINAL \PDESIGNATION CORRECTED
 73
     1
 44
1.0
1001
ACAD
1000
MTEXTBEGIN
1070
    73
1070
     1
1070
    44
1040
1.0
1070
    74
1070
     0
1000
MTEXTEND
1000
ACAD_MTEXT_DEFINED_HEIGHT_BEGIN
1070
    46
1040
0.1292633015006892
1000
ACAD_MTEXT_DEFINED_HEIGHT_END
  0
MTEXT
  5
11B4
330
11B1
100
AcDbEntity
  8
0
100
AcDbMText
 10
5.371651024148526
 20
-0.7389514448316846
 30
0.0
 40
0.125
 41
0.7566979517029218
 71
     5
 72
     5
  1
11/08
 73
     1
 44
1.0
1001
ACAD
1000
MTEXTBEGIN
1070
    73
1070
     1
1070
    44
1040
1.0
1070
    74
1070
     0
1000
MTEXTEND
1000
ACAD_MTEXT_DEFINED_HEIGHT_BEGIN
1070
    46
1040
0.25
1000
ACAD_MTEXT_DEFINED_HEIGHT_END
  0
LINE
  5
11B5
330
11B1
100
AcDbEntity
  8
0
100
AcDbLine
 10
0.0
 20
-1.0
 30
0.0
 11
5.75
 21
-1.0
 31
0.0
  0
ENDBLK
  5
11B9
330
11B1
100
AcDbEntity
  8
0
100
AcDbBlockEnd
  0
ENDSEC
  0
SECTION
  2
ENTITIES
  0
LINE
  5
955
330
19
100
AcDbEntity
  8
Part
100
AcDbLine
 10
56.93666641069843
 20
28.91660182391525
 30
0.0
 11
59.52308488022795
 21
28.91660182391525
 31
0.0
  0
LINE
  5
956
330
19
100
AcDbEntity
  8
Part
100
AcDbLine
 10
56.88028594479879
 20
29.10486230288658
 30
0.0
 11
59.52308488022795
 21
29.10486230288658
 31
0.0
  0
LINE
  5
957
330
19
100
AcDbEntity
  8
Part
100
AcDbLine
 10
57.39858371630493
 20
30.3246863647747
 30
0.0
 11
59.22256307860616
 21
30.3246863647747
 31
0.0
  0
LINE
  5
958
330
19
100
AcDbEntity
  8
Part
100
AcDbLine
 10
57.72300853995634
 20
30.51596706533381
 30
0.0
 11
58.89813825495473
 21
30.51596706533381
 31
0.0
  0
LINE
  5
959
330
19
100
AcDbEntity
  8
Dimensions
100
AcDbLine
 10
57.65619205343753
 20
29.5998331837086
 30
0.0
 11
57.94436911371017
 21
29.5998331837086
 31
0.0
  0
LINE
  5
95A
330
19
100
AcDbEntity
  8
Part
100
AcDbLine
 10
56.87645631778531
 20
29.11659772966454
 30
0.0
 11
59.74469047722644
 21
29.11659772966454
 31
0.0
  0
CIRCLE
  5
95B
330
19
100
AcDbEntity
  8
Part
100
AcDbCircle
 10
57.65619205343753
 20
29.5998331837086
 30
0.0
 40
0.2199728056429744
  0
LINE
  5
95C
330
19
100
AcDbEntity
  8
Part
100
AcDbLine
 10
55.81023996379929
 20
30.14482526961057
 30
0.0
 11
55.81023996379929
 21
29.01425565525332
 31
0.0
  0
LINE
  5
95D
330
19
100
AcDbEntity
  8
Part
100
AcDbLine
 10
55.62197948482797
 20
28.91660182391525
 30
0.0
 11
55.62197948482797
 21
30.14482526961057
 31
0.0
  0
LINE
  5
95E
330
19
100
AcDbEntity
  8
Part
100
AcDbLine
 10
56.87645631778531
 20
29.11659772966454
 30
0.0
 11
56.87645631778531
 21
32.9422117408467
 31
0.0
  0
LINE
  5
96A
330
19
100
AcDbEntity
  8
Part
100
AcDbLine
 10
57.39858371630493
 20
29.11659772966454
 30
0.0
 11
57.39858371630493
 21
30.3246863647747
 31
0.0
  0
ARC
  5
96B
330
19
100
AcDbEntity
  8
Part
100
AcDbCircle
 10
56.67510754862617
 20
28.91660182391525
 30
0.0
 40
0.1812132952665235
100
AcDbArc
 50
270.0000000005609
 51
330.0000000003739
  0
LINE
  5
96C
330
19
100
AcDbEntity
  8
Part
100
AcDbLine
 10
56.69719474138847
 20
28.9689523314367
 30
0.0
 11
56.72335062767624
 21
29.01425565525332
 31
0.0
  0
LINE
  5
96D
330
19
100
AcDbEntity
  8
Part
100
AcDbLine
 10
55.90084661143257
 20
28.92364900762006
 30
0.0
 11
56.61872708282718
 21
28.92364900762006
 31
0.0
  0
LINE
  5
96E
330
19
100
AcDbEntity
  8
Part
100
AcDbLine
 10
56.67510754862616
 20
28.73538852864873
 30
0.0
 11
55.80319278009451
 21
28.73538852864873
 31
0.0
  0
ARC
  5
96F
330
19
100
AcDbEntity
  8
Part
100
AcDbCircle
 10
55.80319278009451
 20
28.91660182391525
 30
0.0
 40
0.1812132952665235
100
AcDbArc
 50
180.0000000008415
 51
270.0000000005609
  0
ARC
  5
970
330
19
100
AcDbEntity
  8
Part
100
AcDbCircle
 10
55.90084661143257
 20
29.01425565525332
 30
0.0
 40
0.0906066476332618
100
AcDbArc
 50
180.0000000008415
 51
270.0000000005609
  0
ARC
  5
971
330
19
100
AcDbEntity
  8
Part
100
AcDbCircle
 10
56.61872708282718
 20
29.01425565525332
 30
0.0
 40
0.0906066476332618
100
AcDbArc
 50
270.0000000005609
 51
330.0000000003739
  0
LINE
  5
972
330
19
100
AcDbEntity
  8
Part
100
AcDbLine
 10
56.85819875203648
 20
28.87129850009862
 30
0.0
 11
56.83204286584938
 21
28.82599517628199
 31
0.0
  0
ARC
  5
973
330
19
100
AcDbEntity
  8
Part
100
AcDbCircle
 10
56.93666641069843
 20
28.82599517628199
 30
0.0
 40
0.0906066476332618
100
AcDbArc
 50
90.00000000112191
 51
150.0000000009349
  0
ARC
  5
974
330
19
100
AcDbEntity
  8
Part
100
AcDbCircle
 10
56.88028594479879
 20
28.92364900762006
 30
0.0
 40
0.1812132952665235
100
AcDbArc
 50
90.00000000112191
 51
150.0000000009349
  0
LINE
  5
97A
330
19
100
AcDbEntity
  8
Part
100
AcDbLine
 10
57.83740534870407
 20
30.51596706533381
 30
0.0
 11
57.83740534870407
 21
32.9422117408467
 31
0.0
  0
LINE
  5
97B
330
19
100
AcDbEntity
  8
Dimensions
  6
CENTER
 48
0.4
100
AcDbLine
 10
55.47684340208689
 20
29.63761081688808
 30
0.0
 11
55.93992959119804
 21
29.63761081688808
 31
0.0
  0
LINE
  5
97C
330
19
100
AcDbEntity
  8
Dimensions
  6
DASHED
 48
0.4
100
AcDbLine
 10
55.61752782091517
 20
29.4501936306445
 30
0.0
 11
55.8109688830849
 21
29.4501936306445
 31
0.0
  0
LINE
  5
97E
330
19
100
AcDbEntity
  8
Dimensions
  6
DASHED
 48
0.4
100
AcDbLine
 10
55.61752782091517
 20
29.81917124497913
 30
0.0
 11
55.8109688830849
 21
29.81917124497913
 31
0.0
  0
LINE
  5
97F
330
19
100
AcDbEntity
  8
Part
100
AcDbLine
 10
55.62197948482797
 20
30.14482526961057
 30
0.0
 11
55.81023996379929
 21
30.14482526961057
 31
0.0
  0
LINE
  5
980
330
19
100
AcDbEntity
  8
Dimensions
100
AcDbLine
 10
57.65619205343753
 20
29.5998331837086
 30
0.0
 11
57.65619205343753
 21
29.90433545401913
 31
0.0
  0
LINE
  5
982
330
19
100
AcDbEntity
  8
Dimensions
100
AcDbLine
 10
57.65619205343753
 20
29.5998331837086
 30
0.0
 11
57.65619205343753
 21
29.27918632513978
 31
0.0
  0
LINE
  5
983
330
19
100
AcDbEntity
  8
Dimensions
100
AcDbLine
 10
57.65619205343753
 20
29.5998331837086
 30
0.0
 11
57.33554519486872
 21
29.5998331837086
 31
0.0
  0
TEXT
  5
984
330
19
100
AcDbEntity
  8
Label
100
AcDbText
 10
57.53329537064395
 20
30.0010016481348
 30
0.0
 40
0.1006740529258464
  1
OUT
 41
1.017349063150615
 72
     5
 11
57.83531752942149
 21
30.0010016481348
 31
0.0
100
AcDbText
  0
LINE
  5
985
330
19
100
AcDbEntity
  8
Part
100
AcDbLine
 10
57.72300853995634
 20
30.3246863647747
 30
0.0
 11
57.72300853995634
 21
30.51596706533381
 31
0.0
  0
LINE
  5
986
330
19
100
AcDbEntity
  8
Part
100
AcDbLine
 10
70.53181352458522
 20
28.93183248976022
 30
0.0
 11
70.53181352458522
 21
30.16987950949281
 31
0.0
  0
LINE
  5
987
330
19
100
AcDbEntity
  8
Part
100
AcDbLine
 10
67.00235976194649
 20
28.93183248976022
 30
0.0
 11
67.00235976194649
 21
30.15170041805296
 31
0.0
  0
LINE
  5
988
330
19
100
AcDbEntity
  8
Part
100
AcDbLine
 10
69.40886269038468
 20
29.11659772966454
 30
0.0
 11
69.40886269038468
 21
29.24244029582185
 31
0.0
  0
LINE
  5
989
330
19
100
AcDbEntity
  8
Part
100
AcDbLine
 10
69.31523582116361
 20
29.11659772966454
 30
0.0
 11
69.31523582116361
 21
29.24244029582185
 31
0.0
  0
LINE
  5
9A0
330
19
100
AcDbEntity
  8
Part
100
AcDbLine
 10
59.22256307860616
 20
29.11659772966454
 30
0.0
 11
59.22256307860616
 21
30.3246863647747
 31
0.0
  0
LINE
  5
9A7
330
19
100
AcDbEntity
  8
Part
100
AcDbLine
 10
67.65059035603474
 20
29.11659772966454
 30
0.0
 11
67.65059035603474
 21
30.3246863647747
 31
0.0
  0
LINE
  5
9BC
330
19
100
AcDbEntity
  8
Part
100
AcDbLine
 10
70.19261019241239
 20
29.11659772966454
 30
0.0
 11
70.19261019241239
 21
29.92199015307131
 31
0.0
  0
LWPOLYLINE
  5
9BD
330
19
100
AcDbEntity
  8
Part
  6
Continuous
100
AcDbPolyline
 90
        4
 70
     1
 43
0.0
 10
58.16413928843473
 20
28.81762292967555
 10
58.45816821460132
 20
28.81762292967555
 10
58.45816821460132
 20
28.7322232213514
 10
58.16413928843473
 20
28.7322232213514
  0
LWPOLYLINE
  5
9BE
330
19
100
AcDbEntity
  8
Part
  6
Continuous
100
AcDbPolyline
 90
        4
 70
     1
 43
0.0
 10
58.09027691954645
 20
28.87227874782771
 10
58.54157712171041
 20
28.87227874782771
 10
58.54157712171041
 20
28.81762292967555
 10
58.09027691954645
 20
28.81762292967555
  0
LWPOLYLINE
  5
9BF
330
19
100
AcDbEntity
  8
Part
  6
Continuous
100
AcDbPolyline
 90
        4
 70
     1
 43
0.0
 10
58.14156107710498
 20
28.91327060139037
 10
58.48687403684589
 20
28.91327060139037
 10
58.48687403684589
 20
28.87227874782771
 10
58.14156107710498
 20
28.87227874782771
  0
LINE
  5
9C2
330
19
100
AcDbEntity
  8
Part
100
AcDbLine
 10
59.5230990357045
 20
29.10486230288658
 30
0.0
 11
59.5230990357045
 21
28.91660182391525
 31
0.0
  0
LWPOLYLINE
  5
9C3
330
19
100
AcDbEntity
  8
Part
  6
Continuous
100
AcDbPolyline
 90
        4
 70
     1
 43
0.0
 10
67.00198275287289
 20
28.92758942580849
 10
70.5317467243417
 20
28.92758942580849
 10
70.5317467243417
 20
28.74064477913868
 10
67.00198275287289
 20
28.74064477913868
  0
LINE
  5
9C4
330
19
100
AcDbEntity
  8
Part
100
AcDbLine
 10
67.00235976194649
 20
28.93183248976022
 30
0.0
 11
70.53181352458522
 21
28.93183248976022
 31
0.0
  0
LINE
  5
9C5
330
19
100
AcDbEntity
  8
Part
100
AcDbLine
 10
67.00822167218061
 20
29.11304578502674
 30
0.0
 11
70.53181352458522
 21
29.11304578502674
 31
0.0
  0
LINE
  5
9C6
330
19
100
AcDbEntity
  8
Part
100
AcDbLine
 10
68.83321741524203
 20
29.11659772966454
 30
0.0
 11
69.31523582116361
 21
29.11659772966454
 31
0.0
  0
LWPOLYLINE
  5
9C7
330
19
100
AcDbEntity
  8
Part
  6
Continuous
100
AcDbPolyline
 90
        4
 70
     1
 43
0.0
 10
67.75385699175247
 20
28.92809984925308
 10
68.09916995149335
 20
28.92809984925308
 10
68.09916995149335
 20
28.88710799569042
 10
67.75385699175247
 20
28.88710799569042
  0
LWPOLYLINE
  5
9C8
330
19
100
AcDbEntity
  8
Part
  6
Continuous
100
AcDbPolyline
 90
        4
 70
     1
 43
0.0
 10
67.70257283419393
 20
28.88710799569042
 10
68.15387303635789
 20
28.88710799569042
 10
68.15387303635789
 20
28.83245217753827
 10
67.70257283419393
 20
28.83245217753827
  0
LINE
  5
9C9
330
19
100
AcDbEntity
  8
Part
100
AcDbLine
 10
67.65059035603474
 20
29.11659772966454
 30
0.0
 11
68.83181202569868
 21
29.11659772966454
 31
0.0
  0
LWPOLYLINE
  5
9CA
330
19
100
AcDbEntity
  8
Part
  6
Continuous
100
AcDbPolyline
 90
        4
 70
     1
 43
0.0
 10
67.77643520308221
 20
28.83245217753827
 10
68.07046412924883
 20
28.83245217753827
 10
68.07046412924883
 20
28.74100024550925
 10
67.77643520308221
 20
28.74100024550925
  0
LWPOLYLINE
  5
9CC
330
19
100
AcDbEntity
  8
Part
  6
Continuous
100
AcDbPolyline
 90
        4
 70
     1
 43
0.0
 10
69.47090944378145
 20
28.92844216101475
 10
69.81622240352233
 20
28.92844216101475
 10
69.81622240352233
 20
28.88745030745209
 10
69.47090944378145
 20
28.88745030745209
  0
LWPOLYLINE
  5
9CD
330
19
100
AcDbEntity
  8
Part
  6
Continuous
100
AcDbPolyline
 90
        4
 70
     1
 43
0.0
 10
69.41962528622291
 20
28.88745030745209
 10
69.87092548838687
 20
28.88745030745209
 10
69.87092548838687
 20
28.83279448929993
 10
69.41962528622291
 20
28.83279448929993
  0
LINE
  5
9CE
330
19
100
AcDbEntity
  8
Part
100
AcDbLine
 10
69.40886269038468
 20
29.11659772966454
 30
0.0
 11
70.1925951229161
 21
29.11659772966454
 31
0.0
  0
LWPOLYLINE
  5
9CF
330
19
100
AcDbEntity
  8
Part
  6
Continuous
100
AcDbPolyline
 90
        4
 70
     1
 43
0.0
 10
69.49348765511119
 20
28.83279448929993
 10
69.78751658127778
 20
28.83279448929993
 10
69.78751658127778
 20
28.74100028533295
 10
69.49348765511119
 20
28.74100028533295
  0
LINE
  5
9D2
330
19
100
AcDbEntity
  8
Part
100
AcDbLine
 10
66.74452387970216
 20
30.51596706533381
 30
0.0
 11
67.44924225018308
 21
30.51596706533381
 31
0.0
  0
LINE
  5
9D3
330
19
100
AcDbEntity
  8
Part
100
AcDbLine
 10
66.74452387970216
 20
32.9422117408467
 30
0.0
 11
70.19261019241239
 21
32.9422117408467
 31
0.0
  0
LINE
  5
9D8
330
19
100
AcDbEntity
  8
Part
100
AcDbLine
 10
59.74469047722644
 20
29.11659772966454
 30
0.0
 11
59.74469047722644
 21
32.9422117408467
 31
0.0
  0
LINE
  5
9D9
330
19
100
AcDbEntity
  8
Part
100
AcDbLine
 10
66.74452387970216
 20
30.51596706533381
 30
0.0
 11
66.74452387970216
 21
32.9422117408467
 31
0.0
  0
LINE
  5
9DD
330
19
100
AcDbEntity
  8
Part
100
AcDbLine
 10
58.78374144620702
 20
30.51596706533381
 30
0.0
 11
58.78374144620702
 21
32.9422117408467
 31
0.0
  0
CIRCLE
  5
9E2
330
19
100
AcDbEntity
  8
Part
100
AcDbCircle
 10
58.31057339745552
 20
32.11668450685476
 30
0.0
 40
0.3538692960343501
  0
LINE
  5
9E3
330
19
100
AcDbEntity
  8
Dimensions
100
AcDbLine
 10
58.31057339745552
 20
32.11668450685476
 30
0.0
 11
58.31057339745552
 21
31.68229183570764
 31
0.0
  0
TEXT
  5
9E5
330
19
100
AcDbEntity
  8
Label
100
AcDbText
 10
58.86046251706722
 20
29.99650576742081
 30
0.0
 40
0.1006740529258464
  1
IN
 41
1.431640625000052
 72
     5
 11
59.06181062291892
 21
29.99650576742081
 31
0.0
100
AcDbText
  0
LINE
  5
9E7
330
19
100
AcDbEntity
  8
Dimensions
100
AcDbLine
 10
58.96495474147354
 20
29.5998331837086
 30
0.0
 11
59.26250988744808
 21
29.5998331837086
 31
0.0
  0
CIRCLE
  5
9E8
330
19
100
AcDbEntity
  8
Part
100
AcDbCircle
 10
58.96495474147354
 20
29.5998331837086
 30
0.0
 40
0.2199728056429744
  0
LINE
  5
9E9
330
19
100
AcDbEntity
  8
Dimensions
100
AcDbLine
 10
58.96495474147354
 20
29.5998331837086
 30
0.0
 11
58.96495474147354
 21
29.92048004227742
 31
0.0
  0
TEXT
  5
9EA
330
19
100
AcDbEntity
  8
Label
100
AcDbText
 10
57.97029347600247
 20
29.66031041496322
 30
0.0
 40
0.1006740529258464
  1
1/4-NPT
 41
1.345836065573772
 72
     5
 11
58.6750118464834
 21
29.66031041496322
 31
0.0
100
AcDbText
  0
LINE
  5
9EB
330
19
100
AcDbEntity
  8
Dimensions
100
AcDbLine
 10
58.96495474147354
 20
29.5998331837086
 30
0.0
 11
58.96495474147354
 21
29.27918632513978
 31
0.0
  0
LINE
  5
9EC
330
19
100
AcDbEntity
  8
Dimensions
100
AcDbLine
 10
58.96495474147354
 20
29.5998331837086
 30
0.0
 11
58.65512324411036
 21
29.5998331837086
 31
0.0
  0
LINE
  5
9ED
330
19
100
AcDbEntity
  8
Part
100
AcDbLine
 10
58.89813825495473
 20
30.3246863647747
 30
0.0
 11
58.89813825495473
 21
30.51596706533381
 31
0.0
  0
TEXT
  5
A15
330
19
100
AcDbEntity
  8
Label
100
AcDbText
 10
57.9557521365367
 20
31.52653383086977
 30
0.0
 40
0.1006740529258464
  1
1/2-NPT
 41
1.345836065573772
 72
     5
 11
58.66047050701762
 21
31.52653383086977
 31
0.0
100
AcDbText
  0
LINE
  5
A16
330
19
100
AcDbEntity
  8
Dimensions
100
AcDbLine
 10
58.31057339745552
 20
32.11668450685476
 30
0.0
 11
58.72878587935499
 21
32.11668450685476
 31
0.0
  0
LINE
  5
A17
330
19
100
AcDbEntity
  8
Dimensions
100
AcDbLine
 10
58.31057339745552
 20
32.11668450685476
 30
0.0
 11
58.31057339745552
 21
32.53827883709234
 31
0.0
  0
LINE
  5
A18
330
19
100
AcDbEntity
  8
Dimensions
100
AcDbLine
 10
58.31057339745552
 20
32.11668450685476
 30
0.0
 11
57.87731930169915
 21
32.11668450685476
 31
0.0
  0
LINE
  5
A21
330
19
100
AcDbEntity
  8
Part
100
AcDbLine
 10
70.19261019241239
 20
29.92199015307131
 30
0.0
 11
70.19261019241239
 21
32.9422117408467
 31
0.0
  0
LINE
  5
A33
330
19
100
AcDbEntity
  8
Dimensions
100
AcDbLine
 10
67.40505597364988
 20
29.90628204297967
 30
0.0
 11
67.40505597364988
 21
29.36999742187011
 31
0.0
  0
CIRCLE
  5
A34
330
19
100
AcDbEntity
  8
Part
100
AcDbCircle
 10
67.40505597364988
 20
29.65348358283725
 30
0.0
 40
0.188763849235962
  0
LINE
  5
A35
330
19
100
AcDbEntity
  8
Dimensions
100
AcDbLine
 10
67.40505597364988
 20
29.65348358283725
 30
0.0
 11
67.71720218855505
 21
29.65348358283725
 31
0.0
  0
LINE
  5
A36
330
19
100
AcDbEntity
  8
Dimensions
100
AcDbLine
 10
67.40505597364988
 20
29.65348358283725
 30
0.0
 11
67.11561807148807
 21
29.65348358283725
 31
0.0
  0
LINE
  5
A37
330
19
100
AcDbEntity
  8
Dimensions
100
AcDbLine
 10
67.40505597364988
 20
29.59894616615431
 30
0.0
 11
67.40505597364988
 21
29.88838406831612
 31
0.0
  0
LINE
  5
A38
330
19
100
AcDbEntity
  8
Part
  6
Continuous
100
AcDbLine
 10
67.00235976194649
 20
30.15685384746649
 30
0.0
 11
67.65537006576678
 21
30.15685384746649
 31
0.0
  0
LINE
  5
A39
330
19
100
AcDbEntity
  8
Part
100
AcDbLine
 10
67.44924225018308
 20
30.3246863647747
 30
0.0
 11
67.65059035603474
 21
30.3246863647747
 31
0.0
  0
LINE
  5
A3A
330
19
100
AcDbEntity
  8
Part
100
AcDbLine
 10
67.44924225018308
 20
30.3246863647747
 30
0.0
 11
67.44924225018308
 21
30.51596706533381
 31
0.0
  0
ARC
  5
A3B
330
19
100
AcDbEntity
  8
Part
100
AcDbCircle
 10
68.30497170005279
 20
29.82131610014547
 30
0.0
 40
0.091613388162521
100
AcDbArc
 50
106.3073717023444
 51
253.6926283042078
  0
ARC
  5
A3C
330
19
100
AcDbEntity
  8
Part
100
AcDbCircle
 10
68.30497170005277
 20
29.82131610014547
 30
0.0
 40
0.0916133881625203
100
AcDbArc
 50
253.6926283042095
 51
106.3073716935465
  0
LWPOLYLINE
  5
A3D
330
19
100
AcDbEntity
  8
Part
100
AcDbPolyline
 90
        4
 70
     1
 43
0.0
 10
68.61179747738463
 20
29.75028743975726
 10
68.90469407913172
 20
29.75028743975726
 10
68.90469407913172
 20
29.44986111029157
 10
68.61179747738463
 20
29.44986111029157
  0
CIRCLE
  5
A3E
330
19
100
AcDbEntity
  8
Part
100
AcDbCircle
 10
68.75800493821905
 20
29.5998331837086
 30
0.0
 40
0.2199728056429744
  0
LINE
  5
A40
330
19
100
AcDbEntity
  8
Dimensions
100
AcDbLine
 10
70.12911731288183
 20
29.66519717032405
 30
0.0
 11
70.41855521504364
 21
29.66519717032405
 31
0.0
  0
LINE
  5
A41
330
19
100
AcDbEntity
  8
Part
100
AcDbLine
 10
70.53181352458522
 20
30.16856743495328
 30
0.0
 11
70.19355173441564
 21
30.16987958067448
 31
0.0
  0
LINE
  5
A42
330
19
100
AcDbEntity
  8
Part
100
AcDbLine
 10
69.31523582116361
 20
29.24244029582185
 30
0.0
 11
69.40886269038468
 21
29.24244029582185
 31
0.0
  0
ARC
  5
A43
330
19
100
AcDbEntity
  8
Part
  6
DASHED
 48
0.3
100
AcDbCircle
 10
70.12911731288183
 20
29.66519717032405
 30
0.0
 40
0.1912807005591082
100
AcDbArc
 50
70.61369756878881
 51
289.3863024312113
  0
ARC
  5
A44
330
19
100
AcDbEntity
  8
Part
100
AcDbCircle
 10
70.12911731288183
 20
29.66519717032405
 30
0.0
 40
0.188763849235962
100
AcDbArc
 50
289.6553474875678
 51
70.34465251243172
  0
LINE
  5
A45
330
19
100
AcDbEntity
  8
Dimensions
100
AcDbLine
 10
70.12911731288183
 20
29.66519717032405
 30
0.0
 11
69.84055037564925
 21
29.66519717032405
 31
0.0
  0
LINE
  5
A4A
330
19
100
AcDbEntity
  8
Part
  6
Continuous
100
AcDbLine
 10
58.00304452653278
 20
38.23016590116881
 30
0.0
 11
57.84211593918113
 21
38.1389069118143
 31
0.0
  0
LWPOLYLINE
  5
A4B
330
19
100
AcDbEntity
  8
Part
  6
Continuous
100
AcDbPolyline
 90
        6
 70
     1
 43
0.0
 10
57.93200399485288
 20
38.0635820233319
 10
58.02193767992813
 20
38.11611501768322
 10
58.02140961482066
 20
38.22026637079002
 10
57.9309478646379
 20
38.2718847295455
 10
57.84101417956263
 20
38.21935173519416
 10
57.84154224467012
 20
38.11520038208737
  0
CIRCLE
  5
A4C
330
19
100
AcDbEntity
  8
Part
  6
Continuous
100
AcDbCircle
 10
57.93147592974539
 20
38.16773337643871
 30
0.0
 40
0.1160039094224981
  0
MTEXT
  5
A4D
330
19
100
AcDbEntity
  8
Label
  6
Continuous
100
AcDbMText
 10
57.42768491937738
 20
38.87960686746558
 30
0.0
 40
0.0805392423406772
 41
1.171443279845147
 71
     1
 72
     5
  1
\fArial|b0|i0|c0|p34;CURRENT TO
 73
     1
 44
1.0
1001
ACAD
1000
MTEXTBEGIN
1070
    73
1070
     1
1070
    44
1040
1.0
1070
    74
1070
     0
1000
MTEXTEND
  0
MTEXT
  5
A4E
330
19
100
AcDbEntity
  8
Label
  6
Continuous
100
AcDbMText
 10
57.42175553394707
 20
38.74927284876188
 30
0.0
 40
0.0805392423406772
 41
1.533138898339965
 71
     1
 72
     5
  1
\fArial|b0|i0|c0|p34;PRESSURE TRANSMITTER
 73
     1
 44
1.0
1001
ACAD
1000
MTEXTBEGIN
1070
    73
1070
     1
1070
    44
1040
1.0
1070
    74
1070
     0
1000
MTEXTEND
  0
MTEXT
  5
A4F
330
19
100
AcDbEntity
  8
Label
  6
Continuous
100
AcDbMText
 10
57.69193367774732
 20
39.48657911580524
 30
0.0
 40
0.0805392423406772
 41
0.3083646241118676
 71
     1
 72
     5
  1
\fArial|b0|i0|c0|p34;ZERO
 73
     1
 44
1.0
1001
ACAD
1000
MTEXTBEGIN
1070
    73
1070
     1
1070
    44
1040
1.0
1070
    74
1070
     0
1000
MTEXTEND
  0
LINE
  5
A50
330
19
100
AcDbEntity
  8
Part
  6
Continuous
100
AcDbLine
 10
57.87740778907336
 20
39.66438752806574
 30
0.0
 11
57.83698708293764
 21
39.63369428530769
 31
0.0
  0
LINE
  5
A51
330
19
100
AcDbEntity
  8
Part
  6
Continuous
100
AcDbLine
 10
57.86447317539053
 20
39.67731095678101
 30
0.0
 11
57.82728613802628
 21
39.64823320234793
 31
0.0
  0
CIRCLE
  5
A52
330
19
100
AcDbEntity
  8
Part
  6
Continuous
100
AcDbCircle
 10
57.85008004718679
 20
39.65747794260832
 30
0.0
 40
0.0283773848115682
  0
ARC
  5
A53
330
19
100
AcDbEntity
  8
Part
100
AcDbCircle
 10
58.27291106947533
 20
39.13397286739392
 30
0.0
 40
1.208088635110155
100
AcDbArc
 50
94.46882566872782
 51
125.6853347134301
  0
CIRCLE
  5
A54
330
19
100
AcDbEntity
  8
Part
100
AcDbCircle
 10
57.85008004718679
 20
39.65747794260832
 30
0.0
 40
0.1097347176891726
  0
LINE
  5
A55
330
19
100
AcDbEntity
  8
Part
100
AcDbLine
 10
57.34381445750185
 20
38.550063360424
 30
0.0
 11
59.19911235639311
 21
38.550063360424
 31
0.0
  0
LINE
  5
A56
330
19
100
AcDbEntity
  8
Part
100
AcDbLine
 10
57.39201310637415
 20
38.41918709162041
 30
0.0
 11
59.15347815598567
 21
38.41918709162041
 31
0.0
  0
LINE
  5
A57
330
19
100
AcDbEntity
  8
Part
100
AcDbLine
 10
57.43932991124932
 20
39.85882604846001
 30
0.0
 11
59.21421346433199
 21
39.85882604846001
 31
0.0
  0
LINE
  5
A59
330
19
100
AcDbEntity
  8
Part
100
AcDbLine
 10
57.81066706623438
 20
37.10058841542472
 30
0.0
 11
58.75700316373731
 21
37.10058841542472
 31
0.0
  0
ARC
  5
A5B
330
19
100
AcDbEntity
  8
Part
100
AcDbCircle
 10
58.28383511498585
 20
39.11406947394165
 30
0.0
 40
1.434605254193314
100
AcDbArc
 50
125.6234805428514
 51
54.3765194571475
  0
ARC
  5
A5C
330
19
100
AcDbEntity
  8
Part
100
AcDbCircle
 10
58.27291106947533
 20
39.13397286739392
 30
0.0
 40
1.097347176891724
100
AcDbArc
 50
148.6787545648586
 51
214.6670997153529
  0
LINE
  5
A5E
330
19
100
AcDbEntity
  8
Part
100
AcDbLine
 10
55.63347775162946
 20
37.38118283108786
 30
0.0
 11
55.63347775162946
 21
40.90477468349249
 31
0.0
  0
LINE
  5
A60
330
19
100
AcDbEntity
  8
Part
100
AcDbLine
 10
55.91234487823406
 20
37.38118283108786
 30
0.0
 11
55.91234487823406
 21
40.90477468349249
 31
0.0
  0
LINE
  5
A61
330
19
100
AcDbEntity
  8
Part
100
AcDbLine
 10
56.63022534962871
 20
37.38118283108786
 30
0.0
 11
56.63022534962871
 21
40.90477468349249
 31
0.0
  0
LINE
  5
A64
330
19
100
AcDbEntity
  8
Part
100
AcDbLine
 10
57.83080187681954
 20
37.40261057420228
 30
0.0
 11
57.83080187681954
 21
37.30193652127641
 31
0.0
  0
ARC
  5
A65
330
19
100
AcDbEntity
  8
Part
100
AcDbCircle
 10
57.25747081733495
 20
37.63286796340248
 30
0.0
 40
0.251685132314616
100
AcDbArc
 50
270.0
 51
329.9999999998129
  0
LINE
  5
A66
330
19
100
AcDbEntity
  8
Part
100
AcDbLine
 10
57.73012782389368
 20
37.25159949481348
 30
0.0
 11
57.78046485035662
 21
37.25159949481348
 31
0.0
  0
LINE
  5
A67
330
19
100
AcDbEntity
  8
Part
100
AcDbLine
 10
57.83080187681954
 20
37.30193652127641
 30
0.0
 11
57.73012782389368
 21
37.30193652127641
 31
0.0
  0
LINE
  5
A68
330
19
100
AcDbEntity
  8
Part
100
AcDbLine
 10
57.73012782389368
 20
37.30193652127641
 30
0.0
 11
57.73012782389368
 21
37.25159949481348
 31
0.0
  0
LINE
  5
A69
330
19
100
AcDbEntity
  8
Part
100
AcDbLine
 10
57.81066706623438
 20
37.10058841542472
 30
0.0
 11
57.78046485035662
 21
37.13079063130248
 31
0.0
  0
LINE
  5
A6A
330
19
100
AcDbEntity
  8
Part
100
AcDbLine
 10
57.78046485035662
 20
37.25159949481348
 30
0.0
 11
57.78046485035662
 21
37.13079063130248
 31
0.0
  0
LINE
  5
A6B
330
19
100
AcDbEntity
  8
Part
100
AcDbLine
 10
55.63347775162946
 20
37.38118283108786
 30
0.0
 11
57.25747081733495
 21
37.38118283108786
 31
0.0
  0
CIRCLE
  5
A6C
330
19
100
AcDbEntity
  8
Part
100
AcDbCircle
 10
56.2576568797697
 20
37.78387904279126
 30
0.0
 40
0.188763849235962
  0
LINE
  5
A6D
330
19
100
AcDbEntity
  8
Part
100
AcDbLine
 10
56.89178421160029
 20
38.76724600624872
 30
0.0
 11
56.89178421160028
 21
37.38118283108786
 31
0.0
  0
LINE
  5
A6F
330
19
100
AcDbEntity
  8
Part
100
AcDbLine
 10
57.78046485035662
 20
37.77067429305711
 30
0.0
 11
57.78046485035662
 21
37.45294760066519
 31
0.0
  0
LINE
  5
A70
330
19
100
AcDbEntity
  8
Part
100
AcDbLine
 10
57.47543653572853
 20
37.50702539724518
 30
0.0
 11
57.65797065465463
 21
37.8231837653472
 31
0.0
  0
LINE
  5
A71
330
19
100
AcDbEntity
  8
Part
100
AcDbLine
 10
57.78046485035662
 20
37.45294760066519
 30
0.0
 11
57.73012782389368
 21
37.45294760066519
 31
0.0
  0
LINE
  5
A72
330
19
100
AcDbEntity
  8
Part
100
AcDbLine
 10
57.73012782389368
 20
37.40261057420228
 30
0.0
 11
57.83080187681954
 21
37.40261057420228
 31
0.0
  0
LINE
  5
A73
330
19
100
AcDbEntity
  8
Part
100
AcDbLine
 10
57.73012782389368
 20
37.45294760066519
 30
0.0
 11
57.73012782389368
 21
37.40261057420228
 31
0.0
  0
LINE
  5
A7F
330
19
100
AcDbEntity
  8
Part
100
AcDbLine
 10
57.39201310637415
 20
38.42270721626425
 30
0.0
 11
57.39201310637415
 21
38.550063360424
 31
0.0
  0
LINE
  5
A80
330
19
100
AcDbEntity
  8
Part
100
AcDbLine
 10
57.3703750631471
 20
38.50979373925365
 30
0.0
 11
57.39201310637415
 21
38.50979373925365
 31
0.0
  0
LINE
  5
A82
330
19
100
AcDbEntity
  8
Part
100
AcDbLine
 10
56.89178421160028
 20
40.90477468349249
 30
0.0
 11
56.89178421160028
 21
39.46089294163454
 31
0.0
  0
LINE
  5
A87
330
19
100
AcDbEntity
  8
Part
100
AcDbLine
 10
56.89178421160028
 20
38.85653764644541
 30
0.0
 11
56.89178421160028
 21
38.85645219536905
 31
0.0
  0
ARC
  5
AA7
330
19
100
AcDbEntity
  8
Part
100
AcDbCircle
 10
57.43932991124932
 20
39.79640813564599
 30
0.0
 40
0.0624179128140248
100
AcDbArc
 50
90.00000000084162
 51
180.0000000005609
  0
ARC
  5
AA8
330
19
100
AcDbEntity
  8
Part
100
AcDbCircle
 10
58.2729110694748
 20
39.13397286739428
 30
0.0
 40
1.0973471768911
100
AcDbArc
 50
138.7468645581865
 51
148.6787545648613
  0
ARC
  5
AA9
330
19
100
AcDbEntity
  8
Part
100
AcDbCircle
 10
57.43026924648599
 20
39.80546880040932
 30
0.0
 40
0.0936268692210372
100
AcDbArc
 50
90.00000000084162
 51
180.0000000005609
  0
LINE
  5
AAA
330
19
100
AcDbEntity
  8
Part
100
AcDbLine
 10
57.33664237726496
 20
39.80546880040932
 30
0.0
 11
57.33664237726496
 21
39.70631172036384
 31
0.0
  0
LINE
  5
AAB
330
19
100
AcDbEntity
  8
Part
100
AcDbLine
 10
57.37691199843529
 20
39.7674998923326
 30
0.0
 11
57.37691199843529
 21
39.79640813564599
 31
0.0
  0
LINE
  5
AAC
330
19
100
AcDbEntity
  8
Part
100
AcDbLine
 10
57.56819269899438
 20
39.89909566963035
 30
0.0
 11
57.43026924648599
 21
39.89909566963035
 31
0.0
  0
LINE
  5
AAD
330
19
100
AcDbEntity
  8
Part
100
AcDbLine
 10
57.56819269899438
 20
39.85882604846001
 30
0.0
 11
57.56819269899438
 21
40.11522215713979
 31
0.0
  0
LINE
  5
AAE
330
19
100
AcDbEntity
  8
Part
100
AcDbLine
 10
55.63347775162946
 20
40.90477468349249
 30
0.0
 11
57.25747081733495
 21
40.90477468349249
 31
0.0
  0
CIRCLE
  5
AAF
330
19
100
AcDbEntity
  8
Part
100
AcDbCircle
 10
56.2576568797697
 20
40.5020784717891
 30
0.0
 40
0.188763849235962
  0
ARC
  5
AB0
330
19
100
AcDbEntity
  8
Part
100
AcDbCircle
 10
57.25747081733495
 20
40.65308955117788
 30
0.0
 40
0.251685132314616
100
AcDbArc
 50
29.99999999962588
 51
89.99999999943906
  0
LINE
  5
AB1
330
19
100
AcDbEntity
  8
Part
100
AcDbLine
 10
57.68419867270279
 20
40.41734548939086
 30
0.0
 11
57.47543653572853
 21
40.77893211733518
 31
0.0
  0
LINE
  5
AB2
330
19
100
AcDbEntity
  8
Part
100
AcDbLine
 10
57.58415044715121
 20
40.36648058892715
 30
0.0
 11
57.53884712333458
 21
40.34117097557412
 31
0.0
  0
LINE
  5
AB3
330
19
100
AcDbEntity
  8
Part
100
AcDbLine
 10
57.53884712333458
 20
40.39883076616265
 30
0.0
 11
57.58415044715121
 21
40.42414037951568
 31
0.0
  0
ARC
  5
AB4
330
19
100
AcDbEntity
  8
Part
100
AcDbCircle
 10
58.28383511498585
 20
39.11406947394165
 30
0.0
 40
1.547360193470258
100
AcDbArc
 50
116.883609159116
 51
122.6845246582981
  0
LINE
  5
AB5
330
19
100
AcDbEntity
  8
Part
100
AcDbLine
 10
57.53884712333458
 20
40.34117097557412
 30
0.0
 11
57.53884712333458
 21
40.39883076616265
 31
0.0
  0
LINE
  5
AB6
330
19
100
AcDbEntity
  8
Part
100
AcDbLine
 10
57.44824047570133
 20
40.41641549825554
 30
0.0
 11
57.44824047570133
 21
40.28020575853757
 31
0.0
  0
LINE
  5
AB7
330
19
100
AcDbEntity
  8
Part
100
AcDbLine
 10
57.58415044715121
 20
40.42414037951568
 30
0.0
 11
57.58415044715121
 21
40.4942016900249
 31
0.0
  0
CIRCLE
  5
AB8
330
19
100
AcDbEntity
  8
Part
  6
Continuous
100
AcDbCircle
 10
58.98769684524883
 20
38.75141146627568
 30
0.0
 40
0.0259424375330298
  0
CIRCLE
  5
AB9
330
19
100
AcDbEntity
  8
Part
100
AcDbCircle
 10
58.98769684524883
 20
38.75141146627568
 30
0.0
 40
0.0649347641371709
  0
ARC
  5
ABA
330
19
100
AcDbEntity
  8
Part
100
AcDbCircle
 10
58.27291106947533
 20
39.13397286739392
 30
0.0
 40
1.097347176891726
100
AcDbArc
 50
327.572587045701
 51
41.34186742329331
  0
LINE
  5
ABC
330
19
100
AcDbEntity
  8
Part
100
AcDbLine
 10
58.73686835315216
 20
37.30193652127641
 30
0.0
 11
58.73686835315216
 21
37.40261057420228
 31
0.0
  0
LINE
  5
ABD
330
19
100
AcDbEntity
  8
Part
100
AcDbLine
 10
58.78720537961506
 20
37.25159949481348
 30
0.0
 11
58.837542406078
 21
37.25159949481348
 31
0.0
  0
LINE
  5
ABE
330
19
100
AcDbEntity
  8
Part
100
AcDbLine
 10
58.837542406078
 20
37.25159949481348
 30
0.0
 11
58.837542406078
 21
37.30193652127641
 31
0.0
  0
LINE
  5
ABF
330
19
100
AcDbEntity
  8
Part
100
AcDbLine
 10
58.837542406078
 20
37.30193652127641
 30
0.0
 11
58.73686835315216
 21
37.30193652127641
 31
0.0
  0
LINE
  5
AC0
330
19
100
AcDbEntity
  8
Part
100
AcDbLine
 10
58.78720537961506
 20
37.13079063130248
 30
0.0
 11
58.75700316373731
 21
37.10058841542472
 31
0.0
  0
LINE
  5
AC1
330
19
100
AcDbEntity
  8
Part
100
AcDbLine
 10
58.78720537961506
 20
37.13079063130248
 30
0.0
 11
58.78720537961506
 21
37.25159949481348
 31
0.0
  0
ARC
  5
AC2
330
19
100
AcDbEntity
  8
Part
100
AcDbCircle
 10
58.27291106947533
 20
39.13397286739392
 30
0.0
 40
1.208088635110155
100
AcDbArc
 50
281.7075698111441
 51
316.8165782039346
  0
LINE
  5
AC4
330
19
100
AcDbEntity
  8
Part
  6
Continuous
100
AcDbLine
 10
58.4966160349607
 20
38.01584696149003
 30
0.0
 11
58.27767554727842
 21
38.23478744917235
 31
0.0
  0
LINE
  5
AC5
330
19
100
AcDbEntity
  8
Part
  6
Continuous
100
AcDbLine
 10
58.55832056196875
 20
38.07372192570343
 30
0.0
 11
58.33650010970193
 21
38.29535088727969
 31
0.0
  0
CIRCLE
  5
AC6
330
19
100
AcDbEntity
  8
Part
  6
Continuous
100
AcDbCircle
 10
58.41788375146148
 20
38.15657850535048
 30
0.0
 40
0.166126154940654
  0
LINE
  5
AC7
330
19
100
AcDbEntity
  8
Part
100
AcDbLine
 10
58.0916977742088
 20
37.93955255112835
 30
0.0
 11
58.0916977742088
 21
38.41918709162041
 31
0.0
  0
ARC
  5
AC8
330
19
100
AcDbEntity
  8
Part
100
AcDbCircle
 10
58.27291106947533
 20
39.13397286739392
 30
0.0
 40
1.208088635110155
100
AcDbArc
 50
261.3730734416076
 51
272.6986740008721
  0
LINE
  5
AC9
330
19
100
AcDbEntity
  8
Part
100
AcDbLine
 10
58.32979190937845
 20
38.01573204031218
 30
0.0
 11
58.32979190937845
 21
37.92722404496386
 31
0.0
  0
LINE
  5
ACA
330
19
100
AcDbEntity
  8
Part
100
AcDbLine
 10
58.78720537961506
 20
37.45294760066519
 30
0.0
 11
58.78720537961506
 21
37.77067429305711
 31
0.0
  0
LINE
  5
ACB
330
19
100
AcDbEntity
  8
Part
100
AcDbLine
 10
58.837542406078
 20
37.45294760066519
 30
0.0
 11
58.78720537961506
 21
37.45294760066519
 31
0.0
  0
LINE
  5
ACC
330
19
100
AcDbEntity
  8
Part
100
AcDbLine
 10
58.73686835315216
 20
37.40261057420228
 30
0.0
 11
58.837542406078
 21
37.40261057420228
 31
0.0
  0
LINE
  5
ACD
330
19
100
AcDbEntity
  8
Part
100
AcDbLine
 10
58.837542406078
 20
37.40261057420228
 30
0.0
 11
58.837542406078
 21
37.45294760066519
 31
0.0
  0
LINE
  5
ACE
330
19
100
AcDbEntity
  8
Part
100
AcDbLine
 10
58.51805238834976
 20
37.95101729586569
 30
0.0
 11
58.51805238834976
 21
38.0240487217571
 31
0.0
  0
LINE
  5
ACF
330
19
100
AcDbEntity
  8
Part
  6
Continuous
100
AcDbLine
 10
57.86096346317293
 20
38.1041415888216
 30
0.0
 11
58.02189205052457
 21
38.19974623805065
 31
0.0
  0
LINE
  5
AD1
330
19
100
AcDbEntity
  8
Part
100
AcDbLine
 10
59.15380903257648
 20
38.550063360424
 30
0.0
 11
59.15380903257648
 21
38.30723413664814
 31
0.0
  0
ARC
  5
AD2
330
19
100
AcDbEntity
  8
Part
100
AcDbCircle
 10
58.27291106947533
 20
39.13397286739392
 30
0.0
 40
1.097347176891724
100
AcDbArc
 50
325.3329002852082
 51
327.572587045701
  0
LINE
  5
AD3
330
19
100
AcDbEntity
  8
Part
100
AcDbLine
 10
59.17544707570288
 20
38.50979373925365
 30
0.0
 11
59.15380903257648
 21
38.50979373925365
 31
0.0
  0
LINE
  5
ADE
330
19
100
AcDbEntity
  8
Part
  6
Continuous
100
AcDbLine
 10
58.20223412485582
 20
40.252814271532
 30
0.0
 11
58.4177028832031
 21
40.03778626833496
 31
0.0
  0
LINE
  5
ADF
330
19
100
AcDbEntity
  8
Part
  6
Continuous
100
AcDbLine
 10
58.13142843451629
 20
40.192254725933
 30
0.0
 11
58.35036895330877
 21
39.97331420714051
 31
0.0
  0
CIRCLE
  5
AE0
330
19
100
AcDbEntity
  8
Part
  6
Continuous
100
AcDbCircle
 10
58.27291106947533
 20
40.11690584600809
 30
0.0
 40
0.166126154940654
  0
ARC
  5
AE1
330
19
100
AcDbEntity
  8
Part
100
AcDbCircle
 10
58.27291106947533
 20
39.13397286739392
 30
0.0
 40
1.208088635110155
100
AcDbArc
 50
54.31466528825287
 51
85.53117433295581
  0
CIRCLE
  5
AE3
330
19
100
AcDbEntity
  8
Part
  6
Continuous
100
AcDbCircle
 10
58.98769684524883
 20
39.63734313202316
 30
0.0
 40
0.0284871255950655
  0
LWPOLYLINE
  5
AE4
330
19
100
AcDbEntity
  8
Part
  6
Continuous
100
AcDbPolyline
 90
        4
 70
     1
 43
0.0
 10
58.86178297153253
 20
39.41802870458126
 10
59.01932538847878
 20
39.41802870458126
 10
59.01932538847878
 20
38.96634086100368
 10
58.86178297153253
 20
38.96634086100368
  0
LWPOLYLINE
  5
AE5
330
19
100
AcDbEntity
  8
Part
  6
Continuous
100
AcDbPolyline
 90
        4
 70
     1
 43
0.0
 10
58.77958688519321
 20
39.41802870458126
 10
59.15631878384025
 20
39.41802870458126
 10
59.15631878384025
 20
38.96634086100368
 10
58.77958688519321
 20
38.96634086100368
  0
LINE
  5
AE6
330
19
100
AcDbEntity
  8
Part
100
AcDbLine
 10
58.97762943995624
 20
39.89909566963035
 30
0.0
 11
59.21421346433199
 21
39.89909566963035
 31
0.0
  0
CIRCLE
  5
AE7
330
19
100
AcDbEntity
  8
Part
100
AcDbCircle
 10
58.98769684524883
 20
39.63734313202316
 30
0.0
 40
0.0649347641371709
  0
LINE
  5
AE8
330
19
100
AcDbEntity
  8
Part
100
AcDbLine
 10
59.18904495110054
 20
39.45612983675662
 30
0.0
 11
58.74607911822679
 21
39.45612983675662
 31
0.0
  0
LINE
  5
AE9
330
19
100
AcDbEntity
  8
Part
100
AcDbLine
 10
58.74607911822679
 20
38.93262476154222
 30
0.0
 11
59.18904495110054
 21
38.93262476154222
 31
0.0
  0
MTEXT
  5
AEA
330
19
100
AcDbEntity
  8
Label
  6
Continuous
100
AcDbMText
 10
58.2933763588615
 20
39.57274685611422
 30
0.0
 40
0.0805392423406772
 41
0.3083646241118676
 71
     1
 72
     5
  1
\fArial|b0|i0|c0|p34;SPAN
 73
     1
 44
1.0
1001
ACAD
1000
MTEXTBEGIN
1070
    73
1070
     1
1070
    44
1040
1.0
1070
    74
1070
     0
1000
MTEXTEND
  0
MTEXT
  5
AEB
330
19
100
AcDbEntity
  8
Label
  6
Continuous
100
AcDbMText
 10
58.54956664653958
 20
39.14619915853851
 30
0.0
 40
0.1333332
 41
0.3083646241118676
 71
     1
 72
     5
  1
\fArial|b0|i0|c0|p34;+I
 73
     1
 44
1.0
1001
ACAD
1000
MTEXTBEGIN
1070
    73
1070
     1
1070
    44
1040
1.0
1070
    74
1070
     0
1000
MTEXTEND
  0
LINE
  5
AEC
330
19
100
AcDbEntity
  8
Part
  6
Continuous
100
AcDbLine
 10
58.988729047383
 20
39.12350339141022
 30
0.0
 11
58.90718935963788
 21
39.04203413119678
 31
0.0
  0
LINE
  5
AED
330
19
100
AcDbEntity
  8
Part
  6
Continuous
100
AcDbLine
 10
58.97114204748067
 20
39.13788034545146
 30
0.0
 11
58.89120117232642
 21
39.05800849360196
 31
0.0
  0
CIRCLE
  5
AEE
330
19
100
AcDbEntity
  8
Part
  6
Continuous
100
AcDbCircle
 10
58.9407644854486
 20
39.0915546665999
 30
0.0
 40
0.0591051847051701
  0
LINE
  5
AEF
330
19
100
AcDbEntity
  8
Part
100
AcDbLine
 10
58.74607911822679
 20
39.45612983675662
 30
0.0
 11
58.74607911822679
 21
38.93262476154222
 31
0.0
  0
MTEXT
  5
AF0
330
19
100
AcDbEntity
  8
Label
  6
Continuous
100
AcDbMText
 10
58.58984593739258
 20
39.35763496667522
 30
0.0
 40
0.1333332
 41
0.3083646241118676
 71
     1
 72
     5
  1
\fArial|b0|i0|c0|p34;-I
 73
     1
 44
1.0
1001
ACAD
1000
MTEXTBEGIN
1070
    73
1070
     1
1070
    44
1040
1.0
1070
    74
1070
     0
1000
MTEXTEND
  0
LINE
  5
AF1
330
19
100
AcDbEntity
  8
Part
  6
Continuous
100
AcDbLine
 10
58.988729047383
 20
39.3247804293979
 30
0.0
 11
58.90878817222874
 21
39.24490857754841
 31
0.0
  0
LINE
  5
AF2
330
19
100
AcDbEntity
  8
Part
  6
Continuous
100
AcDbLine
 10
58.97593848525321
 20
39.33915738343915
 30
0.0
 11
58.89439879750812
 21
39.25768808340203
 31
0.0
  0
CIRCLE
  5
AF3
330
19
100
AcDbEntity
  8
Part
  6
Continuous
100
AcDbCircle
 10
58.9407644854486
 20
39.29283162494021
 30
0.0
 40
0.0591051847051701
  0
LINE
  5
AF4
330
19
100
AcDbEntity
  8
Part
  6
Continuous
100
AcDbLine
 10
58.45623228865625
 20
39.74677452550859
 30
0.0
 11
58.42227885866043
 21
39.71285046539544
 31
0.0
  0
LINE
  5
AF5
330
19
100
AcDbEntity
  8
Part
  6
Continuous
100
AcDbLine
 10
58.4432976135704
 20
39.75808254554632
 30
0.0
 11
58.4125779137491
 21
39.72738934261196
 31
0.0
  0
CIRCLE
  5
AF6
330
19
100
AcDbEntity
  8
Part
  6
Continuous
100
AcDbCircle
 10
58.43398955415668
 20
39.73801718494898
 30
0.0
 40
0.0279941190476825
  0
CIRCLE
  5
AF7
330
19
100
AcDbEntity
  8
Part
100
AcDbCircle
 10
58.43398955415668
 20
39.73801718494898
 30
0.0
 40
0.1097347176891726
  0
LINE
  5
AF8
330
19
100
AcDbEntity
  8
Part
100
AcDbLine
 10
58.97762943995624
 20
40.11522215713979
 30
0.0
 11
58.97762943995624
 21
39.85882604846001
 31
0.0
  0
LWPOLYLINE
  5
AFC
330
19
100
AcDbEntity
  8
Part
  6
Continuous
100
AcDbPolyline
 90
        4
 70
     1
 43
0.0
 10
59.05428054781663
 20
39.13308800088858
 10
59.1278261726075
 20
39.13308800088858
 10
59.1278261726075
 20
39.05161874067515
 10
59.05428054781663
 20
39.05161874067515
  0
LINE
  5
AFD
330
19
100
AcDbEntity
  8
Part
100
AcDbLine
 10
59.18904495110054
 20
38.93262476154222
 30
0.0
 11
59.18904495110054
 21
39.45612983675662
 31
0.0
  0
LWPOLYLINE
  5
AFE
330
19
100
AcDbEntity
  8
Part
  6
Continuous
100
AcDbPolyline
 90
        4
 70
     1
 43
0.0
 10
59.05428054781663
 20
39.32957273413709
 10
59.1278261726075
 20
39.32957273413709
 10
59.1278261726075
 20
39.25129833047522
 10
59.05428054781663
 20
39.25129833047522
  0
LINE
  5
B19
330
19
100
AcDbEntity
  8
Part
100
AcDbLine
 10
59.21421346433199
 20
39.89909566963035
 30
0.0
 11
59.21421346433199
 21
39.85882604846001
 31
0.0
  0
LINE
  5
B20
330
19
100
AcDbEntity
  8
Part
100
AcDbLine
 10
59.02882310663711
 20
40.34117097557412
 30
0.0
 11
58.98351978282047
 21
40.36648058892715
 31
0.0
  0
LINE
  5
B21
330
19
100
AcDbEntity
  8
Part
100
AcDbLine
 10
58.98351978282047
 20
40.42414037951568
 30
0.0
 11
59.02882310663711
 21
40.39883076616265
 31
0.0
  0
ARC
  5
B22
330
19
100
AcDbEntity
  8
Part
100
AcDbCircle
 10
58.28383511498585
 20
39.11406947394165
 30
0.0
 40
1.547360193470258
100
AcDbArc
 50
57.3154753405797
 51
63.11639083976164
  0
LINE
  5
B23
330
19
100
AcDbEntity
  8
Part
100
AcDbLine
 10
58.17878082998966
 20
40.33838876244495
 30
0.0
 11
58.17878082998966
 21
40.2537904593499
 31
0.0
  0
LINE
  5
B24
330
19
100
AcDbEntity
  8
Part
100
AcDbLine
 10
58.36704130896099
 20
40.25379045934989
 30
0.0
 11
58.36704130896099
 21
40.33838876244495
 31
0.0
  0
LINE
  5
B25
330
19
100
AcDbEntity
  8
Part
100
AcDbLine
 10
58.98351978282047
 20
40.4942016900249
 30
0.0
 11
58.98351978282047
 21
40.42414037951568
 31
0.0
  0
LINE
  5
B26
330
19
100
AcDbEntity
  8
Part
100
AcDbLine
 10
59.02882310663711
 20
40.39883076616265
 30
0.0
 11
59.02882310663711
 21
40.34117097557412
 31
0.0
  0
LINE
  5
B27
330
19
100
AcDbEntity
  8
Part
100
AcDbLine
 10
59.11942975427038
 20
40.28020575853757
 30
0.0
 11
59.11942975427038
 21
40.41641549825554
 31
0.0
  0
LINE
  5
B34
330
19
100
AcDbEntity
  8
Dimensions
  6
ByBlock
100
AcDbLine
 10
67.31505606364989
 20
29.65348358283725
 30
0.0
 11
67.49505588364987
 21
29.65348358283725
 31
0.0
  0
LINE
  5
B35
330
19
100
AcDbEntity
  8
Dimensions
  6
ByBlock
100
AcDbLine
 10
67.40505597364988
 20
29.56348367283725
 30
0.0
 11
67.40505597364988
 21
29.74348349283724
 31
0.0
  0
POINT
  5
B37
330
19
100
AcDbEntity
  8
Dimensions
  6
ByBlock
100
AcDbPoint
 10
67.40505597364988
 20
29.65348358283725
 30
0.0
  0
POINT
  5
B79
330
19
100
AcDbEntity
  8
Part
  6
ByBlock
 62
     0
100
AcDbPoint
 10
57.26738761518872
 20
34.34222455290948
 30
0.0
  0
LWPOLYLINE
  5
B7B
330
19
100
AcDbEntity
  8
Part
  6
Continuous
100
AcDbPolyline
 90
        4
 70
     1
 43
0.0
 10
59.74549201366308
 20
29.76116633677874
 10
59.89934068212429
 20
29.76116633677874
 10
59.89934068212429
 20
29.44519472790366
 10
59.74549201366308
 20
29.44519472790366
  0
LINE
  5
B7E
330
19
100
AcDbEntity
  8
Dimensions
  6
Continuous
100
AcDbLine
 10
56.26259240425813
 20
29.08780650274355
 30
0.0
 11
56.26259240425813
 21
28.61526896343404
 31
0.0
  0
LINE
  5
B7F
330
19
100
AcDbEntity
  8
Dimensions
  6
DASHED
 48
0.4
100
AcDbLine
 10
56.06784997510278
 20
28.92474653306515
 30
0.0
 11
56.06784997510278
 21
28.7347754290131
 31
0.0
  0
LINE
  5
B80
330
19
100
AcDbEntity
  8
Dimensions
  6
DASHED
 48
0.4
100
AcDbLine
 10
56.45733483341345
 20
28.92474653306515
 30
0.0
 11
56.45733483341345
 21
28.7347754290131
 31
0.0
  0
LINE
  5
B81
330
19
100
AcDbEntity
  8
Dimensions
  6
DASHED
100
AcDbLine
 10
56.05765707976972
 20
37.78387904279126
 30
0.0
 11
56.45765667976973
 21
37.78387904279126
 31
0.0
  0
LINE
  5
B82
330
19
100
AcDbEntity
  8
Dimensions
  6
DASHED
100
AcDbLine
 10
56.2576568797697
 20
37.58387924279126
 30
0.0
 11
56.2576568797697
 21
37.98387884279125
 31
0.0
  0
LINE
  5
B83
330
19
100
AcDbEntity
  8
Dimensions
  6
DASHED
100
AcDbLine
 10
56.05765707976972
 20
40.5020784717891
 30
0.0
 11
56.45765667976973
 21
40.5020784717891
 31
0.0
  0
LINE
  5
B84
330
19
100
AcDbEntity
  8
Dimensions
  6
DASHED
100
AcDbLine
 10
56.2576568797697
 20
40.3020786717891
 30
0.0
 11
56.2576568797697
 21
40.70207827178911
 31
0.0
  0
LINE
  5
BA0
330
19
100
AcDbEntity
  8
Part
  6
Continuous
100
AcDbLine
 10
59.74479201614979
 20
32.93715206884118
 30
0.0
 11
59.74479201614979
 21
34.01979757948402
 31
0.0
  0
LINE
  5
BAA
330
19
100
AcDbEntity
  8
Part
  6
Continuous
100
AcDbLine
 10
56.87613764661225
 20
32.9445293741322
 30
0.0
 11
56.87613764661225
 21
34.01967795110958
 31
0.0
  0
LINE
  5
BAB
330
19
100
AcDbEntity
  8
Part
100
AcDbLine
 10
56.8761911510407
 20
32.942657223228
 30
0.0
 11
59.7447657528794
 21
32.942657223228
 31
0.0
  0
LINE
  5
BBE
330
19
100
AcDbEntity
  8
Part
100
AcDbLine
 10
56.8761911510407
 20
34.01986958953456
 30
0.0
 11
59.7447657528794
 21
34.01979757948402
 31
0.0
  0
LINE
  5
BBF
330
19
100
AcDbEntity
  8
Part
100
AcDbLine
 10
59.51341638048591
 20
34.28162212714175
 30
0.0
 11
57.10754052343421
 21
34.28162212714175
 31
0.0
  0
LINE
  5
BC1
330
19
100
AcDbEntity
  8
Part
100
AcDbLine
 10
57.26851408128863
 20
34.34202655889727
 30
0.0
 11
59.35242929284417
 21
34.34202655889727
 31
0.0
  0
LINE
  5
BC2
330
19
100
AcDbEntity
  8
Part
100
AcDbLine
 10
57.10753533811645
 20
34.28162212714175
 30
0.0
 11
56.8761911510407
 21
34.01986958953456
 31
0.0
  0
ARC
  5
BC3
330
19
100
AcDbEntity
  8
Part
100
AcDbCircle
 10
57.26850200422788
 20
34.30175693772693
 30
0.0
 40
0.0402696211703386
100
AcDbArc
 50
89.99999999943906
 51
179.9999999991583
  0
LINE
  5
BC4
330
19
100
AcDbEntity
  8
Part
100
AcDbLine
 10
57.22823238305753
 20
34.30175693772693
 30
0.0
 11
57.22823238305753
 21
34.28162212714175
 31
0.0
  0
LINE
  5
BC5
330
19
100
AcDbEntity
  8
Part
100
AcDbLine
 10
59.51342156580368
 20
34.28162212714175
 30
0.0
 11
59.7447657528794
 21
34.01979757948402
 31
0.0
  0
ARC
  5
BC6
330
19
100
AcDbEntity
  8
Part
100
AcDbCircle
 10
59.35245489979291
 20
34.30175693772693
 30
0.0
 40
0.0402696211703386
100
AcDbArc
 50
359.9999999997195
 51
89.99999999943906
  0
LINE
  5
BC7
330
19
100
AcDbEntity
  8
Part
100
AcDbLine
 10
59.39272452096324
 20
34.30175693772693
 30
0.0
 11
59.39272452096324
 21
34.28162212714175
 31
0.0
  0
LINE
  5
C7C
330
19
100
AcDbEntity
  8
Part
  6
Continuous
100
AcDbLine
 10
70.19139041309242
 20
33.10304450151845
 30
0.0
 11
70.19139041309242
 21
34.01910637309312
 31
0.0
  0
LINE
  5
C91
330
19
100
AcDbEntity
  8
Part
  6
Continuous
100
AcDbLine
 10
67.32281581125367
 20
33.10304450151846
 30
0.0
 11
67.32281581125367
 21
34.01898674471868
 31
0.0
  0
LINE
  5
C92
330
19
100
AcDbEntity
  8
Part
100
AcDbLine
 10
67.32281581125367
 20
32.94196601683712
 30
0.0
 11
70.19139041309242
 21
32.9419660168371
 31
0.0
  0
LINE
  5
C96
330
19
100
AcDbEntity
  8
Part
100
AcDbLine
 10
67.32281581125367
 20
32.94196601683712
 30
0.0
 11
67.32281581125367
 21
33.10304450151846
 31
0.0
  0
LINE
  5
CC5
330
19
100
AcDbEntity
  8
Part
100
AcDbLine
 10
70.19139041309242
 20
32.9419660168371
 30
0.0
 11
70.19139041309242
 21
33.10304450151845
 31
0.0
  0
LINE
  5
CD2
330
19
100
AcDbEntity
  8
Part
100
AcDbLine
 10
67.32281581125367
 20
34.01917838314366
 30
0.0
 11
70.19139041309242
 21
34.01910637309312
 31
0.0
  0
LINE
  5
CD3
330
19
100
AcDbEntity
  8
Part
100
AcDbLine
 10
69.96004104069889
 20
34.28093092075086
 30
0.0
 11
67.5541651836472
 21
34.28093092075086
 31
0.0
  0
LINE
  5
CD5
330
19
100
AcDbEntity
  8
Part
100
AcDbLine
 10
67.7151387415016
 20
34.34133535250637
 30
0.0
 11
69.79905395305717
 21
34.34133535250637
 31
0.0
  0
LINE
  5
CD6
330
19
100
AcDbEntity
  8
Part
100
AcDbLine
 10
67.55415999832942
 20
34.28093092075086
 30
0.0
 11
67.32281581125367
 21
34.01917838314366
 31
0.0
  0
ARC
  5
CD7
330
19
100
AcDbEntity
  8
Part
100
AcDbCircle
 10
67.71512666444087
 20
34.30106573133603
 30
0.0
 40
0.0402696211703387
100
AcDbArc
 50
89.9999999994387
 51
179.9999999991584
  0
LINE
  5
CD8
330
19
100
AcDbEntity
  8
Part
100
AcDbLine
 10
67.67485704327054
 20
34.30106573133603
 30
0.0
 11
67.67485704327054
 21
34.28093092075086
 31
0.0
  0
LINE
  5
CD9
330
19
100
AcDbEntity
  8
Part
100
AcDbLine
 10
69.96004622601667
 20
34.28093092075086
 30
0.0
 11
70.19139041309242
 21
34.01910637309312
 31
0.0
  0
ARC
  5
CDA
330
19
100
AcDbEntity
  8
Part
100
AcDbCircle
 10
69.79907956000589
 20
34.30106573133603
 30
0.0
 40
0.0402696211703387
100
AcDbArc
 50
359.9999999997194
 51
89.9999999994387
  0
LINE
  5
CDB
330
19
100
AcDbEntity
  8
Part
100
AcDbLine
 10
69.83934918117622
 20
34.30106573133603
 30
0.0
 11
69.83934918117622
 21
34.28093092075086
 31
0.0
  0
ARC
  5
D05
330
19
100
AcDbEntity
  8
Part
100
AcDbCircle
 10
58.28383511498585
 20
39.11406947394165
 30
0.0
 40
1.434605254193314
100
AcDbArc
 50
60.80921241845825
 51
119.190787581542
  0
LINE
  5
DD4
330
19
100
AcDbEntity
  8
Notes
100
AcDbLine
 10
70.19139041309242
 20
33.56107543730579
 30
0.0
 11
70.94139041309242
 21
33.56107543730579
 31
0.0
  0
MTEXT
  5
DD5
330
19
100
AcDbEntity
  8
Notes
100
AcDbMText
 10
71.01051677474517
 20
33.64934936335203
 30
0.0
 40
0.12
 41
2.879544836049078
 71
     1
 72
     5
  1
{\fArial|b0|i0|c0|p34;SCREW-ON CAP}
  7
ACANSGDT
 73
     1
 44
1.0
1001
ACAD
1000
MTEXTBEGIN
1070
    73
1070
     1
1070
    44
1040
1.0
1070
    74
1070
     0
1000
MTEXTEND
  0
LINE
  5
DD6
330
19
100
AcDbEntity
  8
Notes
100
AcDbLine
 10
58.96495474147354
 20
29.5998331837086
 30
0.0
 11
59.46495474147354
 21
28.73380777992416
 31
0.0
  0
LINE
  5
DD7
330
19
100
AcDbEntity
  8
Notes
100
AcDbLine
 10
59.46495474147354
 20
28.73380777992416
 30
0.0
 11
59.89934068212429
 21
29.6031805323412
 31
0.0
  0
LINE
  5
DD9
330
19
100
AcDbEntity
  8
Notes
100
AcDbLine
 10
57.65619205343753
 20
29.5998331837086
 30
0.0
 11
57.07316744881318
 21
28.78737868627343
 31
0.0
  0
LINE
  5
DEA
330
19
100
AcDbEntity
  8
Notes
100
AcDbLine
 10
56.06889303053375
 20
40.5020784717891
 30
0.0
 11
55.20286762674931
 21
41.0020784717891
 31
0.0
  0
MTEXT
  5
DEB
330
19
100
AcDbEntity
  8
Notes
100
AcDbMText
 10
54.41680296778504
 20
41.30712517605298
 30
0.0
 40
0.12
 41
0.976911921591977
 71
     1
 72
     5
  1
{\fArial|b0|i0|c0|p34;0.36 DIA (9.2mm) MOUNTING HOLES (2)}
  7
ACANSGDT
 73
     1
 44
1.0
1001
ACAD
1000
MTEXTBEGIN
1070
    73
1070
     1
1070
    44
1040
1.0
1070
    74
1070
     0
1000
MTEXTEND
1000
ACAD_MTEXT_DEFINED_HEIGHT_BEGIN
1070
    46
1040
0.8182076964250828
1000
ACAD_MTEXT_DEFINED_HEIGHT_END
  0
MTEXT
  5
EA1
330
19
100
AcDbEntity
  8
Notes
100
AcDbMText
 10
56.91309435040015
 20
42.50563797786012
 30
0.0
 40
0.2231936009313878
 41
4.577350757485815
 71
     1
 72
     5
  1
Top View
 73
     1
 44
1.0
1001
ACAD
1000
MTEXTBEGIN
1070
    73
1070
     1
1070
    44
1040
1.0
1070
    74
1070
     0
1000
MTEXTEND
  0
MTEXT
  5
EA2
330
19
100
AcDbEntity
  8
Notes
100
AcDbMText
 10
57.6004622441164
 20
27.22558642604175
 30
0.0
 40
0.2231936009313878
 41
4.577350757485815
 71
     1
 72
     5
  1
Front View
 73
     1
 44
1.0
1001
ACAD
1000
MTEXTBEGIN
1070
    73
1070
     1
1070
    44
1040
1.0
1070
    74
1070
     0
1000
MTEXTEND
  0
MTEXT
  5
EA3
330
19
100
AcDbEntity
  8
Notes
100
AcDbMText
 10
68.14002808785492
 20
27.02736194567096
 30
0.0
 40
0.2231936009313878
 41
4.577350757485815
 71
     1
 72
     5
  1
Side View
 73
     1
 44
1.0
1001
ACAD
1000
MTEXTBEGIN
1070
    73
1070
     1
1070
    44
1040
1.0
1070
    74
1070
     0
1000
MTEXTEND
  0
ARC
  5
EE6
330
19
100
AcDbEntity
  8
Schematics
100
AcDbCircle
 10
68.92602057218592
 20
39.11406947394165
 30
0.0
 40
1.434605254193314
100
AcDbArc
 50
14.25622590845572
 51
354.1301369675303
  0
CIRCLE
  5
EE7
330
19
100
AcDbEntity
  8
Schematics
100
AcDbCircle
 10
68.49226550438686
 20
39.65747794260832
 30
0.0
 40
0.1097347176891726
  0
CIRCLE
  5
EE8
330
19
100
AcDbEntity
  8
Schematics
100
AcDbCircle
 10
69.07617501135677
 20
39.73801718494898
 30
0.0
 40
0.1097347176891726
  0
ARC
  5
F4D
330
19
100
AcDbEntity
  8
Schematics
100
AcDbCircle
 10
69.8214660050167
 20
39.09235337078186
 30
0.0
 40
0.125
100
AcDbArc
 50
90.0
 51
270.0
  0
LINE
  5
F4E
330
19
100
AcDbEntity
  8
Schematics
100
AcDbLine
 10
70.3714660050167
 20
39.21735337078187
 30
0.0
 11
70.3714660050167
 21
38.96735337078187
 31
0.0
  0
LINE
  5
F4F
330
19
100
AcDbEntity
  8
Schematics
100
AcDbLine
 10
69.8214660050167
 20
38.96735337078187
 30
0.0
 11
70.3714660050167
 21
38.96735337078187
 31
0.0
  0
ARC
  5
F51
330
19
100
AcDbEntity
  8
Schematics
100
AcDbCircle
 10
69.8214660050167
 20
39.34235337078187
 30
0.0
 40
0.125
100
AcDbArc
 50
90.0
 51
270.0
  0
LINE
  5
F52
330
19
100
AcDbEntity
  8
Schematics
100
AcDbLine
 10
69.8214660050167
 20
39.46735337078187
 30
0.0
 11
70.3714660050167
 21
39.46735337078187
 31
0.0
  0
LINE
  5
F53
330
19
100
AcDbEntity
  8
Schematics
100
AcDbLine
 10
69.8214660050167
 20
39.21735337078187
 30
0.0
 11
70.3714660050167
 21
39.21735337078187
 31
0.0
  0
LINE
  5
F54
330
19
100
AcDbEntity
  8
Schematics
100
AcDbLine
 10
70.3714660050167
 20
39.46735337078187
 30
0.0
 11
70.3714660050167
 21
39.21735337078187
 31
0.0
  0
MTEXT
  5
F55
330
19
100
AcDbEntity
  8
Label
100
AcDbMText
 10
70.01555513752506
 20
39.34415212401729
 30
0.0
 40
0.1174762921875
 41
0.5874000000000002
 71
     5
 72
     5
  1
-I
 73
     1
 44
1.0
1001
ACAD
1000
MTEXTBEGIN
1070
    73
1070
     1
1070
    44
1040
1.0
1070
    74
1070
     0
1000
MTEXTEND
  0
MTEXT
  5
F56
330
19
100
AcDbEntity
  8
Label
100
AcDbMText
 10
70.01555513752506
 20
39.09415212401729
 30
0.0
 40
0.1174762921875
 41
0.5874000000000002
 71
     5
 72
     5
  1
+I
 73
     1
 44
1.0
1001
ACAD
1000
MTEXTBEGIN
1070
    73
1070
     1
1070
    44
1040
1.0
1070
    74
1070
     0
1000
MTEXTEND
  0
MTEXT
  5
F57
330
19
100
AcDbEntity
  8
Label
  6
Continuous
100
AcDbMText
 10
68.34504318045792
 20
39.46667572235297
 30
0.0
 40
0.0805392423406772
 41
0.3083646241118676
 71
     1
 72
     5
  1
\fArial|b0|i0|c0|p34;ZERO
 73
     1
 44
1.0
1001
ACAD
1000
MTEXTBEGIN
1070
    73
1070
     1
1070
    44
1040
1.0
1070
    74
1070
     0
1000
MTEXTEND
  0
MTEXT
  5
F58
330
19
100
AcDbEntity
  8
Label
  6
Continuous
100
AcDbMText
 10
68.94648586157211
 20
39.55284346266195
 30
0.0
 40
0.0805392423406772
 41
0.3083646241118676
 71
     1
 72
     5
  1
\fArial|b0|i0|c0|p34;SPAN
 73
     1
 44
1.0
1001
ACAD
1000
MTEXTBEGIN
1070
    73
1070
     1
1070
    44
1040
1.0
1070
    74
1070
     0
1000
MTEXTEND
  0
MTEXT
  5
F59
330
19
100
AcDbEntity
  8
Label
100
AcDbMText
 10
68.91909071612118
 20
38.68930820863602
 30
0.0
 40
0.234952584375
 41
0.67555
 71
     5
 72
     5
  1
IPH
 73
     1
 44
1.0
1001
ACAD
1000
MTEXTBEGIN
1070
    73
1070
     1
1070
    44
1040
1.0
1070
    74
1070
     0
1000
MTEXTEND
  0
MTEXT
  5
F6D
330
19
100
AcDbEntity
  8
Notes
100
AcDbMText
 10
63.43653040911805
 20
34.03993807407812
 30
0.0
 40
0.354463385711929
 41
34.35601123036423
 71
     2
 72
     5
  1
{\fArial|b0|i0|c0|p34;1:1 Scale}
  7
ADESK1
 73
     1
 44
1.0
1001
ACAD
1000
MTEXTBEGIN
1070
    73
1070
     1
1070
    44
1040
1.0
1070
    74
1070
     0
1000
MTEXTEND
  0
MTEXT
  5
FC2
330
19
100
AcDbEntity
  8
0
100
AcDbMText
 10
64.46631300590333
 20
42.38372136525912
 30
0.0
 40
0.12
 41
14.44173728261603
 71
     5
 72
     5
  3
THIS DRAWING IS A CONTROLLED DOCUMENT PROVIDED \PBY MOORE INDUSTRIES-INTERNATIONAL, INC.{\C176;\c8388608; }AND IS \PSUBJECT TO CHANGE WITHOUT NOTICE. FOR LATEST \PREVISION OF DRAWING PLEASE CONTACT MOORE \PINDUSTRIES-INTERNATIONAL, INC. THE INFORMATI
  1
ON \PPROVIDED IN THIS DRAWING IS PROPRIETARY TO \PMOORE INDUSTRIES-INTERNATIONAL, INC.{\C176;\c8388608; }
 73
     1
 44
1.0
1001
ACAD
1000
MTEXTBEGIN
1070
    73
1070
     1
1070
    44
1040
1.0
1070
    74
1070
     0
1000
MTEXTEND
1000
ACAD_MTEXT_DEFINED_HEIGHT_BEGIN
1070
    46
1040
1.781648968217055
1000
ACAD_MTEXT_DEFINED_HEIGHT_END
  0
LINE
  5
FC3
330
19
100
AcDbEntity
  8
0
100
AcDbLine
 10
61.70363697927162
 20
43.22538195271322
 30
0.0
 11
61.70363697927163
 21
41.62750385694317
 31
0.0
  0
LINE
  5
FC4
330
19
100
AcDbEntity
  8
0
100
AcDbLine
 10
61.60217228005077
 20
43.32684665193407
 30
0.0
 11
61.60217228005078
 21
41.52684665193407
 31
0.0
  0
LINE
  5
FC5
330
19
100
AcDbEntity
  8
0
100
AcDbLine
 10
67.35217228005078
 20
43.32684665193409
 30
0.0
 11
67.35217228005078
 21
41.52684665193407
 31
0.0
  0
LINE
  5
FC6
330
19
100
AcDbEntity
  8
0
100
AcDbLine
 10
67.25070758082992
 20
43.22538195271322
 30
0.0
 11
67.25070758082992
 21
41.62750385694317
 31
0.0
  0
LINE
  5
FC7
330
19
100
AcDbEntity
  8
0
100
AcDbLine
 10
61.70363697927162
 20
41.62750385694317
 30
0.0
 11
67.25070758082992
 21
41.62750385694317
 31
0.0
  0
LINE
  5
FC8
330
19
100
AcDbEntity
  8
0
100
AcDbLine
 10
61.70363697927162
 20
43.22538195271322
 30
0.0
 11
67.25070758082992
 21
43.22538195271322
 31
0.0
  0
LINE
  5
FC9
330
19
100
AcDbEntity
  8
0
100
AcDbLine
 10
61.70363697927164
 20
43.32684665193407
 30
0.0
 11
67.25070758082991
 21
43.32684665193407
 31
0.0
  0
LINE
  5
FCA
330
19
100
AcDbEntity
  8
0
100
AcDbLine
 10
61.60217228005077
 20
44.07684665193406
 30
0.0
 11
67.35217228005075
 21
44.07684665193406
 31
0.0
  0
LINE
  5
FCB
330
19
100
AcDbEntity
  8
0
100
AcDbLine
 10
61.70363697927162
 20
43.97538195271322
 30
0.0
 11
67.25070758082992
 21
43.97538195271322
 31
0.0
  0
LINE
  5
FCC
330
19
100
AcDbEntity
  8
0
100
AcDbLine
 10
61.60217228005078
 20
41.52684665193407
 30
0.0
 11
67.35217228005078
 21
41.52684665193407
 31
0.0
  0
LINE
  5
FCD
330
19
100
AcDbEntity
  8
0
100
AcDbLine
 10
61.60217228005078
 20
41.52684665193407
 30
0.0
 11
67.35217228005078
 21
41.52684665193407
 31
0.0
  0
LINE
  5
FCE
330
19
100
AcDbEntity
  8
0
100
AcDbLine
 10
61.60217228005078
 20
40.52684665193407
 30
0.0
 11
61.60217228005078
 21
41.52684665193407
 31
0.0
  0
LINE
  5
FCF
330
19
100
AcDbEntity
  8
0
100
AcDbLine
 10
61.60217228005078
 20
41.52684665193407
 30
0.0
 11
67.35217228005078
 21
41.52684665193407
 31
0.0
  0
LINE
  5
FD0
330
19
100
AcDbEntity
  8
0
100
AcDbLine
 10
61.60217228005078
 20
41.27684665193407
 30
0.0
 11
67.35217228005078
 21
41.27684665193407
 31
0.0
  0
LINE
  5
FD1
330
19
100
AcDbEntity
  8
0
100
AcDbLine
 10
61.60217228005078
 20
41.02684665193407
 30
0.0
 11
67.35217228005078
 21
41.02684665193407
 31
0.0
  0
LINE
  5
FD2
330
19
100
AcDbEntity
  8
0
100
AcDbLine
 10
67.35217228005078
 20
40.52684665193407
 30
0.0
 11
67.35217228005078
 21
41.52684665193407
 31
0.0
  0
LINE
  5
FD3
330
19
100
AcDbEntity
  8
0
100
AcDbLine
 10
66.59547432834784
 20
40.52684665193407
 30
0.0
 11
66.59547432834784
 21
41.52684665193407
 31
0.0
  0
MTEXT
  5
FD4
330
19
100
AcDbEntity
  8
0
100
AcDbMText
 10
61.91931562092321
 20
41.40184665193407
 30
0.0
 40
0.125
 41
0.6342866817448467
 71
     5
 72
     5
  1
{\fArial|b0|i0|c0|p34;REV}
 73
     1
 44
1.0
1001
ACAD
1000
MTEXTBEGIN
1070
    73
1070
     1
1070
    44
1040
1.0
1070
    74
1070
     0
1000
MTEXTEND
1000
ACAD_MTEXT_DEFINED_HEIGHT_BEGIN
1070
    46
1040
0.25
1000
ACAD_MTEXT_DEFINED_HEIGHT_END
  0
LINE
  5
FD5
330
19
100
AcDbEntity
  8
0
100
AcDbLine
 10
62.23645896179561
 20
40.52684665193407
 30
0.0
 11
62.23645896179561
 21
41.52684665193407
 31
0.0
  0
MTEXT
  5
FD6
330
19
100
AcDbEntity
  8
0
100
AcDbMText
 10
64.41596664507172
 20
41.40184665193407
 30
0.0
 40
0.125
 41
4.359015366552219
 71
     5
 72
     5
  1
{\fArial|b0|i0|c0|p34;DESCRIPTION}
 73
     1
 44
1.0
1001
ACAD
1000
MTEXTBEGIN
1070
    73
1070
     1
1070
    44
1040
1.0
1070
    74
1070
     0
1000
MTEXTEND
1000
ACAD_MTEXT_DEFINED_HEIGHT_BEGIN
1070
    46
1040
0.2499999999999975
1000
ACAD_MTEXT_DEFINED_HEIGHT_END
  0
MTEXT
  5
FD7
330
19
100
AcDbEntity
  8
0
100
AcDbMText
 10
66.97382330419931
 20
41.40184665193407
 30
0.0
 40
0.125
 41
0.7566979517029253
 71
     5
 72
     5
  1
{\fArial|b0|i0|c0|p34;DATE}
 73
     1
 44
1.0
1001
ACAD
1000
MTEXTBEGIN
1070
    73
1070
     1
1070
    44
1040
1.0
1070
    74
1070
     0
1000
MTEXTEND
1000
ACAD_MTEXT_DEFINED_HEIGHT_BEGIN
1070
    46
1040
0.25
1000
ACAD_MTEXT_DEFINED_HEIGHT_END
  0
LINE
  5
FD8
330
19
100
AcDbEntity
  8
0
100
AcDbLine
 10
61.60217228005077
 20
44.07684665193406
 30
0.0
 11
61.60217228005077
 21
43.32684665193407
 31
0.0
  0
LINE
  5
FD9
330
19
100
AcDbEntity
  8
0
100
AcDbLine
 10
61.70363697927162
 20
43.97538195271322
 30
0.0
 11
61.70363697927164
 21
43.32684665193407
 31
0.0
  0
LINE
  5
FDA
330
19
100
AcDbEntity
  8
0
100
AcDbLine
 10
67.35217228005075
 20
44.07684665193406
 30
0.0
 11
67.35217228005078
 21
43.32684665193409
 31
0.0
  0
LINE
  5
FDB
330
19
100
AcDbEntity
  8
0
100
AcDbLine
 10
67.25070758082992
 20
43.97538195271322
 30
0.0
 11
67.25070758082991
 21
43.32684665193407
 31
0.0
  0
MTEXT
  5
FDC
330
19
100
AcDbEntity
  8
0
100
AcDbMText
 10
64.47717228005078
 20
43.65111430232365
 30
0.0
 40
0.25
 41
5.547070601558278
 71
     5
 72
     5
  1
IPH
 73
     1
 44
1.0
1001
ACAD
1000
MTEXTBEGIN
1070
    73
1070
     1
1070
    44
1040
1.0
1070
    74
1070
     0
1000
MTEXTEND
1000
ACAD_MTEXT_DEFINED_HEIGHT_BEGIN
1070
    46
1040
0.6485353007791446
1000
ACAD_MTEXT_DEFINED_HEIGHT_END
  0
MTEXT
  5
FDD
330
19
100
AcDbEntity
  8
0
100
AcDbMText
 10
61.91931562092321
 20
41.15184665193407
 30
0.0
 40
0.125
 41
0.6342866817448503
 71
     5
 72
     5
  1
{\fArial|b0|i0|c0|p34;1}
 73
     1
 44
1.0
1001
ACAD
1000
MTEXTBEGIN
1070
    73
1070
     1
1070
    44
1040
1.0
1070
    74
1070
     0
1000
MTEXTEND
1000
ACAD_MTEXT_DEFINED_HEIGHT_BEGIN
1070
    46
1040
0.2499999999999993
1000
ACAD_MTEXT_DEFINED_HEIGHT_END
  0
MTEXT
  5
FDE
330
19
100
AcDbEntity
  8
0
100
AcDbMText
 10
64.41596664507172
 20
41.1547741520281
 30
0.0
 40
0.125
 41
4.359015366552219
 71
     5
 72
     5
  1
{\fArial|b0|i0|c0|p34;INITIAL RELEASE}
 73
     1
 44
1.0
1001
ACAD
1000
MTEXTBEGIN
1070
    73
1070
     1
1070
    44
1040
1.0
1070
    74
1070
     0
1000
MTEXTEND
1000
ACAD_MTEXT_DEFINED_HEIGHT_BEGIN
1070
    46
1040
0.1292633015006892
1000
ACAD_MTEXT_DEFINED_HEIGHT_END
  0
MTEXT
  5
FDF
330
19
100
AcDbEntity
  8
0
100
AcDbMText
 10
66.9738233041993
 20
41.15184665193407
 30
0.0
 40
0.125
 41
0.7566979517029218
 71
     5
 72
     5
  1
{\fArial|b0|i0|c0|p34;04/08}
 73
     1
 44
1.0
1001
ACAD
1000
MTEXTBEGIN
1070
    73
1070
     1
1070
    44
1040
1.0
1070
    74
1070
     0
1000
MTEXTEND
1000
ACAD_MTEXT_DEFINED_HEIGHT_BEGIN
1070
    46
1040
0.25
1000
ACAD_MTEXT_DEFINED_HEIGHT_END
  0
INSERT
  5
11BB
330
19
100
AcDbEntity
  8
0
100
AcDbBlockReference
  2
A$C04591C4E
 10
61.60217228005078
 20
41.52684665193407
 30
0.0
  0
VIEWPORT
  5
BA
102
{ACAD_XDICTIONARY
360
11E4
102
}
330
16
100
AcDbEntity
 67
     1
  8
0
100
AcDbViewport
 10
5.249999639556164
 20
6.140308632623732
 30
0.0
 40
11.99666166085311
 41
13.27361724380106
 68
     1
 69
     1
 12
5.249999639556164
 22
6.140308632623732
 13
0.0
 23
0.0
 14
0.5
 24
0.5
 15
0.5
 25
0.5
 16
0.0
 26
0.0
 36
1.0
 17
0.0
 27
0.0
 37
0.0
 42
50.0
 43
0.0
 44
0.0
 45
13.27361724380106
 50
0.0
 51
0.0
 72
   100
 90
    32800
  1

281
     0
 71
     1
 74
     0
110
0.0
120
0.0
130
0.0
111
1.0
121
0.0
131
0.0
112
0.0
122
1.0
132
0.0
 79
     0
146
0.0
1001
GENIUS_GENSCREG_15
1000
PF
1040
1.0
1000
DF
1040
1.0
1000
MIN
1011
-0.7483311908703901
1021
-0.4964999892767974
1031
0.0
1000
MAX
1011
11.24833046998272
1021
12.77711725452426
1031
0.0
1000
FLAGS
1070
     4
1001
GENIUS_GENODEF_13
1002
{
1000
HIER
1070
     0
1002
}
1002
{
1000
MANEDIT
1070
     0
1002
}
1002
{
1000
NOSEL
1070
     0
1002
}
1002
{
1000
BEHIND
1070
     0
1002
}
1002
{
1000
OTHER
1070
     0
1002
}
1002
{
1000
REACTOR
1002
}
1001
GENIUS_GENOBJ-N-SDF_13
1002
{
1000
OWNER
1000
GEN
1002
}
  0
ENDSEC
  0
SECTION
  2
OBJECTS
  0
DICTIONARY
  5
C
330
0
100
AcDbDictionary
281
     1
  3
ACAD_2007HEADERVARS_RT
350
11E2
  3
ACAD_COLOR
350
3F8
  3
ACAD_GROUP
350
D
  3
ACAD_LAYOUT
350
150
  3
ACAD_MATERIAL
350
3F7
  3
ACAD_MLINESTYLE
350
E
  3
ACAD_PLOTSETTINGS
350
151
  3
ACAD_PLOTSTYLENAME
350
14E
  3
ACAD_TABLESTYLE
350
3F9
  3
ACAD_VISUALSTYLE
350
582
  3
ACDBVARIABLEDICTIONARY
350
FA
  3
AcmDictionary
350
189
  3
AMG
350
158
  3
AMGSNAPSETTINGS
350
1BA
  3
DWGPROPS
350
11E1
  3
MAPISURF_MODULE
350
11A4
  0
DICTIONARY
  5
44C
330
2
100
AcDbDictionary
280
     1
281
     1
  3
ACAD_LAYERFILTERS
360
BEE
  3
ACAD_LAYERSTATES
360
44D
  3
ACLYDICTIONARY
360
BED
  0
DICTIONARY
  5
11F
330
19
100
AcDbDictionary
280
     1
281
     1
  3
ACAD_INDEX
360
D06
  3
ACAD_SORTENTS
360
609
  0
DICTIONARY
  5
11B6
330
11B1
100
AcDbDictionary
280
     1
281
     1
  3
ACAD_SORTENTS
360
11B7
  0
DICTIONARY
  5
11E4
330
BA
100
AcDbDictionary
280
     1
281
     1
  3
ACAD_XREC_ROUNDTRIP
360
11E5
  0
DICTIONARY
  5
11E2
102
{ACAD_REACTORS
330
C
102
}
330
C
100
AcDbDictionary
281
     1
  3
DIMARCSYM
350
11E3
  0
DICTIONARY
  5
3F8
102
{ACAD_REACTORS
330
C
102
}
330
C
100
AcDbDictionary
281
     1
  0
DICTIONARY
  5
D
102
{ACAD_REACTORS
330
C
102
}
330
C
100
AcDbDictionary
281
     1
  0
DICTIONARY
  5
150
102
{ACAD_REACTORS
330
C
102
}
330
C
100
AcDbDictionary
281
     1
  3
Layout1
350
153
  3
Model
350
152
  0
DICTIONARY
  5
3F7
102
{ACAD_REACTORS
330
C
102
}
330
C
100
AcDbDictionary
281
     1
  3
ByBlock
350
580
  3
ByLayer
350
57F
  3
Global
350
581
  0
DICTIONARY
  5
E
102
{ACAD_REACTORS
330
C
102
}
330
C
100
AcDbDictionary
281
     1
  3
STANDARD
350
1C
  0
DICTIONARY
  5
151
102
{ACAD_REACTORS
330
C
102
}
330
C
100
AcDbDictionary
281
     1
  0
ACDBDICTIONARYWDFLT
  5
14E
102
{ACAD_REACTORS
330
C
102
}
330
C
100
AcDbDictionary
281
     1
  3
Normal
350
14F
100
AcDbDictionaryWithDefault
340
14F
  0
DICTIONARY
  5
3F9
102
{ACAD_REACTORS
330
C
102
}
330
C
100
AcDbDictionary
281
     1
  3
Standard
350
3FA
  0
DICTIONARY
  5
582
102
{ACAD_REACTORS
330
C
102
}
330
C
100
AcDbDictionary
281
     1
  3
2dWireframe
350
588
  3
3D Hidden
350
58A
  3
3dWireframe
350
589
  3
Basic
350
587
  3
Brighten
350
58E
  3
ColorChange
350
592
  3
Conceptual
350
58B
  3
Dim
350
58D
  3
Facepattern
350
591
  3
Flat
350
583
  3
FlatWithEdges
350
584
  3
Gouraud
350
585
  3
GouraudWithEdges
350
586
  3
Linepattern
350
590
  3
Realistic
350
58C
  3
Thicken
350
58F
  0
DICTIONARY
  5
FA
102
{ACAD_REACTORS
330
C
102
}
330
C
100
AcDbDictionary
281
     1
  3
CTABLESTYLE
350
429
  3
DIMASSOC
350
3F5
  3
INDEXCTL
350
FB
  3
SORTENTS
350
11E0
  0
DICTIONARY
  5
189
102
{ACAD_REACTORS
330
C
102
}
330
C
100
AcDbDictionary
281
     1
  3
AcmStdDictionary
350
2C1
  3
AMDTSECTSYM_ARROWCOLOR
350
402
  0
DICTIONARY
  5
158
102
{ACAD_REACTORS
330
C
102
}
330
C
100
AcDbDictionary
281
     1
  3
AcMgSettings
350
159
  0
DICTIONARY
  5
1BA
102
{ACAD_REACTORS
330
C
102
}
330
C
100
AcDbDictionary
281
     1
  3
DIMENSION
350
1BE
  3
FEA
350
1BD
  3
HATCH
350
1BB
  3
SYMBOLS
350
1BC
  0
XRECORD
  5
11E1
102
{ACAD_REACTORS
330
C
102
}
330
C
100
AcDbXrecord
280
     1
  1
DWGPROPS COOKIE
  2

  3

  4

  6

  7

  8
amartinez
  9

300
AmdtFileType=84
301
=
302
=
303
=
304
=
305
=
306
=
307
=
308
=
309
=
 40
0.1962296180555556
 41
2454649.530650371
 42
2454784.453935487
  1

 90
        1
  0
DICTIONARY
  5
BEE
102
{ACAD_REACTORS
330
44C
102
}
330
44C
100
AcDbDictionary
281
     1
  0
DICTIONARY
  5
44D
102
{ACAD_REACTORS
330
44C
102
}
330
44C
100
AcDbDictionary
281
     1
  0
DICTIONARY
  5
BED
102
{ACAD_REACTORS
330
44C
102
}
330
44C
100
AcDbDictionary
281
     1
1001
ACAD
1000
<All
  0
DICTIONARY
  5
D06
102
{ACAD_REACTORS
330
11F
102
}
330
11F
100
AcDbDictionary
281
     1
  3
*A1
350
D07
  0
SORTENTSTABLE
  5
609
102
{ACAD_REACTORS
330
11F
102
}
330
11F
100
AcDbSortentsTable
330
19
331
B79
  5
C88
331
A54
  5
AC8
331
9ED
  5
9ED
331
AEA
  5
BB7
331
957
  5
957
331
9BE
  5
9BE
331
A15
  5
A15
331
A5C
  5
AD1
331
AAB
  5
B20
331
B81
  5
C8D
331
AB3
  5
B2A
331
9C6
  5
9C6
331
A64
  5
AD9
331
AF2
  5
BBF
331
96F
  5
96F
331
9CE
  5
9CE
331
A6C
  5
AE1
331
CD8
  5
ABA
331
A35
  5
A35
331
B22
  5
C73
331
97F
  5
97F
331
A3D
  5
A3D
331
ACB
  5
B98
331
BC1
  5
CBA
331
AD3
  5
BA8
331
987
  5
987
331
A45
  5
A45
331
A4D
  5
AC1
331
C91
  5
A73
331
AE3
  5
BB0
331
9A7
  5
9A7
331
A55
  5
AC9
331
B82
  5
C8E
331
AAC
  5
B21
331
958
  5
958
331
9BF
  5
9BF
331
A16
  5
A16
331
AEB
  5
BB8
331
AF3
  5
BC0
331
9C7
  5
9C7
331
A65
  5
ADA
331
AB4
  5
B2B
331
CD9
  5
ABB
331
9CF
  5
9CF
331
A6D
  5
AE3
331
ABC
  5
B45
331
BAA
  5
CA3
331
970
  5
970
331
AC4
  5
B7E
331
A36
  5
A36
331
ACC
  5
B99
331
980
  5
980
331
A3E
  5
A3E
331
B23
  5
C74
331
BC2
  5
CBB
331
9E7
  5
9E7
331
988
  5
988
331
A4E
  5
AC2
331
9A0
  5
9A0
331
B7B
  5
C89
331
AE4
  5
BB1
331
A56
  5
ACA
331
C92
  5
A74
331
AAD
  5
B22
331
959
  5
959
331
A17
  5
A17
331
A5E
  5
AD3
331
AEC
  5
BB9
331
B83
  5
C8F
331
CD2
  5
AB4
331
AB5
  5
B2F
331
9C8
  5
9C8
331
A66
  5
ADB
331
AF4
  5
BC1
331
CDA
  5
ABC
331
ABD
  5
B4A
331
AFC
  5
BC9
331
BAB
  5
CB6
331
971
  5
971
331
A37
  5
A37
331
9D8
  5
9D8
331
AC5
  5
B7F
331
B24
  5
C75
331
ACD
  5
B9A
331
BC3
  5
CBC
331
989
  5
989
331
B34
  5
C7D
331
A4F
  5
AC3
331
9E8
  5
9E8
331
AE5
  5
BB2
331
A57
  5
ACB
331
B84
  5
C98
331
AAE
  5
B23
331
95A
  5
95A
331
A18
  5
A18
331
AED
  5
BBA
331
AF5
  5
BC2
331
9C9
  5
9C9
331
96A
  5
96A
331
A67
  5
ADC
331
AB6
  5
B30
331
CD3
  5
AB5
331
CDB
  5
ABD
331
ABE
  5
B53
331
A6F
  5
AE4
331
AFD
  5
BCA
331
972
  5
972
331
AC6
  5
B80
331
97A
  5
97A
331
9D9
  5
9D9
331
A38
  5
A38
331
A7F
  5
AF4
331
982
  5
982
331
A40
  5
A40
331
ACE
  5
B9B
331
B25
  5
C76
331
BC4
  5
CBD
331
B35
  5
C7F
331
A87
  5
AFD
331
C7C
  5
A5E
331
ADE
  5
BAB
331
9E9
  5
9E9
331
A50
  5
AC4
331
AA7
  5
B1C
331
AE6
  5
BB3
331
AAF
  5
B24
331
95B
  5
95B
331
9C2
  5
9C2
331
A60
  5
AD5
331
AEE
  5
BBB
331
AB7
  5
B34
331
96B
  5
96B
331
9CA
  5
9CA
331
A21
  5
A21
331
A68
  5
ADD
331
AF6
  5
BC3
331
ABF
  5
B5C
331
AFE
  5
BCB
331
9D2
  5
9D2
331
973
  5
973
331
A70
  5
AE5
331
AC7
  5
B81
331
97B
  5
97B
331
A39
  5
A39
331
ACF
  5
B9D
331
983
  5
983
331
9E2
  5
9E2
331
A41
  5
A41
331
A80
  5
AF6
331
B26
  5
C77
331
BC5
  5
CBE
331
ADF
  5
BAC
331
9EA
  5
9EA
331
A51
  5
AC5
331
B7E
  5
C8A
331
AE7
  5
BB4
331
A59
  5
ACD
331
AA8
  5
B1D
331
CC5
  5
AA7
331
9C3
  5
9C3
331
95C
  5
95C
331
A61
  5
AD7
331
AB0
  5
B25
331
AEF
  5
BBC
331
AF7
  5
BC4
331
96C
  5
96C
331
A69
  5
ADE
331
AB8
  5
B35
331
CD5
  5
AB7
331
AC0
  5
B5D
331
974
  5
974
331
9D3
  5
9D3
331
A71
  5
AE6
331
D05
  5
AD0
331
AC8
  5
B82
331
97C
  5
97C
331
A3A
  5
A3A
331
BBE
  5
CB7
331
9E3
  5
9E3
331
984
  5
984
331
A42
  5
A42
331
B27
  5
C7C
331
BC6
  5
CBF
331
A4A
  5
ABE
331
B37
  5
C87
331
AE0
  5
BAD
331
9EB
  5
9EB
331
A52
  5
AC6
331
B7F
  5
C8B
331
AE8
  5
BB5
331
955
  5
955
331
9BC
  5
9BC
331
AA9
  5
B1E
331
C96
  5
A78
331
95D
  5
95D
331
9C4
  5
9C4
331
AB1
  5
B26
331
AF0
  5
BBD
331
CD6
  5
AB8
331
96D
  5
96D
331
9CC
  5
9CC
331
A6A
  5
ADF
331
AB9
  5
B36
331
AF8
  5
BC8
331
A72
  5
AE7
331
A33
  5
A33
331
AC1
  5
B65
331
B20
  5
C71
331
A3B
  5
A3B
331
AC9
  5
B83
331
BBF
  5
CB9
331
AD1
  5
B9E
331
985
  5
985
331
A43
  5
A43
331
A82
  5
AF9
331
BC7
  5
D05
331
A4B
  5
ABF
331
AE1
  5
BAF
331
9EC
  5
9EC
331
A53
  5
AC7
331
B80
  5
C8C
331
956
  5
956
331
9BD
  5
9BD
331
A5B
  5
ACF
331
AAA
  5
B1F
331
AE9
  5
BB6
331
AF1
  5
BBE
331
9C5
  5
9C5
331
95E
  5
95E
331
AB2
  5
B27
331
BA0
  5
CA2
331
96E
  5
96E
331
9CD
  5
9CD
331
A6B
  5
AE0
331
ABA
  5
B44
331
CD7
  5
AB9
331
AC2
  5
B7B
331
A34
  5
A34
331
A73
  5
AF3
331
B19
  5
C70
331
ACA
  5
B84
331
A3C
  5
A3C
331
97E
  5
97E
331
9DD
  5
9DD
331
B21
  5
C72
331
AD2
  5
B9F
331
A44
  5
A44
331
9E5
  5
9E5
331
986
  5
986
331
A4C
  5
AC0
  0
SORTENTSTABLE
  5
11B7
102
{ACAD_REACTORS
330
11B6
102
}
330
11B6
100
AcDbSortentsTable
330
11B1
  0
XRECORD
  5
11E5
102
{ACAD_REACTORS
330
11E4
102
}
330
11E4
100
AcDbXrecord
280
     1
102
SHADEPLOT
 70
     0
  0
XRECORD
  5
11E3
102
{ACAD_REACTORS
330
11E2
102
}
330
11E2
100
AcDbXrecord
280
     1
 70
     1
  0
LAYOUT
  5
153
102
{ACAD_XDICTIONARY
360
44F
102
}
102
{ACAD_REACTORS
330
150
102
}
330
150
100
AcDbPlotSettings
  1

  2
none_device
  4
Letter_(8.50_x_11.00_Inches)
  6

 40
6.349999904632567
 41
6.349999904632567
 42
6.350006103515625
 43
6.350006103515625
 44
215.8999938964844
 45
279.3999938964844
 46
0.0
 47
0.0
 48
0.0
 49
0.0
140
0.0
141
0.0
142
1.0
143
1.0
 70
   688
 72
     0
 73
     1
 74
     5
  7

 75
     0
147
1.0
148
0.0
149
0.0
100
AcDbLayout
  1
Layout1
 70
     1
 71
     1
 10
-0.2500002402958907
 20
-0.2499999962453767
 11
10.74999951940821
 21
8.249999763458731
 12
0.0
 22
0.0
 32
0.0
 14
1.000000000000000E+20
 24
1.000000000000000E+20
 34
1.000000000000000E+20
 15
-1.000000000000000E+20
 25
-1.000000000000000E+20
 35
-1.000000000000000E+20
146
0.0
 13
0.0
 23
0.0
 33
0.0
 16
1.0
 26
0.0
 36
0.0
 17
0.0
 27
1.0
 37
0.0
 76
     0
330
16
331
BA
  0
LAYOUT
  5
152
102
{ACAD_XDICTIONARY
360
11E6
102
}
102
{ACAD_REACTORS
330
150
102
}
330
150
100
AcDbPlotSettings
  1

  2
\\NOVIBDC\HPLJ4-TPUB
  4

  6

 40
0.0
 41
0.0
 42
0.0
 43
0.0
 44
0.0
 45
0.0
 46
0.0
 47
0.0
 48
0.0
 49
0.0
140
0.0
141
0.0
142
1.0
143
1.0
 70
  1712
 72
     0
 73
     0
 74
     0
  7

 75
     0
147
1.0
148
0.0
149
0.0
100
AcDbLayout
  1
Model
 70
     1
 71
     0
 10
0.0
 20
0.0
 11
12.0
 21
9.0
 12
0.0
 22
0.0
 32
0.0
 14
0.0
 24
0.0
 34
0.0
 15
0.0
 25
0.0
 35
0.0
146
0.0
 13
0.0
 23
0.0
 33
0.0
 16
1.0
 26
0.0
 36
0.0
 17
0.0
 27
1.0
 37
0.0
 76
     0
330
19
331
57D
  0
MATERIAL
  5
580
102
{ACAD_XDICTIONARY
360
1009
102
}
102
{ACAD_REACTORS
330
3F7
102
}
330
3F7
100
AcDbMaterial
  1
ByBlock
  0
MATERIAL
  5
57F
102
{ACAD_XDICTIONARY
360
1007
102
}
102
{ACAD_REACTORS
330
3F7
102
}
330
3F7
100
AcDbMaterial
  1
ByLayer
  0
MATERIAL
  5
581
102
{ACAD_XDICTIONARY
360
100B
102
}
102
{ACAD_REACTORS
330
3F7
102
}
330
3F7
100
AcDbMaterial
  1
Global
  0
MLINESTYLE
  5
1C
102
{ACAD_REACTORS
330
E
102
}
330
E
100
AcDbMlineStyle
  2
STANDARD
 70
     0
  3

 62
     0
 51
90.0
 52
90.0
 71
     2
 49
0.5
 62
   256
  6
BYLAYER
 49
-0.5
 62
   256
  6
BYLAYER
  0
ACDBPLACEHOLDER
  5
14F
102
{ACAD_REACTORS
330
14E
102
}
330
14E
  0
TABLESTYLE
  5
3FA
102
{ACAD_XDICTIONARY
360
11E9
102
}
102
{ACAD_REACTORS
330
3F9
102
}
330
3F9
100
AcDbTableStyle
  3
Standard
 70
     0
 71
     0
 40
0.06
 41
0.06
280
     0
281
     0
  7
STANDARD
140
0.18
170
     2
 62
     0
 63
     7
283
     0
274
    -2
284
     1
 64
     0
275
    -2
285
     1
 65
     0
276
    -2
286
     1
 66
     0
277
    -2
287
     1
 67
     0
278
    -2
288
     1
 68
     0
279
    -2
289
     1
 69
     0
  7
STANDARD
140
0.25
170
     5
 62
     0
 63
     7
283
     0
274
    -2
284
     1
 64
     0
275
    -2
285
     1
 65
     0
276
    -2
286
     1
 66
     0
277
    -2
287
     1
 67
     0
278
    -2
288
     1
 68
     0
279
    -2
289
     1
 69
     0
  7
STANDARD
140
0.18
170
     5
 62
     0
 63
     7
283
     0
274
    -2
284
     1
 64
     0
275
    -2
285
     1
 65
     0
276
    -2
286
     1
 66
     0
277
    -2
287
     1
 67
     0
278
    -2
288
     1
 68
     0
279
    -2
289
     1
 69
     0
  0
VISUALSTYLE
  5
588
102
{ACAD_REACTORS
330
582
102
}
330
582
100
AcDbVisualStyle
  2
2dWireframe
 70
     4
 71
     0
 72
     2
 73
     0
 90
        0
 40
-0.6
 41
-30.0
 62
     5
 63
     7
 74
     1
 91
        4
 64
     7
 65
   257
 75
     1
175
     1
 42
1.0
 92
        0
 66
   257
 43
1.0
 76
     1
 77
     6
 78
     2
 67
     7
 79
     5
170
     0
171
     0
290
     0
174
     0
 93
        1
 44
0.0
173
     0
291
     0
 45
0.0
1001
ACAD
1000
AcDbSavedByObjectVersion
1070
     0
  0
VISUALSTYLE
  5
58A
102
{ACAD_REACTORS
330
582
102
}
330
582
100
AcDbVisualStyle
  2
3D Hidden
 70
     6
 71
     1
 72
     2
 73
     2
 90
        0
 40
-0.6
 41
-30.0
 62
     5
 63
     7
 74
     2
 91
        2
 64
     7
 65
   257
 75
     2
175
     1
 42
40.0
 92
        0
 66
   257
 43
1.0
 76
     1
 77
     6
 78
     2
 67
     7
 79
     3
170
     0
171
     0
290
     0
174
     0
 93
        1
 44
0.0
173
     0
291
     0
 45
0.0
1001
ACAD
1000
AcDbSavedByObjectVersion
1070
     0
  0
VISUALSTYLE
  5
589
102
{ACAD_REACTORS
330
582
102
}
330
582
100
AcDbVisualStyle
  2
3dWireframe
 70
     5
 71
     0
 72
     2
 73
     0
 90
        0
 40
-0.6
 41
-30.0
 62
     5
 63
     7
 74
     1
 91
        4
 64
     7
 65
   257
 75
     1
175
     1
 42
1.0
 92
        0
 66
   257
 43
1.0
 76
     1
 77
     6
 78
     2
 67
     7
 79
     5
170
     0
171
     0
290
     0
174
     0
 93
        1
 44
0.0
173
     0
291
     0
 45
0.0
1001
ACAD
1000
AcDbSavedByObjectVersion
1070
     0
  0
VISUALSTYLE
  5
587
102
{ACAD_REACTORS
330
582
102
}
330
582
100
AcDbVisualStyle
  2
Basic
 70
     7
 71
     1
 72
     0
 73
     1
 90
        0
 40
-0.6
 41
-30.0
 62
     5
 63
     7
 74
     0
 91
        4
 64
     7
 65
   257
 75
     1
175
     1
 42
1.0
 92
        8
 66
     7
 43
1.0
 76
     1
 77
     6
 78
     2
 67
     7
 79
     5
170
     0
171
     0
290
     0
174
     0
 93
        1
 44
0.0
173
     0
291
     1
 45
0.0
1001
ACAD
1000
AcDbSavedByObjectVersion
1070
     0
  0
VISUALSTYLE
  5
58E
102
{ACAD_REACTORS
330
582
102
}
330
582
100
AcDbVisualStyle
  2
Brighten
 70
    12
 71
     2
 72
     2
 73
     0
 90
        0
 40
-0.6
 41
-30.0
 62
     5
 63
     7
 74
     1
 91
        4
 64
     7
 65
   257
 75
     1
175
     1
 42
1.0
 92
        8
 66
     7
 43
1.0
 76
     1
 77
     6
 78
     2
 67
     7
 79
     5
170
     0
171
     0
290
     0
174
     0
 93
        1
 44
50.0
173
     0
291
     1
 45
0.0
1001
ACAD
1000
AcDbSavedByObjectVersion
1070
     0
  0
VISUALSTYLE
  5
592
102
{ACAD_REACTORS
330
582
102
}
330
582
100
AcDbVisualStyle
  2
ColorChange
 70
    16
 71
     2
 72
     2
 73
     3
 90
        0
 40
-0.6
 41
-30.0
 62
     5
 63
     8
 74
     1
 91
        4
 64
     7
 65
   257
 75
     1
175
     1
 42
1.0
 92
        8
 66
     8
 43
1.0
 76
     1
 77
     6
 78
     2
 67
     7
 79
     5
170
     0
171
     0
290
     0
174
     0
 93
        1
 44
0.0
173
     0
291
     1
 45
0.0
1001
ACAD
1000
AcDbSavedByObjectVersion
1070
     0
  0
VISUALSTYLE
  5
58B
102
{ACAD_REACTORS
330
582
102
}
330
582
100
AcDbVisualStyle
  2
Conceptual
 70
     9
 71
     3
 72
     2
 73
     0
 90
        0
 40
-0.6
 41
-30.0
 62
     5
 63
     7
 74
     2
 91
        2
 64
     7
 65
   257
 75
     1
175
     1
 42
40.0
 92
        8
 66
     7
 43
1.0
 76
     1
 77
     6
 78
     2
 67
     7
 79
     3
170
     0
171
     0
290
     0
174
     0
 93
        1
 44
0.0
173
     0
291
     0
 45
0.0
1001
ACAD
1000
AcDbSavedByObjectVersion
1070
     0
  0
VISUALSTYLE
  5
58D
102
{ACAD_REACTORS
330
582
102
}
330
582
100
AcDbVisualStyle
  2
Dim
 70
    11
 71
     2
 72
     2
 73
     0
 90
        0
 40
-0.6
 41
-30.0
 62
     5
 63
     7
 74
     1
 91
        4
 64
     7
 65
   257
 75
     1
175
     1
 42
1.0
 92
        8
 66
     7
 43
1.0
 76
     1
 77
     6
 78
     2
 67
     7
 79
     5
170
     0
171
     0
290
     0
174
     0
 93
        1
 44
-50.0
173
     0
291
     1
 45
0.0
1001
ACAD
1000
AcDbSavedByObjectVersion
1070
     0
  0
VISUALSTYLE
  5
591
102
{ACAD_REACTORS
330
582
102
}
330
582
100
AcDbVisualStyle
  2
Facepattern
 70
    15
 71
     2
 72
     2
 73
     0
 90
        0
 40
-0.6
 41
-30.0
 62
     5
 63
     7
 74
     1
 91
        4
 64
     7
 65
   257
 75
     1
175
     1
 42
1.0
 92
        8
 66
     7
 43
1.0
 76
     1
 77
     6
 78
     2
 67
     7
 79
     5
170
     0
171
     0
290
     0
174
     0
 93
        1
 44
0.0
173
     0
291
     1
 45
0.0
1001
ACAD
1000
AcDbSavedByObjectVersion
1070
     0
  0
VISUALSTYLE
  5
583
102
{ACAD_REACTORS
330
582
102
}
330
582
100
AcDbVisualStyle
  2
Flat
 70
     0
 71
     2
 72
     1
 73
     1
 90
        2
 40
-0.6
 41
30.0
 62
     5
 63
     7
 74
     0
 91
        4
 64
     7
 65
   257
 75
     1
175
     1
 42
1.0
 92
        8
 66
     7
 43
1.0
 76
     1
 77
     6
 78
     2
 67
     7
 79
     5
170
     0
171
     0
290
     0
174
     0
 93
       13
 44
0.0
173
     0
291
     1
 45
0.0
1001
ACAD
1000
AcDbSavedByObjectVersion
1070
     0
  0
VISUALSTYLE
  5
584
102
{ACAD_REACTORS
330
582
102
}
330
582
100
AcDbVisualStyle
  2
FlatWithEdges
 70
     1
 71
     2
 72
     1
 73
     1
 90
        2
 40
-0.6
 41
30.0
 62
     5
 63
     7
 74
     1
 91
        4
 64
     7
 65
   257
 75
     1
175
     1
 42
1.0
 92
        0
 66
   257
 43
1.0
 76
     1
 77
     6
 78
     2
 67
     7
 79
     5
170
     0
171
     0
290
     0
174
     0
 93
       13
 44
0.0
173
     0
291
     1
 45
0.0
1001
ACAD
1000
AcDbSavedByObjectVersion
1070
     0
  0
VISUALSTYLE
  5
585
102
{ACAD_REACTORS
330
582
102
}
330
582
100
AcDbVisualStyle
  2
Gouraud
 70
     2
 71
     2
 72
     2
 73
     1
 90
        2
 40
-0.6
 41
30.0
 62
     5
 63
     7
 74
     0
 91
        4
 64
     7
 65
   257
 75
     1
175
     1
 42
1.0
 92
        0
 66
     7
 43
1.0
 76
     1
 77
     6
 78
     2
 67
     7
 79
     5
170
     0
171
     0
290
     0
174
     0
 93
       13
 44
0.0
173
     0
291
     1
 45
0.0
1001
ACAD
1000
AcDbSavedByObjectVersion
1070
     0
  0
VISUALSTYLE
  5
586
102
{ACAD_REACTORS
330
582
102
}
330
582
100
AcDbVisualStyle
  2
GouraudWithEdges
 70
     3
 71
     2
 72
     2
 73
     1
 90
        2
 40
-0.6
 41
30.0
 62
     5
 63
     7
 74
     1
 91
        4
 64
     7
 65
   257
 75
     1
175
     1
 42
1.0
 92
        0
 66
   257
 43
1.0
 76
     1
 77
     6
 78
     2
 67
     7
 79
     5
170
     0
171
     0
290
     0
174
     0
 93
       13
 44
0.0
173
     0
291
     1
 45
0.0
1001
ACAD
1000
AcDbSavedByObjectVersion
1070
     0
  0
VISUALSTYLE
  5
590
102
{ACAD_REACTORS
330
582
102
}
330
582
100
AcDbVisualStyle
  2
Linepattern
 70
    14
 71
     2
 72
     2
 73
     0
 90
        0
 40
-0.6
 41
-30.0
 62
     5
 63
     7
 74
     1
 91
        4
 64
     7
 65
   257
 75
     7
175
     7
 42
1.0
 92
        8
 66
     7
 43
1.0
 76
     1
 77
     6
 78
     2
 67
     7
 79
     5
170
     0
171
     0
290
     0
174
     0
 93
        1
 44
0.0
173
     0
291
     1
 45
0.0
1001
ACAD
1000
AcDbSavedByObjectVersion
1070
     0
  0
VISUALSTYLE
  5
58C
102
{ACAD_REACTORS
330
582
102
}
330
582
100
AcDbVisualStyle
  2
Realistic
 70
     8
 71
     2
 72
     2
 73
     0
 90
        0
 40
-0.6
 41
-30.0
 62
     5
 63
     7
 74
     1
 91
        0
 64
     7
 65
   257
 75
     1
175
     1
 42
1.0
 92
        8
 66
     8
 43
1.0
 76
     1
 77
     6
 78
     2
 67
     7
 79
     5
170
     0
171
     0
290
     0
174
     0
 93
       13
 44
0.0
173
     0
291
     0
 45
0.0
1001
ACAD
1000
AcDbSavedByObjectVersion
1070
     0
  0
VISUALSTYLE
  5
58F
102
{ACAD_REACTORS
330
582
102
}
330
582
100
AcDbVisualStyle
  2
Thicken
 70
    13
 71
     2
 72
     2
 73
     0
 90
        0
 40
-0.6
 41
-30.0
 62
     5
 63
     7
 74
     1
 91
        4
 64
     7
 65
   257
 75
     1
175
     1
 42
1.0
 92
       12
 66
     7
 43
1.0
 76
     1
 77
     6
 78
     2
 67
     7
 79
     5
170
     0
171
     0
290
     0
174
     0
 93
        1
 44
0.0
173
     0
291
     1
 45
0.0
1001
ACAD
1000
AcDbSavedByObjectVersion
1070
     0
  0
DICTIONARYVAR
  5
429
102
{ACAD_REACTORS
330
FA
102
}
330
FA
100
DictionaryVariables
280
     0
  1
STANDARD
  0
DICTIONARYVAR
  5
3F5
102
{ACAD_REACTORS
330
FA
102
}
330
FA
100
DictionaryVariables
280
     0
  1
1
  0
DICTIONARYVAR
  5
FB
102
{ACAD_REACTORS
330
FA
102
}
330
FA
100
DictionaryVariables
280
     0
  1
1
  0
DICTIONARYVAR
  5
11E0
102
{ACAD_REACTORS
330
FA
102
}
330
FA
100
DictionaryVariables
280
     0
  1
127
  0
DICTIONARY
  5
2C1
102
{ACAD_REACTORS
330
189
102
}
330
189
100
AcDbDictionary
281
     1
  0
XRECORD
  5
402
102
{ACAD_REACTORS
330
189
102
}
330
189
100
AcDbXrecord
280
     1
 90
-1023410169
  0
DICTIONARY
  5
159
102
{ACAD_REACTORS
330
158
102
}
330
158
100
AcDbDictionary
281
     1
  3
DWGSETTINGS
350
10B3
  3
TRANSSETTINGS
350
10B4
  0
ACAMGFILTERDAT
  5
1BE
102
{ACAD_REACTORS
330
1BA
102
}
330
1BA
100
AcAmgFilterDat
 70
    15
  1
DIMENSION,AMDT_*_DIM
  2
*
  3
*
  4
*
  5
*
290
     1
  0
ACAMGFILTERDAT
  5
1BD
102
{ACAD_REACTORS
330
1BA
102
}
330
1BA
100
AcAmgFilterDat
 70
    15
  1
*
  2
AM_FEA-AM_*
  3
*
  4
*
  5
*
290
     1
  0
ACAMGFILTERDAT
  5
1BB
102
{ACAD_REACTORS
330
1BA
102
}
330
1BA
100
AcAmgFilterDat
 70
    15
  1
HATCH
  2
*
  3
*
  4
*
  5
*
290
     1
  0
ACAMGFILTERDAT
  5
1BC
102
{ACAD_REACTORS
330
1BA
102
}
330
1BA
100
AcAmgFilterDat
 70
    15
  1
ACMFCFRAME,ACMDATUMTARGET,ACMDATUMID,ACMWELDSYM,ACMSURFSYM,ACMFEATID,ACMPARTREF,ACMBALLOON
  2
*
  3
*
  4
*
  5
*
290
     1
  0
LAYER_INDEX
  5
D07
102
{ACAD_REACTORS
330
D06
102
}
330
D06
100
AcDbIndex
 40
2454784.453935487
100
AcDbLayerIndex
  8
0
360
D08
 90
       31
  8
BORDER
360
D09
 90
        0
  8
Dimensions
360
D0A
 90
       31
  8
Notes
360
D0B
 90
       11
  8
Part
360
D0C
 90
      209
  8
DEFPOINTS
360
D0D
 90
        0
  8
DEFAULT_1
360
D0E
 90
        0
  8
Label
360
D0F
 90
       15
  8
Schematics
360
F4C
 90
       10
  8
Buttons
360
11BC
 90
        0
  0
DICTIONARY
  5
44F
330
153
100
AcDbDictionary
280
     1
281
     1
  3
ACAD_XREC_ROUNDTRIP
360
11E8
  3
ADSK_XREC_LAYOUTTHUMBNAIL
360
450
  0
DICTIONARY
  5
11E6
330
152
100
AcDbDictionary
280
     1
281
     1
  3
ACAD_XREC_ROUNDTRIP
360
11E7
  0
DICTIONARY
  5
1009
330
580
100
AcDbDictionary
280
     1
281
     1
  3
ACAD_XREC_ROUNDTRIP
360
100A
  0
DICTIONARY
  5
1007
330
57F
100
AcDbDictionary
280
     1
281
     1
  3
ACAD_XREC_ROUNDTRIP
360
1008
  0
DICTIONARY
  5
100B
330
581
100
AcDbDictionary
280
     1
281
     1
  3
ACAD_XREC_ROUNDTRIP
360
100C
  0
DICTIONARY
  5
11E9
330
3FA
100
AcDbDictionary
280
     1
281
     1
  3
ACAD_XREC_ROUNDTRIP
360
11EA
  0
IDBUFFER
  5
D08
330
0
100
AcDbIdBuffer
330
FC2
330
FC3
330
FC4
330
FC5
330
FC6
330
FC7
330
FC8
330
FC9
330
FCA
330
FCB
330
FCC
330
FCD
330
FCE
330
FCF
330
FD0
330
FD1
330
FD2
330
FD3
330
FD4
330
FD5
330
FD6
330
FD7
330
FD8
330
FD9
330
FDA
330
FDB
330
FDC
330
FDD
330
FDE
330
FDF
330
11BB
  0
IDBUFFER
  5
D09
330
0
100
AcDbIdBuffer
  0
IDBUFFER
  5
D0A
330
0
100
AcDbIdBuffer
330
959
330
97B
330
97C
330
97E
330
980
330
982
330
983
330
9E3
330
9E7
330
9E9
330
9EB
330
9EC
330
A16
330
A17
330
A18
330
A33
330
A35
330
A36
330
A37
330
A40
330
A45
330
B34
330
B35
330
B37
330
B7E
330
B7F
330
B80
330
B81
330
B82
330
B83
330
B84
  0
IDBUFFER
  5
D0B
330
0
100
AcDbIdBuffer
330
DD4
330
DD5
330
DD6
330
DD7
330
DD9
330
DEA
330
DEB
330
EA1
330
EA2
330
EA3
330
F6D
  0
IDBUFFER
  5
D0C
330
0
100
AcDbIdBuffer
330
955
330
956
330
957
330
958
330
95A
330
95B
330
95C
330
95D
330
95E
330
96A
330
96B
330
96C
330
96D
330
96E
330
96F
330
970
330
971
330
972
330
973
330
974
330
97A
330
97F
330
985
330
986
330
987
330
988
330
989
330
9A0
330
9A7
330
9BC
330
9BD
330
9BE
330
9BF
330
9C2
330
9C3
330
9C4
330
9C5
330
9C6
330
9C7
330
9C8
330
9C9
330
9CA
330
9CC
330
9CD
330
9CE
330
9CF
330
9D2
330
9D3
330
9D8
330
9D9
330
9DD
330
9E2
330
9E8
330
9ED
330
A21
330
A34
330
A38
330
A39
330
A3A
330
A3B
330
A3C
330
A3D
330
A3E
330
A41
330
A42
330
A43
330
A44
330
A4A
330
A4B
330
A4C
330
A50
330
A51
330
A52
330
A53
330
A54
330
A55
330
A56
330
A57
330
A59
330
A5B
330
A5C
330
A5E
330
A60
330
A61
330
A64
330
A65
330
A66
330
A67
330
A68
330
A69
330
A6A
330
A6B
330
A6C
330
A6D
330
A6F
330
A70
330
A71
330
A72
330
A73
330
A7F
330
A80
330
A82
330
A87
330
AA7
330
AA8
330
AA9
330
AAA
330
AAB
330
AAC
330
AAD
330
AAE
330
AAF
330
AB0
330
AB1
330
AB2
330
AB3
330
AB4
330
AB5
330
AB6
330
AB7
330
AB8
330
AB9
330
ABA
330
ABC
330
ABD
330
ABE
330
ABF
330
AC0
330
AC1
330
AC2
330
AC4
330
AC5
330
AC6
330
AC7
330
AC8
330
AC9
330
ACA
330
ACB
330
ACC
330
ACD
330
ACE
330
ACF
330
AD1
330
AD2
330
AD3
330
ADE
330
ADF
330
AE0
330
AE1
330
AE3
330
AE4
330
AE5
330
AE6
330
AE7
330
AE8
330
AE9
330
AEC
330
AED
330
AEE
330
AEF
330
AF1
330
AF2
330
AF3
330
AF4
330
AF5
330
AF6
330
AF7
330
AF8
330
AFC
330
AFD
330
AFE
330
B19
330
B20
330
B21
330
B22
330
B23
330
B24
330
B25
330
B26
330
B27
330
B79
330
B7B
330
BA0
330
BAA
330
BAB
330
BBE
330
BBF
330
BC1
330
BC2
330
BC3
330
BC4
330
BC5
330
BC6
330
BC7
330
C7C
330
C91
330
C92
330
C96
330
CC5
330
CD2
330
CD3
330
CD5
330
CD6
330
CD7
330
CD8
330
CD9
330
CDA
330
CDB
330
D05
  0
IDBUFFER
  5
D0D
330
0
100
AcDbIdBuffer
  0
IDBUFFER
  5
D0E
330
0
100
AcDbIdBuffer
  0
IDBUFFER
  5
D0F
330
0
100
AcDbIdBuffer
330
984
330
9E5
330
9EA
330
A15
330
A4D
330
A4E
330
A4F
330
AEA
330
AEB
330
AF0
330
F55
330
F56
330
F57
330
F58
330
F59
  0
IDBUFFER
  5
F4C
330
0
100
AcDbIdBuffer
330
EE6
330
EE7
330
EE8
330
F4D
330
F4E
330
F4F
330
F51
330
F52
330
F53
330
F54
  0
IDBUFFER
  5
11BC
330
0
100
AcDbIdBuffer
  0
XRECORD
  5
11E8
102
{ACAD_REACTORS
330
44F
102
}
330
44F
100
AcDbXrecord
280
     1
102
SHADEPLOT
 70
     0
102
SHADEPLOTRESLEVEL
 70
     2
102
SHADEPLOTCUSTOMDPI
 70
   300
  0
XRECORD
  5
450
102
{ACAD_REACTORS
330
44F
102
}
330
44F
100
AcDbXrecord
280
     1
310
28000000B40000008B0000000100080000000000BC61000000000000000000000001000000000000FFFFFF0000000000FFFFFF000000000000000000000000000000000000000000000000000000000000000000330000006600000099000000CC000000FF00000000330000333300006633000099330000CC330000FF3300
310
0000660000336600006666000099660000CC660000FF66000000990000339900006699000099990000CC990000FF99000000CC000033CC000066CC000099CC0000CCCC0000FFCC000000FF000033FF000066FF000099FF0000CCFF0000FFFF000000003300330033006600330099003300CC003300FF003300003333003333
310
33006633330099333300CC333300FF33330000663300336633006666330099663300CC663300FF66330000993300339933006699330099993300CC993300FF99330000CC330033CC330066CC330099CC3300CCCC3300FFCC330000FF330033FF330066FF330099FF3300CCFF3300FFFF330000006600330066006600660099
310
006600CC006600FF00660000336600333366006633660099336600CC336600FF33660000666600336666006666660099666600CC666600FF66660000996600339966006699660099996600CC996600FF99660000CC660033CC660066CC660099CC6600CCCC6600FFCC660000FF660033FF660066FF660099FF6600CCFF6600
310
FFFF660000009900330099006600990099009900CC009900FF00990000339900333399006633990099339900CC339900FF33990000669900336699006666990099669900CC669900FF66990000999900339999006699990099999900CC999900FF99990000CC990033CC990066CC990099CC9900CCCC9900FFCC990000FF99
310
0033FF990066FF990099FF9900CCFF9900FFFF99000000CC003300CC006600CC009900CC00CC00CC00FF00CC000033CC003333CC006633CC009933CC00CC33CC00FF33CC000066CC003366CC006666CC009966CC00CC66CC00FF66CC000099CC003399CC006699CC009999CC00CC99CC00FF99CC0000CCCC0033CCCC0066CC
310
CC0099CCCC00CCCCCC00FFCCCC0000FFCC0033FFCC0066FFCC0099FFCC00CCFFCC00FFFFCC000000FF003300FF006600FF009900FF00CC00FF00FF00FF000033FF003333FF006633FF009933FF00CC33FF00FF33FF000066FF003366FF006666FF009966FF00CC66FF00FF66FF000099FF003399FF006699FF009999FF00CC
310
99FF00FF99FF0000CCFF0033CCFF0066CCFF0099CCFF00CCCCFF00FFCCFF0000FFFF0033FFFF0066FFFF0099FFFF00CCFFFF00FFFFFF00000000000D0D0D001A1A1A00282828003535350043434300505050005D5D5D006B6B6B00787878008686860093939300A1A1A100AEAEAE00BBBBBB00C9C9C900D6D6D600E4E4E400
310
F1F1F100FFFFFF0000000000000000000000000000000000000000000000000000000000000000000000000000000000E2E2E2E2E2E2E2E2E2E2E2E2E2E2E2E2E2E2E2E2E2E2E2E2E2E2E2E2E2E2E2E2E2E2E2E2E2E2E2E2E2E2E2E2E2E2E2E2E2E2E2E2E2E2E2E2E2E2E2E2E2E2E2E2E2E2E2E2E2E2E2E2E2E2E2E2E2E2E2
310
E2E2E2E2E2E2E2E2E2E2E2E2E2E2E2E2E2E2E2E2E2E2E2E2E2E2E2E2E2E2E2E2E2E2E2E2E2E2E2E2E2E2E2E2E2E2E2E2E2E2E2E2E2E2E2E2E2E2E2E2E2E2E2E2E2E2E2E2E2E2E2E2E2E2E2E2E2E2E2E2E2E2E2E2E2E2E2E2E2E2E2E2E2E2E2E2E2E2E2E2E2E2F5F5F5F5F5F5F5F5F5F5F5F5F5F5F5F5F5F5F5F5F5F5F5F5F5
310
F5F5F5F5F5F5F5F5F5F5F5F5F5F5F5F5F5F5F5F5F5F5F5F5F5F5F5F5F5F5F5F5F5F5F5F5F5F5F5F5F5F5F5F5F5F5F5F5F5F5F5F5F5F5F5F5F5F5F5F5F5F5F5F5F5F5F5F5F5F5F5F5F5F5F5F5F5F5F5F5F5F5F5F5F5F5F5F5F5F5F5F5F5F5F5F5F5F5F5F5F5F5F5F5F5F5F5F5F5F5F5F5F5F5F5F5F5F5F5F5F5F5F5F5F5F5F5
310
F5F5F5F5F5F5F5F5F5F5F5F5F5F5F5F5F5F5F5F5F5F5F5F5F5F5E2E2F5F5F5F5F5F5F5F5F5F5F5F5F5F5F5F5F5F5F5F5F5F5F5F5F5F5F5F5F5F5F5F5F5F5F5F5F5F5F5F5F5F5F5F5F5F5F5F5F5F5F5F5F5F5F5F5F5F5F5F5F5F5F5F5F5F5F5F5F5F5F5F5F5F5F5F5F5F5F5F5F5F5F5F5F5F5F5F5F5F5F5F5F5F5F5F5F5F5F5
310
F5F5F5F5F5F5F5F5F5F5F5F5F5F5F5F5F5F5F5F5F5F5F5F5F5F5F5F5F5F5F5F5F5F5F5F5F5F5F5F5F5F5F5F5F5F5F5F5F5F5F5F5F5F5F5F5F5F5F5F5F5F5F5F5F5F5F5F5F5F5F5F5F5F5F5F5F5F5F5E2E2F5F5F5F5F5F5F5F5F5F5F5F5F5F5F5F5F5F5F5F5F5F5F5F5F5F5F5F5F5F5F5F5F5F5F5F5F5F5F5F5F5F5F5F5F5F5
310
F5F5F5F5F5F5F5F5F5F5F5F5F5F5F5F5F5F5F5F5F5F5F5F5F5F5F5F5F5F5F5F5F5F5F5F5F5F5F5F5F5F5F5F5F5F5F5F5F5F5F5F5F5F5F5F5F5F5F5F5F5F5F5F5F5F5F5F5F5F5F5F5F5F5F5F5F5F5F5F5F5F5F5F5F5F5F5F5F5F5F5F5F5F5F5F5F5F5F5F5F5F5F5F5F5F5F5F5F5F5F5F5F5F5F5F5F5F5F5F5F5F5F5F5F5F5F5
310
F5F5F5F5F5E2E2F5F5F5F5F5F5F5F5F5F5F5F5F5F5F5F5F5F5F5F5F5F5F5F5F5F5F5F5F5F5F5F5F5F5F5F5F5F5F5F5F5F5F5F5F5F5F5F5F5F5F5F5F5F5F5F5F5F5F5F5F5F5F5F5F5F5F5F5F5F5F5F5F5F5F5F5F5F5F5F5F5F5F5F5F5F5F5F5F5F5F5F5F5F5F5F5F5F5F5F5F5F5F5F5F5F5F5F5F5F5F5F5F5F5F5F5F5F5F5F5
310
F5F5F5F5F5F5F5F5F5F5F5F5F5F5F5F5F5F5F5F5F5F5F5F5F5F5F5F5F5F5F5F5F5F5F5F5F5F5F5F5F5F5F5F5F5F5F5F5F5F5F5F5F5F5F5F5F5F5E2E2F5F5F5E2E2E2E2E2E2E2E2F5F5F5F5F5F5F5F5F5E2E2E2E2E2E2E2E2E2E2E2E2E2E2E2E2F5F5F5F5F5F5F5F5F5E2E2E2E2E2E2E2E2E2E2E2E2E2E2E2F5F5F5F5F5F5F5
310
F5F5E2E2E2E2E2E2E2E2E2E2E2E2E2E2E2E2F5F5F5F5F5F5F5F5E2E2E2E2E2E2E2E2E2E2E2E2E2E2E2E2F5F5F5F5F5F5F5F5F5E2E2E2E2E2E2E2E2E2E2E2E2E2E2E2F5F5F5F5F5F5F5F5F5E2E2E2E2E2E2E2E2E2E2E2E2E2E2E2E2F5F5F5F5F5F5F5F5F5E2E2E2E2E2E2E2E2F5F5F5E2E2F5F5F5E2F5F5F5F5F5F5F5F5F5F5
310
F5F5F5F5F5F5F5F5F5F5F5F5F5F5F5F5F5F5F5F5F5F5F5F5F5F5F5F5F5F5F5F5F5F5F5F5F5F5F5F5F5F5F5F5F5F5F5F5F5F5F5F5F5F5F5F5F5F5F5F5F5F5F5F5F5F5F5F5F5F5F5F5F5F5F5F5F5F5F5F5F5F5F5F5F5F5F5F5F5F5F5F5F5F5F5F5F5F5F5F5F5F5F5F5F5F5F5F5F5F5F5F5F5F5F5F5F5F5F5F5F5F5F5F5F5F5F5
310
F5F5F5F5F5F5F5F5F5F5F5F5F5F5F5F5F5F5F5F5F5F5F5F5F5F5F5F5F5F5F5F5F5E2F5F5F5E2E2F5F5F5E2F5F5F5F5F5F5F5F5F5F5F5F5F5F5F5F5F5F5F5F5F5F5F5F5F5F5F5F5F5F5F5F5F5F5F5F5F5F5F5F5F5F5F5F5F5F5F5F5F5F5F5F5F5F5F5F5F5F5F5F5F5F5F5F5F5F5F5F5F5F5F5F5F5F5F5F5F5F5F5F5F5F5F5F5
310
F5F5F5F5F5F5F5F5F5F5F5F5F5F5F5F5F5F5F5F5F5F5F5F5F5F5F5F5F5F5F5F5F5F5F5F5F5F5F5F5F5F5F5F5F5F5F5F5F5F5F5F5F5F5F5F5F5F5F5F5F5F5F5F5F5F5F5F5F5F5F5F5F5F5F5F5F5F5F5F5F5F5F5F5F5F5E2F5F5F5E2E2F5F5F5E2F5F5F5F5F5F5F5F5F5F5F5F5F5F5F5F5F5F5F5F5F5F5F5F5F5F5F5F5F5F5F5
310
F5F5F5F5F5F5F5F5F5F5F5F5F5F5F5F5F5F5F5F5F5F5F5F5F5F5F5F5F5F5F5F5F5F5F5F5F5F5F5F5F5F5F5F5F5F5F5F5F5F5F5F5F5F5F5F5F5F5F5F5F5F5F5F5F5F5F5F5F5F5F5F5F5F5F5F5F5F5F5F5F5F5F5F5F5F5F5F5F5F5F5F5F5F5F5F5F5F5F5F5F5F5F5F5F5F5F5F5F5F5F5F5F5F5F5F5F5F5F5F5F5F5F5F5F5F5F5
310
F5F5F5F5F5F5F5F5F5F5F5F5E2F5F5F5E2E2F5F5F5E2F5F5F5F5F5F5F5F5F5F5F5F5F5F5F5F5F5F5F5F5F5F5F5F5F5F5F5F5F5F5F5F5F5F5F5F5F5F5F5F5F5F5F5F5F5F5F5F5F5F5F5F5F5F5F5F5F5F5F5F5F5F5F5F5F5F5F5F5F5F5F5F5F5F5F5F5F5F5F5F5F5F5F5F5F5F5F5F5F5F5F5F5F5F5F5F5F5F5F5F5F5F5F5F5F5
310
F5F5F5F5F5F5F5F5F5F5F5F5F5F5F5F5F5F5F5F5F5F5F5F5F5F5F5F5F5F5F5F5F5F5F5F5F5F5F5F5F5F5F5F5F5F5F5F5F5F5F5F5F5F5F5F5F5F5F5F5F5F5F5F5F5E2F5F5F5E2E2F5F5F5E2F5F5F5F5F5F5F5F5F5F5F5F5F5F5F5F5F5F5F5F5F5F5F5F5F5F5F5F5F5F5F5F5F5F5F5F5F5F5F5F5F5F5F5F5F5F5F5F5F5F5F5F5
310
F5F5F5F5F5F5F5F5F5F5F5F5F5F5F5F5F5F5F5F5F5F5F5F5F5F5F5F5F5F5F5F5F5F5F5F5F5F5F5F5F5F5F5F5F5F5F5F5F5F5F5F5F5F5F5F5F5F5F5F5F5F5F5F5F5F5F5F5F5F5F5F5F5F5F5F5F5F5F5F5F5F5F5F5F5F5F5F5F5F5F5F5F5F5F5F5F5F5F5F5F5F5F5F5F5F5F5F5F5F5F5F5F5F5F5F5F5F5E2F5F5F5E2E2F5F5F5
310
E2F5F5F5F5F5F5F5F5F5F5F5F5F5F5F5F5F5F5F5F5F5F5F5F5F5F5F5F5F5F5F5F5F5F5F5F5F5F5F5F5F5F5F5F5F5F5F5F5F5F5F5F5F5F5F5F5F5F5F5F5F5F5F5F5F5F5F5F5F5F5F5F5F5F5F5F5F5F5F5F5F5F5F5F5F5F5F5F5F5F5F5F5F5F5F5F5F5F5F5F5F5F5F5F5F5F5F5F5F5F5F5F5F5F5F5F5F5F5F5F5F5F5F5F5F5F5
310
F5F5F5F5F5F5F5F5F5F5F5F5F5F5F5F5F5F5F5F5F5F5F5F5F5F5F5F5F5F5F5F5F5F5F5F5F5F5F5F5F5F5F5F5E2F5F5F5E2E2F5F5F5E2F5F5F5F5F5F5F5F5F5F5F5F5F5F5F5F5F5F5F5F5F5F5F5F5F5F5F5F5F5F5F5F5F5F5F5F5F5F5F5F5F5F5F5F5F5F5F5F5F5F5F5F5F5F5F5F5F5F5F5F5F5F5F5F5F5F5F5F5F5F5F5F5F5
310
F5F5F5F5F5F5F5F5F5F5F5F5F5F5F5F5F5F5F5F5F5F5F5F5F5F5F5F5F5F5F5F5F5F5F5F5F5F5F5F5F5F5F5F5F5F5F5F5F5F5F5F5F5F5F5F5F5F5F5F5F5F5F5F5F5F5F5F5F5F5F5F5F5F5F5F5F5F5F5F5F5F5F5F5F5F5F5F5F5F5F5F5F5F5F5F5F5E2F5F5F5E2E2F5F5F5E2F5F5F5F5F5F5F5F5F5F5F5F5F5F5F5F5F5F5F5F5
310
F5F5F5F5F5F5F5F5F5F5F5F5F5F5F5F5F5F5F5F5F5F5F5F5F5F5F5F5F5F5F5F5F5F5F5F5F5F5F5F5F5F5F5F5F5F5F5F5F5F5F5F5F5F5F5F5F5F5F5F5F5F5F5F5F5F5F5F5F5F5F5F5F5F5F5F5F5F5F5F5F5F5F5F5F5F5F5F5F5F5F5F5F5F5F5F5F5F5F5F5F5F5F5F5F5F5F5F5F5F5F5F5F5F5F5F5F5F5F5F5F5F5F5F5F5F5F5
310
F5F5F5F5F5F5F5F5F5F5F5F5F5F5F5F5F5F5F5F5F5F5F5E2F5F5F5E2E2F5F5F5F5F5F5F5F5F5F5F5F5F5F5F5F5F5F5F5F5F5F5F5F5F5F5F5F5F5F5F5F5F5F5F5F5F5F5F5F5F5F5F5F5F5F5F5F5F5F5F5F5F5F5F5F5F5F5F5F5F5F5F5F5F5F5F5F5F5F5F5F5F5F5F5F5F5F5F5F5F5F5F5F5F5F5F5F5F5F5F5F5F5F5F5F5F5F5
310
F5F5F5F5F5F5F5F5F5F5F5F5F5F5F5F5F5F5F5F5F5F5F5F5F5F5F5F5F5F5F5F5F5F5F5F5F5F5F5F5F5F5F5F5F5F5F5F5F5F5F5F5F5F5F5F5F5F5F5F5F5F5F5F5F5F5F5F5F5F5F5F5F5F5F5F5F5F5F5F5E2E2F5F5F5F5F5F5F5F5F5F5F5F5F5F5F5F5F5F5F5F5F5F5F5F5F5F5F5F5F5F5F5F5F5F5F5F5F5F5F5F5F5F5F5F5F5
310
F5F5F5F5F5F5F5F5F5F5F5F5F5F5F5F5F5F5F5F5F5F5F5F5F5F5F5F5F5F5F5F5F5F5F5F5F5F5F5F5F5F5F5F5F5F5F5F5F5F5F5F5F5F5F5F5F5F5F5F5F5F5F5F5F5F5F5F5F5F5F5F5F5F5F5F5F5F5F5F5F5F5F5F5F5F5F5F5F5F5F5F5F5F5F5F5F5F5F5F5F5F5F5F5F5F5F5F5F5F5F5F5F5F5F5F5F5F5F5F5F5F5F5F5F5F5F5
310
F5F5F5F5F5F5E2E2F5F5F5F5F5F5F5F5F5F5F5F5F5F5F5F5F5F5F5F5F5F5F5F5F5F5F5F5F5F5F5F5F5F5F5F5F5F5F5F5F5F5F5F5F5F5F5F5F5F5F5F5F5F5F5F5F5F5F5F5F5F5F5F5F5F5F5F5F5F5F5F5F5F5F5F5F5F5F5F5F5F5F5F5F5F5F5F5F5F5F5F5F5F5F5F5F5F5F5F5F5F5F5F5F5F5F5F5F5F5F5F5F5F5F5F5F5F5F5
310
F5F5F5F5F5F5F5F5F5F5F5F5F5F5F5F5F5F5F5F5F5F5F5F5F5F5F5F5F5F5F5F5F5F5F5F5F5F5F5F5F5F5F5F5F5F5F5F5F5F5F5F5F5F5F5F5F5F5F5E2E2F5F5F5F5F5F5F5F5F5F5F5F5F5F5F5F5F5F5F5F5F5F5F5F5F5F5F5F5F5F5F5F5F5F5F5F5F5F5F5F5F5F5F5F5F5F5F5F5F5F5F5F5F5F5F5F5F5F5F5F5F5F5F5F5F5F5
310
F5F5F5F5F5F5F5F5F5F5F5F5F5F5F5F5F5F5F5F5F5F5F5F5F5F5F5F5F5F5F5F5F5F5F5F5F5F5F5F5F5F5F5F5F5F5F5F5F5F5F5F5F5F5F5F5F5F5F5F5F5F5F5F5F5F5F5F5F5F5F5F5F5F5F5F5F5F5F5F5F5F5F5F5F5F5F5F5F5F5F5F5F5F5F5F5F5F5F5F5F5F5F5F5F5F5F5F5F5F5F5F5E2E2F5F5F5F5F5F5F5F5F5F5F5F5F5
310
F5F5F5F5F5F5F5F5F5F5F5F5F5F5F5F5F5F5F5F5F5F5F5F5F5F5F5F5F5F5F5F5F5F5F5F5F5F5F5F5F5F5F5F5F5F5F5F5F5F5F5F5F5F5F5F5F5F5F5F5F5F5F5F5F5F5F5F5F5F5F5F5F5F5F5F5F5F5F5F5F5F5F5F5F5F5F5F5F5F5F5F5F5F5F5F5F5F5F5F5F5F5F5F5F5F5F5F5F5F5F5F5F5F5F5F5F5F5F5F5F5F5F5F5F5F5F5
310
F5F5F5F5F5F5F5F5F5F5F5F5F5F5F5F5F5F5F5F5F5F5F5F5F5F5F5F5F5F5F5F5F5F5F5F5F5F5E2E2F5F5F5F5F5F5F5F5F5F5F5F5F5F5F5F5F5F5F5F5F5F5F5F5F5F5F5F5F5F5F5F5F5F5F5F5F5F5F5F5F5F5F5F5F5F5F5F5F5F5F5F5F5F5F5F5F5F5F5F5F5F5F5F5F5F5F5F5F5F5F5F5F5F5F5F5F5F5F5F5F5F5F5F5F5F5F5
310
F5F5F5F5F5F5F5F5F5F5F5F5F5F5F5F5F5F5F5F5F5F5F5F5F5F5F5F5F5F5F5F5F5F5F5F5F5F5F5F5F5F5F5F5F5F5F5F5F5F5F5F5F5F5F5F5F5F5F5F5F5F5F5F5F5F5F5F5F5F5F5F5F5F5F5F5F5F5F5F5F5F5F5F5F5F5F5F5F5F5F5E2E2F5F5F5F5F5F5F5F5F5F5F5F5F5F5F5F5F5F5F5F5F5F5F5F5F5F5F5F5F5F5F5F5F5F5
310
F5F5F5F5F5F5F5F5F5F5F5F5F5F5F5F5F5F5F5F5F5F5F5F5F5F5F5F5F5F5F5F5F5F5F5F5F5F5F5F5F5F5F5F5F5F5F5F5F5F5F5F5F5F5F5F5F5F5F5F5F5F5F5F5F5F5F5F5F5F5F5F5F5F5F5F5F5F5F5F5F5F5F5F5F5F5F5F5F5F5F5F5F5F5F5F5F5F5F5F5F5F5F5F5F5F5F5F5F5F5F5F5F5F5F5F5F5F5F5F5F5F5F5F5F5F5F5
310
F5F5F5F5F5F5F5F5F5F5F5F5F5F5F5F5F5E2E2F5F5F5F5F5F5F5F5F5F5F5F5F5F5F5F5F5F5F5F5F5F5F5F5F5F5F5F5F5F5F5F5F5F5F5F5F5F5F5F5F5F5F5F5F5F5F5F5F5F5F5F5F5F5F5F5F5F5F5F5F5F5F5F5F5F5F5F5F5F5F5F5F5F5F5F5F5F5F5F5F5F5F5F5F5F5F5F5F5F5F5F5F5F5F5F5F5F5F5F5F5F5F5F5F5F5F5F5
310
F5F5F5F5F5F5F5F5F5F5F5F5F5F5F5F5F5F5F5F5F5F5F5F5F5F5F5F5F5F5F5F5F5F5F5F5F5F5F5F5F5F5F5F5F5F5F5F5F5F5F5F5F5F5F5F5F5F5F5F5F5F5F5F5F5F5F5F5F5F5E2E2F5F5F5F5F5F5F5F5F5F5F5F5F5F5F5F5F5F5F5F5F5F5F5F5F5F5F5F5F5F5F5F5F5F5F5F5F5F5F5F5F5F5F5F5F5F5F5F5F5F5F5F5F5F5F5
310
F5F5F5F5F5F5F5F5F5F5F5F5F5F5F5F5F5F5F5F5F5F5F5F5F5F5F5F5F5F5F5F5F5F5F5F5F5F5F5F5F5F5F5F5F5F5F5F5F5F5F5F5F5F5F5F5F5F5F5F5F5F5F5F5F5F5F5F5F5F5F5F5F5F5F5F5F5F5F5F5F5F5F5F5F5F5F5F5F5F5F5F5F5F5F5F5F5F5F5F5F5F5F5F5F5F5F5F5F5F5F5F5F5F5F5F5F5F5F5F5F5F5F5E2E2F5F5
310
F5E2F5F5F5F5F5F5F5F5F5F5F5F5F5F5F5F5F5F5F5F5F5F5F5F5F5F5F5F5F5F5F5F5F5F5F5F5F5F5F5F5F5F5F5F5F5F5F5F5F5F5F5F5F5F5F5F5F5F5F5F5F5F5F5F5F5F5F5F5F5F5F5F5F5F5F5F5F5F5F5F5F5F5F5F5F5F5F5F5F5F5F5F5F5F5F5F5F5F5F5F5F5F5F5F5F5F5F5F5F5F5F5F5F5F5F5F5F5F5F5F5F5F5F5F5F5
310
F5F5F5F5F5F5F5F5F5F5F5F5F5F5F5F5F5F5F5F5F5F5F5F5F5F5F5F5F5F5F5F5F5F5F5F5F5F5F5F5F5F5F5F5F5E2F5F5F5E2E2F5F5F5E2F5F5F5F5F5F5F5F5F5F5F5F5F5F5F5F5F5F5F5F5F5F5F5F5F5F5F5F5F5F5F5F5F5F5F5F5F5F5F5F5F5F5F5F5F5F5F5F5F5F5F5F5F5F5F5F5F5F5F5F5F5F5F5F5F5F5F5F5F5F5F5F5
310
F5F5F5F5F5F5F5F5F5F5F5F5F5F5F5F5F5F5F5F5F5F5F5F5F5F5F5F5F5F5F5F5F5F5F5F5F5F5F5F5F5F5F5F5F5F5F5F5F5F5F5F5F5F5F5F5F5F5F5F5F5F5F5F5F5F5F5F5F5F5F5F5F5F5F5F5F5F5F5F5F5F5F5F5F5F5F5F5F5F5F5F5F5F5F5F5F5F5E2F5F5F5E2E2F5F5F5E2F5F5F5F5F5F5F5F5F5F5F5F5F5F5F5F5F5F5F5
310
F5F5F5F5F5F5F5F5F5F5F5F5F5F5F5F5F5F5F5F5F5F5F5F5F5F5F5F5F5F5F5F5F5F5F5F5F5F5F5F5F5F5F5F5F5F5F5F5F5F5F5F5F5F5F5F5F5F5F5F5F5F5F5F5F5F5F5F5F5F5F5F5F5F5F5F5F5F5F5F5F5F5F5F5F5F5F5F5F5F5F5F5F5F5F5F5F5F5F5F5F5F5F5F5F5F5F5F5F5F5F5F5F5F5F5F5F5F5F5F5F5F5F5F5F5F5F5
310
F5F5F5F5F5F5F5F5F5F5F5F5F5F5F5F5F5F5F5F5F5F5F5F5E2F5F5F5E2E2F5F5F5E2F5F5F5F5F5F5F5F5F5F5F5F5F5F5F5F5F5F5F5F5F5F5F5F5F5F5F5F5F5F5F5F5F5F5F5F5F5F5F5F5F5F5F5F5F5F5F5F5F5F5F5F5F5F5F5F5F5F5F5F5F5F5F5F5F5F5F5F5F5F5F5F5F5F5F5F5F5F5F5F5F5F5F5F5F5F5F5F5F5F5F5F5F5
310
F5F5F5F5F5F5F5F5F5F5F5F5F5F5F5F5F5F5F5F5F5F5F5F5F5F5F5F5F5F5F5F5F5F5F5F5F5F5F5F5F5F5F5F5F5F5F5F5F5F5F5F5F5F5F5F5F5F5F5F5F5F5F5F5F5F5F5F5F5F5F5F5F5F5F5F5F5E2F5F5F5E2E2F5F5F5E2F5F5F5F5F5F5F5F5F5F5F5F5F5F5F5F5F5F5F5F5F5F5F5F5F5F5F5F5F5F5F5F5F5F5F5F5F5F5F5F5
310
F5F5F5F5F5F5F5F5F5F5F5F5F5F5F5F5F5F5F5F5F5F5F5F5F5F5F5F5F5F5F5F5F5F5F5F5F5F5F5F5F5F5F5F5F5F5F5F5F5F5F5F5F5F5F5F5F5F5F5F5F5F5F5F5F5F5F5F5F5F5F5F5F5F5F5F5F5F5F5F5F5F5F5F5F5F5F5F5F5F5F5F5F5F5F5F5F5F5F5F5F5F5F5F5F5F5F5F5F5F5F5F5F5F5F5F5F5F5F5F5F5F5F5F5F5F5F5
310
F5F5F5E2F5F5F5E2E2F5F5F5E2F5F5F5F5F5F5F5F5F5F5F5F5F5F5F5F5F5F5F5F5F5F5F5F5F5F5F5F5F5F5F5F5F5F5F5F5F5F5F5F5F5F5F5F5F5F5F5F5F5F5F5F5F5F5F5F5F5F5F5F5F5F5F5F5F5F5F5F5F5F5F5F5F5F5F5F5F5F5F5F5F5F5F5F5F5F5F5F5F5F5F5F5F5F5F5F5F5F5F5F5F5F5F5F5F5F5F5F5F5F5F5F5F5F5
310
F5F5F5F5F5F5F5F5F5F5F5F5F5F5F5F5F5F5F5F5F5F5F5F5F5F5F5F5F5F5F5F5F5F5F5F5F5F5F5F5F5F5F5F5F5F5F5F5F5F5F5F5F5F5F5F5E2F5F5F5E2E2F5F5F5E2F5F5F5F5F5F5F5F5F5F5F5F5F5F5F5F5F5F5F5F5F5F5F5F5F5F5F5F5F5F5F5F5F5F5F5F5F5F5F5F5F5F5F5F5F5F5F5F5F5F5F5F5F5F5F5F5F5F5F5F5F5
310
F5F5F5F5F5F5F5F5F5F5F5F5F5F5F5F5F5F5F5F5F5F5F5F5F5F5F5F5F5F5F5F5F5F5F5F5F5F5F5F5F5F5F5F5F5F5F5F5F5F5F5F5F5F5F5F5F5F5F5F5F5F5F5F5F5F5F5F5F5F5F5F5F5F5F5F5F5F5F5F5F5F5F5F5F5F5F5F5F5F5F5F5F5F5F5F5F5F5F5F5F5F5F5F5F5F5F5F5F5E2F5F5F5E2E2F5F5F5E2F5F5F5F5F5F5F5F5
310
F5F5F5F5F5F5F5F5F5F5F5F5F5F5F5F5F5F5F5F5F5F5F5F5F5F5F5F5F5F5F5F5F5F5F5F5F5F5F5F5F5F5F5F5F5F5F5F5F5F5F5F5F5F5F5F5F5F5F5F5F5F5F5F5F5F5F5F5F5F5F5F5F5F5F5F5F5F5F5F5F5F5F5F5F5F5F5F5F5F5F5F5F5F5F5F5F5F5F5F5F5F5F5F5F5F5F5F5F5F5F5F5F5F5F5F5F5F5F5F5F5F5F5F5F5F5F5
310
F5F5F5F5F5F5F5F5F5F5F5F5F5F5F5F5F5F5F5F5F5F5F5F5F5F5F5F5F5F5F5F5F5F5F5E2F5F5F5E2E2F5F5F5E2F5F5F5F5F5F5F5F5F5F5F5F5F5F5F5F5F5F5F5F5F5F5F5F5F5F5F5F5F5F5F5F5F5F5F5F5F5F5F5F5F5F5F5F5F5F5F5F5F5F5F5F5F5F5F5F5F5F5F5F5F5F5F5F5F5F5F5F5F5F5F5F5F5F5F5F5F5F5F5F5F5F5
310
F5F5F5F5F5F5F5F5F5F5F5F5F5F5F5F5F5F5F5F5F5F5F5F5F5F5F5F5F5F5F5F5F5F5F5F5F5F5F5F5F5F5F5F5F5F5F5F5F5F5F5F5F5F5F5F5F5F5F5F5F5F5F5F5F5F5F5F5F5F5F5F5F5F5F5F5F5F5F5F5F5F5F5F5F5F5F5F5E2F5F5F5E2E2F5F5F5E2F5F5F5F5F5F5F5F5F5F5F5F5F5F5F5F5F5F5F5F5F5F5F5F5F5F5F5F5F5
310
F5F5F5F5F5F5F5F5F5F5F5F5F5F5F5F5F5F5F5F5F5F5F5F5F5F5F5F5F5F5F5F5F5F5F5F5F5F5F5F5F5F5F5F5F5F5F5F5F5F5F5F5F5F5F5F5F5F5F5F5F5F5F5F5F5F5F5F5F5F5F5F5F5F5F5F5F5F5F5F5F5F5F5F5F5F5F5F5F5F5F5F5F5F5F5F5F5F5F5F5F5F5F5F5F5F5F5F5F5F5F5F5F5F5F5F5F5F5F5F5F5F5F5F5F5F5F5
310
F5F5F5F5F5F5F5F5F5F5F5F5F5F5E2F5F5F5E2E2F5F5F5E2F5F5F5F5F5F5F5F5F5F5F5F5F5F5F5F5F5F5F5F5F5F5F5F5F5F5F5F5F5F5F5F5F5F5F5F5F5F5F5F5F5F5F5F5F5F5F5F5F5F5F5F5F5F5F5F5F5F5F5F5F5F5F5F5F5F5F5F5F5F5F5F5F5F5F5F5F5F5F5F5F5F5F5F5F5F5F5F5F5F5F5F5F5F5F5F5F5F5F5F5F5F5F5
310
F5F5F5F5F5F5F5F5F5F5F5F5F5F5F5F5F5F5F5F5F5F5F5F5F5F5F5F5F5F5F5F5F5F5F5F5F5F5F5F5F5F5F5F5F5F5F5F5F5F5F5F5F5F5F5F5F5F5F5F5F5F5F5F5F5F5F5E2F5F5F5E2E2F5F5F5E2F5F5F5F5F5F5F5F5F5F5F5F5F5F5F5F5F5F5F5F5F5F5F5F5F5F5F5F5F5F5F5F5F5F5F5F5F5F5F5F5F5F5F5F5F5F5F5F5F5F5
310
F5F5F5F5F5F5F5F5F5F5F5F5F5F5F5F5F5F5F5F5F5F5F5F5F5F5F5F5F5F5F5F5F5F5F5F5F5F5F5F5F5F5F5F5F5F5F5F5F5F5F5F5F5F5F5F5F5F5F5F5F5F5F5F5F5F5F5F5F5F5F5F5F5F5F5F5F5F5F5F5F5F5F5F5F5F5F5F5F5F5F5F5F5F5F5F5F5F5F5F5F5F5F5F5F5F5F5F5F5F5F5F5F5F5F5F5F5F5F5F5E2F5F5F5E2E2F5
310
F5F5E2F5F5F5F5F5F5F5F5F5F5F5F5F5F5F5F5F5F5F5F5F5F5F5F5F5F5F5F5F5F5F5F5F5F5F5F5F5F5F5F5F5F5F5F5F5F5F5F5F5F5F5F5F5F5F5F5F5F5F5F5F5F5F5F5F5F5F5F5F5F5F5F5F5F5F5F5F5F5F5F5F5F5F5F5F5F5F5F5F5F5F5F5F5F5F5F5F5F5F5F5F5F5F5F5F5F5F5F5F5F5F5F5F5F5F5F5F5F5F5F5F5F5F5F5
310
F5F5F5F5F5F5F5F5F5F5F5F5F5F5F5F5F5F5F5F5F5F5F5F5F5F5F5F5F5F5F5F5F5F5F5F5F5F5F5F5F5F5F5F5F5F5E2F5F5F5E2E2F5F5F5E2F5F5F5F5F5F5F5F5F5F5F5F5F5F5F5F5F5F5F5F5F5F5F5F5F5F5F5F5F5F5F5F5F5F5F5F5F5F5F5F5F5F5F5F5F5F5F5F5F5F5F5F5F5F5F5F5F5F5F5F5F5F5F5F5F5F5F5F5F5F5F5
310
F5F5F5F5F5F5F5F5F5F5F5F5F5F5F5F5F5F5F5F5F5F5F5F5F5F5F5F5F5F5F5F5F5F5F5F5F5F5F5F5F5F5F5F5F5F5F5F5F5F5F5F5F5F5F5F5F5F5F5F5F5F5F5F5F5F5F5F5F5F5F5F5F5F5F5F5F5F5F5F5F5F5F5F5F5F5F5F5F5F5F5F5F5F5F5F5F5F5F5E2F5F5F5E2E2F5F5F5E2F5F5F5F5F5F5F5F5F5F5F5F5F5F5F5F5F5F5
310
F5F5F5F5F5F5F5F5F5F5F5F5F5F5F5F5F5F5F5F5F5F5F5F5F5F5F5F5F5F5F5F5F5F5F5F5F5F5F5F5F5F5F5F5F5F5F5F5F5F5F5F5F5F5F5F5F5F5F5F5F5F5F5F5F5F5F5F5F5F5F5F5F5F5F5F5F5F5F5F5F5F5F5F5F5F5F5F5F5F5F5F5F5F5F5F5F5F5F5F5F5F5F5F5F5F5F5F5F5F5F5F5F5F5F5F5F5F5F5F5F5F5F5F5F5F5F5
310
F5F5F5F5F5F5F5F5F5F5F5F5F5F5F5F5F5F5F5F5F5F5F5F5F5E2F5F5F5E2E2F5F5F5E2F5F5F5F5F5F5F5F5F5F5F5F5F5F5F5F5F5F5F5F5F5F5F5F5F5F5F5F5F5F5F5F5F5F5F5F5F5F5F5F5F5F5F5F5F5F5F5F5F5F5F5F5F5F5F5F5F5F5F5F5F5F5F5F5F5F5F5F5F5F5F5F5F5F5F5F5F5F5F5F5F5F5F5F5F5F5F5F5F5F5F5F5
310
F5F5F5F5F5F5F5F5F5F5F5F5F5F5F5F5F5F5F5F5F5F5F5F5F5F5F5F5F5F5F5F5F5F5F5F5F5F5F5F5F5F5F5F5F5F5F5F5F5F5F5F5F5F5F5F5F5F5F5F5F5F5F5F5F5F5F5F5F5F5F5F5F5F5F5F5F5F5E2F5F5F5E2E2F5F5F5F5F5F5F5F5F5F5F5F5F5F5F5F5F5F5F5F5F5F5F5F5F5F5F5F5F5F5F5F5F5F5F5F5F5F5F5F5F5F5F5
310
F5F5F5F5F5F5F5F5F5F5F5F5F5F5F5F5F5F5F5F5F5F5F5F5F5F5F5F5F5F5F5F5F5F5F5F5F5F5F5F5F5F5F5F5F5F5F5F5F5F5F5F5F5F5F5F5F5F5F5F5F5F5F5F5F5F5F5F5F5F5F5F5F5F5F5F5F5F5F5F5F5F5F5F5F5F5F5F5F5F5F5F5F5F5F5F5F5F5F5F5F5F5F5F5F5F5F5F5F5F5F5F5F5F5F5F5F5F5F5F5F5F5F5F5F5F5F5
310
F5F5F5F5F5F5F5F5E2E2F5F5F5F5F5F5F5F5F5F5F5F5F5F5F5F5F5F5F5F5F5F5F5F5F5F5F5F5F5F5F5F5F5F5F5F5F5F5F5F5F5F5F5F5F5F5F5F5F5F5F5F5F5F5F5F5F5F5F5F5F5F5F5F5F5F5F5F5F5F5F5F5F5F5F5F5F5F5F5F5F5F5F5F5F5F5F5F5F5F5F5F5F5F5F5F5F5F5F5F5F5F5F5F5F5F5F5F5F5F5F5F5F5F5F5F5F5
310
F5F5F5F5F5F5F5F5F5F5F5F5F5F5F5F5F5F5F5F5F5F5F5F5F5F5F5F5F5F5F5F5F5F5F5F5F5F5F5F5F5F5F5F5F5F5F5F5F5F5F5F5F5F5F5F5F5F5F5F5F5E2E2F5F5F5F5F5F5F5F5F5F5F5F5F5F5F5F5F5F5F5F5F5F5F5F5F5F5F5F5F5F5F5F5F5F5F5F5F5F5F5F5F5F5F5F5F5F5F5F5F5F5F5F5F5F5F5F5F5F5F5F5F5F5F5F5
310
F5F5F5F5F5F5F5F5F5F5F5F5F5F5F5F5F5F5F5F5F5F5F5F5F5F5F5F5F5F5F5F5F5F5F5F5F5F5F5F5F5F5F5F5F5F5F5F5F5F5F5F5F5F5F5F5F5F5F5F5F5F5F5F5F5F5F5F5F5F5F5F5F5F5F5F5F5F5F5F5F5F5F5F5F5F5F5F5F5F5F5F5F5F5F5F5F5F5F5F5F5F5F5F5F5F5F5F5F5F5F5F5F5F5E2E2F5F5F5F5F5F5F5F5F5F5F5
310
F5F5F5F5F5F5F5F5F5F5F5F5F5F5F5F5F5F5F5F5F5F5F5F5F5F5F5F5F5F5F5F5F5F5F5F5F5F5F5F5F5F5F5F5F5F5F5F5F5F5F5F5F5F5F5F5F5F5F5F5F5F5F5F5F5F5F5F5F5F5F5F5F5F5F5F5F5F5F5F5F5F5F5F5F5F5F5F5F5F5F5F5F5F5F5F5F5F5F5F5F5F5F5F5F5F5F5F5F5F5F5F5F5F5F5F5F5F5F5F5F5F5F5F5F5F5F5
310
F5F5F5F5F5F5F5F5F5F5F5F5F5F5F5F5F5F5F5F5F5F5F5F5F5F5F5F5F5F5F5F5F5F5F5F5F5F5F5F5E2E2F5F5F5F5F5F5F5F5F5F5F5F5F5F5F5F5F5F5F5F5F5F5F5F5F5F5F5F5F5F5F5F5F5F5F5F5F5F5F5F5F5F5F5F5F5F5F5F5F5F5F5F5F5F5F5F5F5F5F5F5F5F5F5F5F5F5F5F5F5F5F5F5F5F5F5F5F5F5F5F5F5F5F5F5F5
310
F5F5F5F5F5F5F5F5F5F5F5F5F5F5F5F5F5F5F5F5F5F5F5F5F5F5F5F5F5F5F5F5F5F5F5F5F5F5F5F5F5F5F5F5F5F5F5F5F5F5F5F5F5F5F5F5F5F5F5F5F5F5F5F5F5F5F5F5F5F5F5F5F5F5F5F5F5F5F5F5F5F5F5F5F5F5F5F5F5F5F5F5F5E2E2F5F5F5F5F5F5F5F5F5F5F5F5F5F5F5F5F5F5F5F5F5F5F5F5F5F5F5F5F5F5F5F5
310
F5F5F5F5F5F5F5F5F5F5F5F5F5F5F5F5F5F5F5F5F5F5F5F5F5F5F5F5F5F5F5F5F5F5F5F5F5F5F5F5F5F5F5F5F5F5F5F5F5F5F5F5F5F5F5F5F5F5F5F5F5F5F5F5F5F5F5F5F5F5F5F5F5F5F5F5F5F5F5F5F5F5F5F5F5F5F5F5F5F5F5F5F5F5F5F5F5F5F5F5F5F5F5F5F5F5F5F5F5F5F5F5F5F5F5F5F5F5F5F5F5F5F5F5F5F5F5
310
F5F5F5F5F5F5F5F5F5F5F5F5F5F5F5F5F5F5F5E2E2F5F5F5F5F5F5F5F5F5F5F5F5F5F5F5F5F5F5F5F5F5F5F5F5F5F5F5F5F5F5F5F5F5F5F5F5F5F5F5F5F5F5F5F5F5F5F5F5F5F5F5F5F5F5F5F5F5F5F5F5F5F5F5F5F5F5F5F5F5F5F5F5F5F5F5F5F5F5F5F5F5F5F5F5F5F5F5F5F5F5F5F5F5F5F5F5F5F5F5F5F5F5F5F5F5F5
310
F5F5F5F5F5F5F5F5F5F5F5F5F5F5F5F5F5F5F5F5F5F5F5F5F5F5F5F5F5F5F5F5F5F5F5F5F5F5F5F5F5F5F5F5F5F5F5F5F5F5F5F5F5F5F5F5F5F5F5F5F5F5F5F5F5F5F5F5F5F5F5F5E2E2F5F5F5F5F5F5F5F5F5F5F5F5F5F5F5F5F5F5F5F5F5F5F5F5F5F5F5F5F5F5F5F5F5F5F5F5F5F5F5F5F5F5F5F5F5F5F5F5F5F5F5F5F5
310
F5F5F5F5F5F5F5F5F5F5F5F5F5F5F5F5F5F5F5F5F5F5F5F5F5F5F5F5F5F5F5F5F5F5F5F5F5F5F5F5F5F5F5F5F5F5F5F5F5F5F5F5F5F5F5F5F5F5F5F5F5F5F5F5F5F5F5F5F5F5F5F5F5F5F5F5F5F5F5F5F5F5F5F5F5F5F5F5F5F5F5F5F5F5F5F5F5F5F5F5F5F5F5F5F5F5F5F5F5F5F5F5F5F5F5F5F5F5F5F5F5F5F5F5F5E2E2
310
F5F5F5F5F5F5F5F5F5F5F5F5F5F5F5F5F5F5F5F5F5F5F5F5F5F5F5F5F5F5F5F5F5F5F5F5F5F5F5F5F5F5F5F5F5F5F5F5F5F5F5F5F5F5F5F5F5F5F5F5F5F5F5F5F5F5F5F5F5F5F5F5F5F5F5F5F5F5F5F5F5F5F5F5F5F5F5F5F5F5F5F5F5F5F5F5F5F5F5F5F5F5F5F5F5F5F5F5F5F5F5F5F5F5F5F5F5F5F5F5F5F5F5F5F5F5F5
310
F5F5F5F5F5F5F5F5F5F5F5F5F5F5F5F5F5F5F5F5F5F5F5F5F5F5F5F5F5F5F5F5F5F5F5F5F5F5F5F5F5F5F5F5F5F5F5F5F5F5F5E2E2F5F5F5F5F5F5F5F5F5F5F5F5F5F5F5F5F5F5F5F5F5F5F5F5F5F5F5F5F5F5F5F5F5F5F5F5F5F5F5F5F5F5F5F5F5F5F5F5F5F5F5F5F5F5F5F5F5F5F5F5F5F5F5F5F5F5F5F5F5F5F5F5F5F5
310
F5F5F5F5F5F5F5F5F5F5F5F5F5F5F5F5F5F5F5F5F5F5F5F5F5F5F5F5F5F5F5F5F5F5F5F5F5F5F5F5F5F5F5F5F5F5F5F5F5F5F5F5F5F5F5F5F5F5F5F5F5F5F5F5F5F5F5F5F5F5F5F5F5F5F5F5F5F5F5F5F5F5F5F5F5F5F5F5F5F5F5F5F5F5F5F5F5F5F5F5F5F5F5F5E2E2F5F5F5E2F5F5F5F5F5F5F5F5F5F5F5F5F5F5F5F5F5
310
F5F5F5F5F5F5F5F5F5F5F5F5F5F5F5F5F5F5F5F5F5F5F5F5F5F5F5F5F5F5F5F5F5F5F5F5F5F5F5F5F5F5F5F5F5F5F5F5F5F5F5F5F5F5F5F5F5F5F5F5F5F5F5F5F5F5F5F5F5F5F5F5F5F5F5F5F5F5F5F5F5F5F5F5F5F5F5F5F5F5F5F5F5F5F5F5F5F5F5F5F5F5F5F5F5F5F5F5F5F5F5F5F5F5F5F5F5F5F5F5F5F5F5F5F5F5F5
310
F5F5F5F5F5F5F5F5F5F5F5F5F5F5F5F5F5F5F5F5F5F5F5F5F5F5E2F5F5F5E2E2F5F5F5E2F5F5F5F5F5F5F5F5F5F5F5F5F5F5F5F5F5F5F5F5F5F5F5F5F5F5F5F5F5F5F5F5F5F5F5F5F5F5F5F5F5F5F5F5F5F5F5F5F5F5F5F5F5F5F5F5F5F5F5F5F5F5F5F5F5F5F5F5F5F5F5F5F5F5F5F5F5F5F5F5F5F5F5F5F5F5F5F5F5F5F5
310
F5F5F5F5F5F5F5F5F5F5F5F5F5F5F5F5F5F5F5F5F5F5F5F5F5F5F5F5F5F5F5F5F5F5F5F5F5F5F5F5F5F5F5F5F5F5F5F5F5F5F5F5F5F5F5F5F5F5F5F5F5F5F5F5F5F5F5F5F5F5F5F5F5F5F5F5F5F5F5E2F5F5F5E2E2F5F5F5E2F5F5F5F5F5F5F5F5F5F5F5F5F5F5F5F5F5F5F5F5F5F5F5F5F5F5F5F5F5F5F5F5F5F5F5F5F5F5
310
F5F5F5F5F5F5F5F5F5F5F5F5F5F5F5F5F5F5F5F5F5F5F5F5F5F5F5F5F5F5F5F5F5F5F5F5F5F5F5F5F5F5F5F5F5F5F5F5F5F5F5F5F5F5F5F5F5F5F5F5F5F5F5F5F5F5F5F5F5F5F5F5F5F5F5F5F5F5F5F5F5F5F5F5F5F5F5F5F5F5F5F5F5F5F5F5F5F5F5F5F5F5F5F5F5F5F5F5F5F5F5F5F5F5F5F5F5F5F5F5F5F5F5F5F5F5F5
310
F5F5F5F5F5E2F5F5F5E2E2F5F5F5E2F5F5F5F5F5F5F5F5F5F5F5F5F5F5F5F5F5F5F5F5F5F5F5F5F5F5F5F5F5F5F5F5F5F5F5F5F5F5F5F5F5F5F5F5F5F5F5F5F5F5F5F5F5F5F5F5F5F5F5F5F5F5F5F5F5F5F5F5F5F5F5F5F5F5F5F5F5F5F5F5F5F5F5F5F5F5F5F5F5F5F5F5F5F5F5F5F5F5F5F5F5F5F5F5F5F5F5F5F5F5F5F5
310
F5F5F5F5F5F5F5F5F5F5F5F5F5F5F5F5F5F5F5F5F5F5F5F5F5F5F5F5F5F5F5F5F5F5F5F5F5F5F5F5F5F5F5F5F5F5F5F5F5F5F5F5F5F5F5F5F5F5E2F5F5F5E2E2F5F5F5E2F5F5F5F5F5F5F5F5F5F5F5F5F5F5F5F5F5F5F5F5F5F5F5F5F5F5F5F5F5F5F5F5F5F5F5F5F5F5F5F5F5F5F5F5F5F5F5F5F5F5F5F5F5F5F5F5F5F5F5
310
F5F5F5F5F5F5F5F5F5F5F5F5F5F5F5F5F5F5F5F5F5F5F5F5F5F5F5F5F5F5F5F5F5F5F5F5F5F5F5F5F5F5F5F5F5F5F5F5F5F5F5F5F5F5F5F5F5F5F5F5F5F5F5F5F5F5F5F5F5F5F5F5F5F5F5F5F5F5F5F5F5F5F5F5F5F5F5F5F5F5F5F5F5F5F5F5F5F5F5F5F5F5F5F5F5F5F5F5F5F5F5E2F5F5F5E2E2F5F5F5E2F5F5F5F5F5F5
310
F5F5F5F5F5F5F5F5F5F5F5F5F5F5F5F5F5F5F5F5F5F5F5F5F5F5F5F5F5F5F5F5F5F5F5F5F5F5F5F5F5F5F5F5F5F5F5F5F5F5F5F5F5F5F5F5F5F5F5F5F5F5F5F5F5F5F5F5F5F5F5F5F5F5F5F5F5F5F5F5F5F5F5F5F5F5F5F5F5F5F5F5F5F5F5F5F5F5F5F5F5F5F5F5F5F5F5F5F5F5F5F5F5F5F5F5F5F5F5F5F5F5F5F5F5F5F5
310
F5F5F5F5F5F5F5F5F5F5F5F5F5F5F5F5F5F5F5F5F5F5F5F5F5F5F5F5F5F5F5F5F5F5F5F5F5E2F5F5F5E2E2F5F5F5E2F5F5F5F5F5F5F5F5F5F5F5F5F5F5F5F5F5F5F5F5F5F5F5F5F5F5F5F5F5F5F5F5F5F5F5F5F5F5F5F5F5F5F5F5F5F5F5F5F5F5F5F5F5F5F5F5F5F5F5F5F5F5F5F5F5F5F5F5F5F5F5F5F5F5F5F5F5F5F5F5
310
F5F5F5F5F5F5F5F5F5F5F5F5F5F5F5F5F5F5F5F5F5F5F5F5F5F5F5F5F5F5F5F5F5F5F5F5F5F5F5F5F5F5F5F5F5F5F5F5F5F5F5F5F5F5F5F5F5F5F5F5F5F5F5F5F5F5F5F5F5F5F5F5F5F5F5F5F5F5F5F5F5F5F5F5F5F5F5F5F5F5E2F5F5F5E2E2F5F5F5E2F5F5F5F5F5F5F5F5F5F5F5F5F5F5F5F5F5F5F5F5F5F5F5F5F5F5F5
310
F5F5F5F5F5F5F5F5F5F5F5F5F5F5F5F5F5F5F5F5F5F5F5F5F5F5F5F5F5F5F5F5F5F5F5F5F5F5F5F5F5F5F5F5F5F5F5F5F5F5F5F5F5F5F5F5F5F5F5F5F5F5F5F5F5F5F5F5F5F5F5F5F5F5F5F5F5F5F5F5F5F5F5F5F5F5F5F5F5F5F5F5F5F5F5F5F5F5F5F5F5F5F5F5F5F5F5F5F5F5F5F5F5F5F5F5F5F5F5F5F5F5F5F5F5F5F5
310
F5F5F5F5F5F5F5F5F5F5F5F5F5F5F5F5E2F5F5F5E2E2F5F5F5E2F5F5F5F5F5F5F5F5F5F5F5F5F5F5F5F5F5F5F5F5F5F5F5F5F5F5F5F5F5F5F5F5F5F5F5F5F5F5F5F5F5F5F5F5F5F5F5F5F5F5F5F5F5F5F5F5F5F5F5F5F5F5F5F5F5F5F5F5F5F5F5F5F5F5F5F5F5F5F5F5F5F5F5F5F5F5F5F5F5F5F5F5F5F5F5F5F5F5F5F5F5
310
F5F5F5F5F5F5F5F5F5F5F5F5F5F5F5F5F5F5F5F5F5F5F5F5F5F5F5F5F5F5F5F5F5F5F5F5F5F5F5F5F5F5F5F5F5F5F5F5F5F5F5F5F5F5F5F5F5F5F5F5F5F5F5F5F5F5F5F5F5E2F5F5F5E2E2F5F5F5E2F5F5F5F5F5F5F5F5F5F5F5F5F5F5F5F5F5F5F5F5F5F5F5F5F5F5F5F5F5F5F5F5F5F5F5F5F5F5F5F5F5F5F5F5F5F5F5F5
310
F5F5F5F5F5F5F5F5F5F5F5F5F5F5F5F5F5F5F5F5F5F5F5F5F5F5F5F5F5F5F5F5F5F5F5F5F5F5F5F5F5F5F5F5F5F5F5F5F5F5F5F5F5F5F5F5F5F5F5F5F5F5F5F5F5F5F5F5F5F5F5F5F5F5F5F5F5F5F5F5F5F5F5F5F5F5F5F5F5F5F5F5F5F5F5F5F5F5F5F5F5F5F5F5F5F5F5F5F5F5F5F5F5F5F5F5F5F5F5F5F5F5E2F5F5F5E2
310
E2F5F5F5E2F5F5F5F5F5F5F5F5F5F5F5F5F5F5F5F5F5F5F5F5F5F5F5F5F5F5F5F5F5F5F5F5F5F5F5F5F5F5F5F5F5F5F5F5F5F5F5F5F5F5F5F5F5F5F5F5F5F5F5F5F5F5F5F5F5F5F5F5F5F5F5F5F5F5F5F5F5F5F5F5F5F5F5F5F5F5F5F5F5F5F5F5F5F5F5F5F5F5F5F5F5F5F5F5F5F5F5F5F5F5F5F5F5F5F5F5F5F5F5F5F5F5
310
F5F5F5F5F5F5F5F5F5F5F5F5F5F5F5F5F5F5F5F5F5F5F5F5F5F5F5F5F5F5F5F5F5F5F5F5F5F5F5F5F5F5F5F5F5F5F5F5E2F5F5F5E2E2F5F5F5E2F5F5F5F5F5F5F5F5F5F5F5F5F5F5F5F5F5F5F5F5F5F5F5F5F5F5F5F5F5F5F5F5F5F5F5F5F5F5F5F5F5F5F5F5F5F5F5F5F5F5F5F5F5F5F5F5F5F5F5F5F5F5F5F5F5F5F5F5F5
310
F5F5F5F5F5F5F5F5F5F5F5F5F5F5F5F5F5F5F5F5F5F5F5F5F5F5F5F5F5F5F5F5F5F5F5F5F5F5F5F5F5F5F5F5F5F5F5F5F5F5F5F5F5F5F5F5F5F5F5F5F5F5F5F5F5F5F5F5F5F5F5F5F5F5F5F5F5F5F5F5F5F5F5F5F5F5F5F5F5F5F5F5F5F5F5F5F5F5F5F5F5E2F5F5F5E2E2F5F5F5E2F5F5F5F5F5F5F5F5F5F5F5F5F5F5F5F5
310
F5F5F5F5F5F5F5F5F5F5F5F5F5F5F5F5F5F5F5F5F5F5F5F5F5F5F5F5F5F5F5F5F5F5F5F5F5F5F5F5F5F5F5F5F5F5F5F5F5F5F5F5F5F5F5F5F5F5F5F5F5F5F5F5F5F5F5F5F5F5F5F5F5F5F5F5F5F5F5F5F5F5F5F5F5F5F5F5F5F5F5F5F5F5F5F5F5F5F5F5F5F5F5F5F5F5F5F5F5F5F5F5F5F5F5F5F5F5F5F5F5F5F5F5F5F5F5
310
F5F5F5F5F5F5F5F5F5F5F5F5F5F5F5F5F5F5F5F5F5F5F5F5F5F5F5E2F5F5F5E2E2F5F5F5E2F5F5F5F5F5F5F5F5F5F5F5F5F5F5F5F5F5F5F5F5F5F5F5F5F5F5F5F5F5F5F5F5F5F5F5F5F5F5F5F5F5F5F5F5F5F5F5F5F5F5F5F5F5F5F5F5F5F5F5F5F5F5F5F5F5F5F5F5F5F5F5F5F5F5F5F5F5F5F5F5F5F5F5F5F5F5F5F5F5F5
310
F5F5F5F5F5F5F5F5F5F5F5F5F5F5F5F5F5F5F5F5F5F5F5F5F5F5F5F5F5F5F5F5F5F5F5F5F5F5F5F5F5F5F5F5F5F5F5F5F5F5F5F5F5F5F5F5F5F5F5F5F5F5F5F5F5F5F5F5F5F5F5F5F5F5F5F5F5F5F5F5E2F5F5F5E2E2F5F5F5E2F5F5F5F5F5F5F5F5F5F5F5F5F5F5F5F5F5F5F5F5F5F5F5F5F5F5F5F5F5F5F5F5F5F5F5F5F5
310
F5F5F5F5F5F5F5F5F5F5F5F5F5F5F5F5F5F5F5F5F5F5F5F5F5F5F5F5F5F5F5F5F5F5F5F5F5F5F5F5F5F5F5F5F5F5F5F5F5F5F5F5F5F5F5F5F5F5F5F5F5F5F5F5F5F5F5F5F5F5F5F5F5F5F5F5F5F5F5F5F5F5F5F5F5F5F5F5F5F5F5F5F5F5F5F5F5F5F5F5F5F5F5F5F5F5F5F5F5F5F5F5F5F5F5F5F5F5F5F5F5F5F5F5F5F5F5
310
F5F5F5F5F5F5E2F5F5F5E2E2F5F5F5E2F5F5F5F5F5F5F5F5F5F5F5F5F5F5F5F5F5F5F5F5F5F5F5F5F5F5F5F5F5F5F5F5F5F5F5F5F5F5F5F5F5F5F5F5F5F5F5F5F5F5F5F5F5F5F5F5F5F5F5F5F5F5F5F5F5F5F5F5F5F5F5F5F5F5F5F5F5F5F5F5F5F5F5F5F5F5F5F5F5F5F5F5F5F5F5F5F5F5F5F5F5F5F5F5F5F5F5F5F5F5F5
310
F5F5F5F5F5F5F5F5F5F5F5F5F5F5F5F5F5F5F5F5F5F5F5F5F5F5F5F5F5F5F5F5F5F5F5F5F5F5F5F5F5F5F5F5F5F5F5F5F5F5F5F5F5F5F5F5F5F5F5E2F5F5F5E2E2F5F5F5F5F5F5F5F5F5F5F5F5F5F5F5F5F5F5F5F5F5F5F5F5F5F5F5F5F5F5F5F5F5F5F5F5F5F5F5F5F5F5F5F5F5F5F5F5F5F5F5F5F5F5F5F5F5F5F5F5F5F5
310
F5F5F5F5F5F5F5F5F5F5F5F5F5F5F5F5F5F5F5F5F5F5F5F5F5F5F5F5F5F5F5F5F5F5F5F5F5F5F5F5F5F5F5F5F5F5F5F5F5F5F5F5F5F5F5F5F5F5F5F5F5F5F5F5F5F5F5F5F5F5F5F5F5F5F5F5F5F5F5F5F5F5F5F5F5F5F5F5F5F5F5F5F5F5F5F5F5F5F5F5F5F5F5F5F5F5F5F5F5F5F5F5F5F5F5F5E2E2F5F5F5F5F5F5F5F5F5
310
F5F5F5F5F5F5F5F5F5F5F5F5F5F5F5F5F5F5F5F5F5F5F5F5F5F5F5F5F5F5F5F5F5F5F5F5F5F5F5F5F5F5F5F5F5F5F5F5F5F5F5F5F5F5F5F5F5F5F5F5F5F5F5F5F5F5F5F5F5F5F5F5F5F5F5F5F5F5F5F5F5F5F5F5F5F5F5F5F5F5F5F5F5F5F5F5F5F5F5F5F5F5F5F5F5F5F5F5F5F5F5F5F5F5F5F5F5F5F5F5F5F5F5F5F5F5F5
310
F5F5F5F5F5F5F5F5F5F5F5F5F5F5F5F5F5F5F5F5F5F5F5F5F5F5F5F5F5F5F5F5F5F5F5F5F5F5F5F5F5F5E2E2F5F5F5F5F5F5F5F5F5F5F5F5F5F5F5F5F5F5F5F5F5F5F5F5F5F5F5F5F5F5F5F5F5F5F5F5F5F5F5F5F5F5F5F5F5F5F5F5F5F5F5F5F5F5F5F5F5F5F5F5F5F5F5F5F5F5F5F5F5F5F5F5F5F5F5F5F5F5F5F5F5F5F5
310
F5F5F5F5F5F5F5F5F5F5F5F5F5F5F5F5F5F5F5F5F5F5F5F5F5F5F5F5F5F5F5F5F5F5F5F5F5F5F5F5F5F5F5F5F5F5F5F5F5F5F5F5F5F5F5F5F5F5F5F5F5F5F5F5F5F5F5F5F5F5F5F5F5F5F5F5F5F5F5F5F5F5F5F5F5F5F5F5F5F5F5F5F5F5F5E2E2F5F5F5F5F5F5F5F5F5F5F5F5F5F5F5F5F5F5F5F5F5F5F5F5F5F5F5F5F5F5
310
F5F5F5F5F5F5F5F5F5F5F5F5F5F5F5F5F5F5F5F5F5F5F5F5F5F5F5F5F5F5F5F5F5F5F5F5F5F5F5F5F5F5F5F5F5F5F5F5F5F5F5F5F5F5F5F5F5F5F5F5F5F5F5F5F5F5F5F5F5F5F5F5F5F5F5F5F5F5F5F5F5F5F5F5F5F5F5F5F5F5F5F5F5F5F5F5F5F5F5F5F5F5F5F5F5F5F5F5F5F5F5F5F5F5F5F5F5F5F5F5F5F5F5F5F5F5F5
310
F5F5F5F5F5F5F5F5F5F5F5F5F5F5F5F5F5F5F5F5F5E2E2F5F5F5F5F5F5F5F5F5F5F5F5F5F5F5F5F5F5F5F5F5F5F5F5F5F5F5F5F5F5F5F5F5F5F5F5F5F5F5F5F5F5F5F5F5F5F5F5F5F5F5F5F5F5F5F5F5F5F5F5F5F5F5F5F5F5F5F5F5F5F5F5F5F5F5F5F5F5F5F5F5F5F5F5F5F5F5F5F5F5F5F5F5F5F5F5F5F5F5F5F5F5F5F5
310
F5F5F5F5F5F5F5F5F5F5F5F5F5F5F5F5F5F5F5F5F5F5F5F5F5F5F5F5F5F5F5F5F5F5F5F5F5F5F5F5F5F5F5F5F5F5F5F5F5F5F5F5F5F5F5F5F5F5F5F5F5F5F5F5F5F5F5F5F5F5F5F5F5F5E2E2F5F5F5F5F5F5F5F5F5F5F5F5F5F5F5F5F5F5F5F5F5F5F5F5F5F5F5F5F5F5F5F5F5F5F5F5F5F5F5F5F5F5F5F5F5F5F5F5F5F5F5
310
F5F5F5F5F5F5F5F5F5F5F5F5F5F5F5F5F5F5F5F5F5F5F5F5F5F5F5F5F5F5F5F5F5F5F5F5F5F5F5F5F5F5F5F5F5F5F5F5F5F5F5F5F5F5F5F5F5F5F5F5F5F5F5F5F5F5F5F5F5F5F5F5F5F5F5F5F5F5F5F5F5F5F5F5F5F5F5F5F5F5F5F5F5F5F5F5F5F5F5F5F5F5F5F5F5F5F5F5F5F5F5F5F5F5F5F5F5F5F5F5F5F5F5F5F5F5F5
310
E2E2F5F5F5F5F5F5F5F5F5F5F5F5F5F5F5F5F5F5F5F5F5F5F5F5F5F5F5F5F5F5F5F5F5F5F5F5F5F5F5F5F5F5F5F5F5F5F5F5F5F5F5F5F5F5F5F5F5F5F5F5F5F5F5F5F5F5F5F5F5F5F5F5F5F5F5F5F5F5F5F5F5F5F5F5F5F5F5F5F5F5F5F5F5F5F5F5F5F5F5F5F5F5F5F5F5F5F5F5F5F5F5F5F5F5F5F5F5F5F5F5F5F5F5F5F5
310
F5F5F5F5F5F5F5F5F5F5F5F5F5F5F5F5F5F5F5F5F5F5F5F5F5F5F5F5F5F5F5F5F5F5F5F5F5F5F5F5F5F5F5F5F5F5F5F5F5F5F5F5F5E2E2F5F5F5F5F5F5F5F5F5F5F5F5F5F5F5F5F5F5F5F5F5F5F5F5F5F5F5F5F5F5F5F5F5F5F5F5F5F5F5F5F5F5F5F5F5F5F5F5F5F5F5F5F5F5F5F5F5F5F5F5F5F5F5F5F5F5F5F5F5F5F5F5
310
F5F5F5F5F5F5F5F5F5F5F5F5F5F5F5F5F5F5F5F5F5F5F5F5F5F5F5F5F5F5F5F5F5F5F5F5F5F5F5F5F5F5F5F5F5F5F5F5F5F5F5F5F5F5F5F5F5F5F5F5F5F5F5F5F5F5F5F5F5F5F5F5F5F5F5F5F5F5F5F5F5F5F5F5F5F5F5F5F5F5F5F5F5F5F5F5F5F5F5F5F5F5F5F5F5F5E2E2F5F5F5F5F5F5F5F5F5F5F5F5F5F5F5F5F5F5F5
310
F5F5F5F5F5F5F5F5F5F5F5F5F5F5F5F5F5F5F5F5F5F5F5F5F5F5F5F5F5F5F5F5F5F5F5F5F5F5F5F5F5F5F5F5F5F5F5F5F5F5F5F5F5F5F5F5F5F5F5F5F5F5F5F5F5F5F5F5F5F5F5F5F5F5F5F5F5F5F5F5F5F5F5F5F5F5F5F5F5F5F5F5F5F5F5F5F5F5F5F5F5F5F5F5F5F5F5F5F5F5F5F5F5F5F5F5F5F5F5F5F5F5F5F5F5F5F5
310
F5F5F5F5F5F5F5F5F5F5F5F5F5F5F5F5F5F5F5F5F5F5F5F5F5F5F5F5F5F5F5F5E2E2F5F5F5E2F5F5F5F5F5F5F5F5F5F5F5F5F5F5F5F5F5F5F5F5F5F5F5F5F5F5F5F5F5F5F5F5F5F5F5F5F5F5F5F5F5F5F5F5F5F5F5F5F5F5F5F5F5F5F5F5F5F5F5F5F5F5F5F5F5F5F5F5F5F5F5F5F5F5F5F5F5F5F5F5F5F5F5F5F5F5F5F5F5
310
F5F5F5F5F5F5F5F5F5F5F5F5F5F5F5F5F5F5F5F5F5F5F5F5F5F5F5F5F5F5F5F5F5F5F5F5F5F5F5F5F5F5F5F5F5F5F5F5F5F5F5F5F5F5F5F5F5F5F5F5F5F5F5F5F5F5F5F5F5F5F5F5F5F5F5F5F5F5F5F5F5E2F5F5F5E2E2F5F5F5E2F5F5F5F5F5F5F5F5F5F5F5F5F5F5F5F5F5F5F5F5F5F5F5F5F5F5F5F5F5F5F5F5F5F5F5F5
310
F5F5F5F5F5F5F5F5F5F5F5F5F5F5F5F5F5F5F5F5F5F5F5F5F5F5F5F5F5F5F5F5F5F5F5F5F5F5F5F5F5F5F5F5F5F5F5F5F5F5F5F5F5F5F5F5F5F5F5F5F5F5F5F5F5F5F5F5F5F5F5F5F5F5F5F5F5F5F5F5F5F5F5F5F5F5F5F5F5F5F5F5F5F5F5F5F5F5F5F5F5F5F5F5F5F5F5F5F5F5F5F5F5F5F5F5F5F5F5F5F5F5F5F5F5F5F5
310
F5F5F5F5F5F5F5E2F5F5F5E2E2F5F5F5E2F5F5F5F5F5F5F5F5F5F5F5F5F5F5F5F5F5F5F5F5F5F5F5F5F5F5F5F5F5F5F5F5F5F5F5F5F5F5F5F5F5F5F5F5F5F5F5F5F5F5F5F5F5F5F5F5F5F5F5F5F5F5F5F5F5F5F5F5F5F5F5F5F5F5F5F5F5F5F5F5F5F5F5F5F5F5F5F5F5F5F5F5F5F5F5F5F5F5F5F5F5F5F5F5F5F5F5F5F5F5
310
F5F5F5F5F5F5F5F5F5F5F5F5F5F5F5F5F5F5F5F5F5F5F5F5F5F5F5F5F5F5F5F5F5F5F5F5F5F5F5F5F5F5F5F5F5F5F5F5F5F5F5F5F5F5F5F5F5F5F5F5E2F5F5F5E2E2F5F5F5E2F5F5F5F5F5F5F5F5F5F5F5F5F5F5F5F5F5F5F5F5F5F5F5F5F5F5F5F5F5F5F5F5F5F5F5F5F5F5F5F5F5F5F5F5F5F5F5F5F5F5F5F5F5F5F5F5F5
310
F5F5F5F5F5F5F5F5F5F5F5F5F5F5F5F5F5F5F5F5F5F5F5F5F5F5F5F5F5F5F5F5F5F5F5F5F5F5F5F5F5F5F5F5F5F5F5F5F5F5F5F5F5F5F5F5F5F5F5F5F5F5F5F5F5F5F5F5F5F5F5F5F5F5F5F5F5F5F5F5F5F5F5F5F5F5F5F5F5F5F5F5F5F5F5F5F5F5F5F5F5F5F5F5F5F5F5F5F5F5F5F5F5E2F5F5F5E2E2F5F5F5E2F5F5F5F5
310
F5F5F5F5F5F5F5F5F5F5F5F5F5F5F5F5F5F5F5F5F5F5F5F5F5F5F5F5F5F5F5F5F5F5F5F5F5F5F5F5F5F5F5F5F5F5F5F5F5F5F5F5F5F5F5F5F5F5F5F5F5F5F5F5F5F5F5F5F5F5F5F5F5F5F5F5F5F5F5F5F5F5F5F5F5F5F5F5F5F5F5F5F5F5F5F5F5F5F5F5F5F5F5F5F5F5F5F5F5F5F5F5F5F5F5F5F5F5F5F5F5F5F5F5F5F5F5
310
F5F5F5F5F5F5F5F5F5F5F5F5F5F5F5F5F5F5F5F5F5F5F5F5F5F5F5F5F5F5F5F5F5F5F5F5F5F5F5E2F5F5F5E2E2F5F5F5E2F5F5F5F5F5F5F5F5F5F5F5F5F5F5F5F5F5F5F5F5F5F5F5F5F5F5F5F5F5F5F5F5F5F5F5F5F5F5F5F5F5F5F5F5F5F5F5F5F5F5F5F5F5F5F5F5F5F5F5F5F5F5F5F5F5F5F5F5F5F5F5F5F5F5F5F5F5F5
310
F5F5F5F5F5F5F5F5F5F5F5F5F5F5F5F5F5F5F5F5F5F5F5F5F5F5F5F5F5F5F5F5F5F5F5F5F5F5F5F5F5F5F5F5F5F5F5F5F5F5F5F5F5F5F5F5F5F5F5F5F5F5F5F5F5F5F5F5F5F5F5F5F5F5F5F5F5F5F5F5F5F5F5F5F5F5F5F5F5F5F5F5E2F5F5F5E2E2F5F5F5E2F5F5F5F5F5F5F5F5F5F5F5F5F5F5F5F5F5F5F5F5F5F5F5F5F5
310
F5F5F5F5F5F5F5F5F5F5F5F5F5F5F5F5F5F5F5F5F5F5F5F5F5F5F5F5F5F5F5F5F5F5F5F5F5F5F5F5F5F5F5F5F5F5F5F5F5F5F5F5F5F5F5F5F5F5F5F5F5F5F5F5F5F5F5F5F5F5F5F5F5F5F5F5F5F5F5F5F5F5F5F5F5F5F5F5F5F5F5F5F5F5F5F5F5F5F5F5F5F5F5F5F5F5F5F5F5F5F5F5F5F5F5F5F5F5F5F5F5F5F5F5F5F5F5
310
F5F5F5F5F5F5F5F5F5F5F5F5F5F5F5F5F5F5E2F5F5F5E2E2F5F5F5E2F5F5F5F5F5F5F5F5F5F5F5F5F5F5F5F5F5F5F5F5F5F5F5F5F5F5F5F5F5F5F5F5F5F5F5F5F5F5F5F5F5F5F5F5F5F5F5F5F5F5F5F5F5F5F5F5F5F5F5F5F5F5F5F5F5F5F5F5F5F5F5F5F5F5F5F5F5F5F5F5F5F5F5F5F5F5F5F5F5F5F5F5F5F5F5F5F5F5F5
310
F5F5F5F5F5F5F5F5F5F5F5F5F5F5F5F5F5F5F5F5F5F5F5F5F5F5F5F5F5F5F5F5F5F5F5F5F5F5F5F5F5F5F5F5F5F5F5F5F5F5F5F5F5F5F5F5F5F5F5F5F5F5F5F5F5F5F5F5F5F5F5E2F5F5F5E2E2F5F5F5E2F5F5F5F5F5F5F5F5F5F5F5F5F5F5F5F5F5F5F5F5F5F5F5F5F5F5F5F5F5F5F5F5F5F5F5F5F5F5F5F5F5F5F5F5F5F5
310
F5F5F5F5F5F5F5F5F5F5F5F5F5F5F5F5F5F5F5F5F5F5F5F5F5F5F5F5F5F5F5F5F5F5F5F5F5F5F5F5F5F5F5F5F5F5F5F5F5F5F5F5F5F5F5F5F5F5F5F5F5F5F5F5F5F5F5F5F5F5F5F5F5F5F5F5F5F5F5F5F5F5F5F5F5F5F5F5F5F5F5F5F5F5F5F5F5F5F5F5F5F5F5F5F5F5F5F5F5F5F5F5F5F5F5F5F5F5F5F5F5F5F5F5E2F5F5
310
F5E2E2F5F5F5E2F5F5F5F5F5F5F5F5F5F5F5F5F5F5F5F5F5F5F5F5F5F5F5F5F5F5F5F5F5F5F5F5F5F5F5F5F5F5F5F5F5F5F5F5F5F5F5F5F5F5F5F5F5F5F5F5F5F5F5F5F5F5F5F5F5F5F5F5F5F5F5F5F5F5F5F5F5F5F5F5F5F5F5F5F5F5F5F5F5F5F5F5F5F5F5F5F5F5F5F5F5F5F5F5F5F5F5F5F5F5F5F5F5F5F5F5F5F5F5F5
310
F5F5F5F5F5F5F5F5F5F5F5F5F5F5F5F5F5F5F5F5F5F5F5F5F5F5F5F5F5F5F5F5F5F5F5F5F5F5F5F5F5F5F5F5F5F5F5F5F5F5E2F5F5F5E2E2F5F5F5E2F5F5F5F5F5F5F5F5F5F5F5F5F5F5F5F5F5F5F5F5F5F5F5F5F5F5F5F5F5F5F5F5F5F5F5F5F5F5F5F5F5F5F5F5F5F5F5F5F5F5F5F5F5F5F5F5F5F5F5F5F5F5F5F5F5F5F5
310
F5F5F5F5F5F5F5F5F5F5F5F5F5F5F5F5F5F5F5F5F5F5F5F5F5F5F5F5F5F5F5F5F5F5F5F5F5F5F5F5F5F5F5F5F5F5F5F5F5F5F5F5F5F5F5F5F5F5F5F5F5F5F5F5F5F5F5F5F5F5F5F5F5F5F5F5F5F5F5F5F5F5F5F5F5F5F5F5F5F5F5F5F5F5F5F5F5F5F5F5F5F5F5E2F5F5F5E2E2F5F5F5E2F5F5F5F5F5F5F5F5F5F5F5F5F5F5
310
F5F5F5F5F5F5F5F5F5F5F5F5F5F5F5F5F5F5F5F5F5F5F5F5F5F5F5F5F5F5F5F5F5F5F5F5F5F5F5F5F5F5F5F5F5F5F5F5F5F5F5F5F5F5F5F5F5F5F5F5F5F5F5F5F5F5F5F5F5F5F5F5F5F5F5F5F5F5F5F5F5F5F5F5F5F5F5F5F5F5F5F5F5F5F5F5F5F5F5F5F5F5F5F5F5F5F5F5F5F5F5F5F5F5F5F5F5F5F5F5F5F5F5F5F5F5F5
310
F5F5F5F5F5F5F5F5F5F5F5F5F5F5F5F5F5F5F5F5F5F5F5F5F5F5F5F5F5E2F5F5F5E2E2F5F5F5E2F5F5F5F5F5F5F5F5F5F5F5F5F5F5F5F5F5F5F5F5F5F5F5F5F5F5F5F5F5F5F5F5F5F5F5F5F5F5F5F5F5F5F5F5F5F5F5F5F5F5F5F5F5F5F5F5F5F5F5F5F5F5F5F5F5F5F5F5F5F5F5F5F5F5F5F5F5F5F5F5F5F5F5F5F5F5F5F5
310
F5F5F5F5F5F5F5F5F5F5F5F5F5F5F5F5F5F5F5F5F5F5F5F5F5F5F5F5F5F5F5F5F5F5F5F5F5F5F5F5F5F5F5F5F5F5F5F5F5F5F5F5F5F5F5F5F5F5F5F5F5F5F5F5F5F5F5F5F5F5F5F5F5F5F5F5F5F5F5F5F5F5E2F5F5F5E2E2F5F5F5E2F5F5F5F5F5F5F5F5F5F5F5F5F5F5F5F5F5F5F5F5F5F5F5F5F5F5F5F5F5F5F5F5F5F5F5
310
F5F5F5F5F5F5F5F5F5F5F5F5F5F5F5F5F5F5F5F5F5F5F5F5F5F5F5F5F5F5F5F5F5F5F5F5F5F5F5F5F5F5F5F5F5F5F5F5F5F5F5F5F5F5F5F5F5F5F5F5F5F5F5F5F5F5F5F5F5F5F5F5F5F5F5F5F5F5F5F5F5F5F5F5F5F5F5F5F5F5F5F5F5F5F5F5F5F5F5F5F5F5F5F5F5F5F5F5F5F5F5F5F5F5F5F5F5F5F5F5F5F5F5F5F5F5F5
310
F5F5F5F5F5F5F5F5E2F5F5F5E2E2F5F5F5E2F5F5F5F5F5F5F5F5F5F5F5F5F5F5F5F5F5F5F5F5F5F5F5F5F5F5F5F5F5F5F5F5F5F5F5F5F5F5F5F5F5F5F5F5F5F5F5F5F5F5F5F5F5F5F5F5F5F5F5F5F5F5F5F5F5F5F5F5F5F5F5F5F5F5F5F5F5F5F5F5F5F5F5F5F5F5F5F5F5F5F5F5F5F5F5F5F5F5F5F5F5F5F5F5F5F5F5F5F5
310
F5F5F5F5F5F5F5F5F5F5F5F5F5F5F5F5F5F5F5F5F5F5F5F5F5F5F5F5F5F5F5F5F5F5F5F5F5F5F5F5F5F5F5F5F5F5F5F5F5F5F5F5F5F5F5F5F5F5F5F5F5E2F5F5F5E2E2F5F5F5E2F5F5F5F5F5F5F5F5F5F5F5F5F5F5F5F5F5F5F5F5F5F5F5F5F5F5F5F5F5F5F5F5F5F5F5F5F5F5F5F5F5F5F5F5F5F5F5F5F5F5F5F5F5F5F5F5
310
F5F5F5F5F5F5F5F5F5F5F5F5F5F5F5F5F5F5F5F5F5F5F5F5F5F5F5F5F5F5F5F5F5F5F5F5F5F5F5F5F5F5F5F5F5F5F5F5F5F5F5F5F5F5F5F5F5F5F5F5F5F5F5F5F5F5F5F5F5F5F5F5F5F5F5F5F5F5F5F5F5F5F5F5F5F5F5F5F5F5F5F5F5F5F5F5F5F5F5F5F5F5F5F5F5F5F5F5F5F5F5F5F5F5E2F5F5F5E2E2F5F5F5F5F5F5F5
310
F5F5F5F5F5F5F5F5F5F5F5F5F5F5F5F5F5F5F5F5F5F5F5F5F5F5F5F5F5F5F5F5F5F5F5F5F5F5F5F5F5F5F5F5F5F5F5F5F5F5F5F5F5F5F5F5F5F5F5F5F5F5F5F5F5F5F5F5F5F5F5F5F5F5F5F5F5F5F5F5F5F5F5F5F5F5F5F5F5F5F5F5F5F5F5F5F5F5F5F5F5F5F5F5F5F5F5F5F5F5F5F5F5F5F5F5F5F5F5F5F5F5F5F5F5F5F5
310
F5F5F5F5F5F5F5F5F5F5F5F5F5F5F5F5F5F5F5F5F5F5F5F5F5F5F5F5F5F5F5F5F5F5F5F5F5F5F5F5F5F5F5F5E2E2F5F5F5F5F5F5F5F5F5F5F5F5F5F5F5F5F5F5F5F5F5F5F5F5F5F5F5F5F5F5F5F5F5F5F5F5F5F5F5F5F5F5F5F5F5F5F5F5F5F5F5F5F5F5F5F5F5F5F5F5F5F5F5F5F5F5F5F5F5F5F5F5F5F5F5F5F5F5F5F5F5
310
F5F5F5F5F5F5F5F5F5F5F5F5F5F5F5F5F5F5F5F5F5F5F5F5F5F5F5F5F5F5F5F5F5F5F5F5F5F5F5F5F5F5F5F5F5F5F5F5F5F5F5F5F5F5F5F5F5F5F5F5F5F5F5F5F5F5F5F5F5F5F5F5F5F5F5F5F5F5F5F5F5F5F5F5F5F5F5F5F5F5F5F5F5F5F5F5F5E2E2F5F5F5F5F5F5F5F5F5F5F5F5F5F5F5F5F5F5F5F5F5F5F5F5F5F5F5F5
310
F5F5F5F5F5F5F5F5F5F5F5F5F5F5F5F5F5F5F5F5F5F5F5F5F5F5F5F5F5F5F5F5F5F5F5F5F5F5F5F5F5F5F5F5F5F5F5F5F5F5F5F5F5F5F5F5F5F5F5F5F5F5F5F5F5F5F5F5F5F5F5F5F5F5F5F5F5F5F5F5F5F5F5F5F5F5F5F5F5F5F5F5F5F5F5F5F5F5F5F5F5F5F5F5F5F5F5F5F5F5F5F5F5F5F5F5F5F5F5F5F5F5F5F5F5F5F5
310
F5F5F5F5F5F5F5F5F5F5F5F5F5F5F5F5F5F5F5F5F5F5F5E2E2F5F5F5F5F5F5F5F5F5F5F5F5F5F5F5F5F5F5F5F5F5F5F5F5F5F5F5F5F5F5F5F5F5F5F5F5F5F5F5F5F5F5F5F5F5F5F5F5F5F5F5F5F5F5F5F5F5F5F5F5F5F5F5F5F5F5F5F5F5F5F5F5F5F5F5F5F5F5F5F5F5F5F5F5F5F5F5F5F5F5F5F5F5F5F5F5F5F5F5F5F5F5
310
F5F5F5F5F5F5F5F5F5F5F5F5F5F5F5F5F5F5F5F5F5F5F5F5F5F5F5F5F5F5F5F5F5F5F5F5F5F5F5F5F5F5F5F5F5F5F5F5F5F5F5F5F5F5F5F5F5F5F5F5F5F5F5F5F5F5F5F5F5F5F5F5F5F5F5F5E2E2F5F5F5F5F5F5F5F5F5F5F5F5F5F5F5F5F5F5F5F5F5F5F5F5F5F5F5F5F5F5F5F5F5F5F5F5F5F5F5F5F5F5F5F5F5F5F5F5F5
310
F5F5F5F5F5F5F5F5F5F5F5F5F5F5F5F5F5F5F5F5F5F5F5F5F5F5F5F5F5F5F5F5F5F5F5F5F5F5F5F5F5F5F5F5F5F5F5F5F5F5F5F5F5F5F5F5F5F5F5F5F5F5F5F5F5F5F5F5F5F5F5F5F5F5F5F5F5F5F5F5F5F5F5F5F5F5F5F5F5F5F5F5F5F5F5F5F5F5F5F5F5F5F5F5F5F5F5F5F5F5F5F5F5F5F5F5F5F5F5F5F5F5F5F5F5F5F5
310
F5F5E2E2F5F5F5F5F5F5F5F5F5F5F5F5F5F5F5F5F5F5F5F5F5F5F5F5F5F5F5F5F5F5F5F5F5F5F5F5F5F5F5F5F5F5F5F5F5F5F5F5F5F5F5F5F5F5F5F5F5F5F5F5F5F5F5F5F5F5F5F5F5F5F5F5F5F5F5F5F5F5F5F5F5F5F5F5F5F5F5F5F5F5F5F5F5F5F5F5F5F5F5F5F5F5F5F5F5F5F5F5F5F5F5F5F5F5F5F5F5F5F5F5F5F5F5
310
F5F5F5F5F5F5F5F5F5F5F5F5F5F5F5F5F5F5F5F5F5F5F5F5F5F5F5F5F5F5F5F5F5F5F5F5F5F5F5F5F5F5F5F5F5F5F5F5F5F5F5F5F5F5F5E2E2F5F5F5F5F5F5F5F5F5F5F5F5F5F5F5F5F5F5F5F5F5F5F5F5F5F5F5F5F5F5F5F5F5F5F5F5F5F5F5F5F5F5F5F5F5F5F5F5F5F5F5F5F5F5F5F5F5F5F5F5F5F5F5F5F5F5F5F5F5F5
310
F5F5F5F5F5F5F5F5F5F5F5F5F5F5F5F5F5F5F5F5F5F5F5F5F5F5F5F5F5F5F5F5F5F5F5F5F5F5F5F5F5F5F5F5F5F5F5F5F5F5F5F5F5F5F5F5F5F5F5F5F5F5F5F5F5F5F5F5F5F5F5F5F5F5F5F5F5F5F5F5F5F5F5F5F5F5F5F5F5F5F5F5F5F5F5F5F5F5F5F5F5F5F5F5F5F5F5F5E2E2F5F5F5F5F5F5F5F5F5F5F5F5F5F5F5F5F5
310
F5F5F5F5F5F5F5F5F5F5F5F5F5F5F5F5F5F5F5F5F5F5F5F5F5F5F5F5F5F5F5F5F5F5F5F5F5F5F5F5F5F5F5F5F5F5F5F5F5F5F5F5F5F5F5F5F5F5F5F5F5F5F5F5F5F5F5F5F5F5F5F5F5F5F5F5F5F5F5F5F5F5F5F5F5F5F5F5F5F5F5F5F5F5F5F5F5F5F5F5F5F5F5F5F5F5F5F5F5F5F5F5F5F5F5F5F5F5F5F5F5F5F5F5F5F5F5
310
F5F5F5F5F5F5F5F5F5F5F5F5F5F5F5F5F5F5F5F5F5F5F5F5F5F5F5F5F5F5F5F5F5F5E2E2F5F5F5F5F5F5F5F5F5F5F5F5F5F5F5F5F5F5F5F5F5F5F5F5F5F5F5F5F5F5F5F5F5F5F5F5F5F5F5F5F5F5F5F5F5F5F5F5F5F5F5F5F5F5F5F5F5F5F5F5F5F5F5F5F5F5F5F5F5F5F5F5F5F5F5F5F5F5F5F5F5F5F5F5F5F5F5F5F5F5F5
310
F5F5F5F5F5F5F5F5F5F5F5F5F5F5F5F5F5F5F5F5F5F5F5F5F5F5F5F5F5F5F5F5F5F5F5F5F5F5F5F5F5F5F5F5F5F5F5F5F5F5F5F5F5F5F5F5F5F5F5F5F5F5F5F5F5F5F5F5F5F5F5F5F5F5F5F5F5F5F5F5F5F5F5F5F5F5F5E2E2F5F5F5F5F5F5F5F5F5F5F5F5F5F5F5F5F5F5F5F5F5F5F5F5F5F5F5F5F5F5F5F5F5F5F5F5F5F5
310
F5F5F5F5F5F5F5F5F5F5F5F5F5F5F5F5F5F5F5F5F5F5F5F5F5F5F5F5F5F5F5F5F5F5F5F5F5F5F5F5F5F5F5F5F5F5F5F5F5F5F5F5F5F5F5F5F5F5F5F5F5F5F5F5F5F5F5F5F5F5F5F5F5F5F5F5F5F5F5F5F5F5F5F5F5F5F5F5F5F5F5F5F5F5F5F5F5F5F5F5F5F5F5F5F5F5F5F5F5F5F5F5F5F5F5F5F5F5F5F5F5F5F5F5F5F5F5
310
F5F5F5F5F5F5F5F5F5F5F5F5F5E2E2F5F5F5E2F5F5F5F5F5F5F5F5F5F5F5F5F5F5F5F5F5F5F5F5F5F5F5F5F5F5F5F5F5F5F5F5F5F5F5F5F5F5F5F5F5F5F5F5F5F5F5F5F5F5F5F5F5F5F5F5F5F5F5F5F5F5F5F5F5F5F5F5F5F5F5F5F5F5F5F5F5F5F5F5F5F5F5F5F5F5F5F5F5F5F5F5F5F5F5F5F5F5F5F5F5F5F5F5F5F5F5F5
310
F5F5F5F5F5F5F5F5F5F5F5F5F5F5F5F5F5F5F5F5F5F5F5F5F5F5F5F5F5F5F5F5F5F5F5F5F5F5F5F5F5F5F5F5F5F5F5F5F5F5F5F5F5F5F5F5F5F5F5F5F5F5E2F5F5F5E2E2F5F5F5E2F5F5F5F5F5F5F5F5F5F5F5F5F5F5F5F5F5F5F5F5F5F5F5F5F5F5F5F5F5F5F5F5F5F5F5F5F5F5F5F5F5F5F5F5F5F5F5F5F5F5F5F5F5F5F5
310
F5F5F5F5F5F5F5F5F5F5F5F5F5F5F5F5F5F5F5F5F5F5F5F5F5F5F5F5F5F5F5F5F5F5F5F5F5F5F5F5F5F5F5F5F5F5F5F5F5F5F5F5F5F5F5F5F5F5F5F5F5F5F5F5F5F5F5F5F5F5F5F5F5F5F5F5F5F5F5F5F5F5F5F5F5F5F5F5F5F5F5F5F5F5F5F5F5F5F5F5F5F5F5F5F5F5F5F5F5F5F5F5F5F5F5E2F5F5F5E2E2F5F5F5E2F5F5
310
F5F5F5F5F5F5F5F5F5F5F5F5F5F5F5F5F5F5F5F5F5F5F5F5F5F5F5F5F5F5F5F5F5F5F5F5F5F5F5F5F5F5F5F5F5F5F5F5F5F5F5F5F5F5F5F5F5F5F5F5F5F5F5F5F5F5F5F5F5F5F5F5F5F5F5F5F5F5F5F5F5F5F5F5F5F5F5F5F5F5F5F5F5F5F5F5F5F5F5F5F5F5F5F5F5F5F5F5F5F5F5F5F5F5F5F5F5F5F5F5F5F5F5F5F5F5F5
310
F5F5F5F5F5F5F5F5F5F5F5F5F5F5F5F5F5F5F5F5F5F5F5F5F5F5F5F5F5F5F5F5F5F5F5F5F5F5F5F5F5E2F5F5F5E2E2F5F5F5E2F5F5F5F5F5F5F5F5F5F5F5F5F5F5F5F5F5F5F5F5F5F5F5F5F5F5F5F5F5F5F5F5F5F5F5F5F5F5F5F5F5F5F5F5F5F5F5F5F5F5F5F5F5F5F5F5F5F5F5F5F5F5F5F5F5F5F5F5F5F5F5F5F5F5F5F5
310
F5F5F5F5F5F5F5F5F5F5F5F5F5F5F5F5F5F5F5F5F5F5F5F5F5F5F5F5F5F5F5F5F5F5F5F5F5F5F5F5F5F5F5F5F5F5F5F5F5F5F5F5F5F5F5F5F5F5F5F5F5F5F5F5F5F5F5F5F5F5F5F5F5F5F5F5F5F5F5F5F5F5F5F5F5F5F5F5F5F5F5F5F5F5E2F5F5F5E2E2F5F5F5E2F5F5F5F5F5F5F5F5F5F5F5F5F5F5F5F5F5F5F5F5F5F5F5
310
F5F5F5F5F5F5F5F5F5F5F5F5F5F5F5F5F5F5F5F5F5F5F5F5F5F5F5F5F5F5F5F5F5F5F5F5F5F5F5F5F5F5F5F5F5F5F5F5F5F5F5F5F5F5F5F5F5F5F5F5F5F5F5F5F5F5F5F5F5F5F5F5F5F5F5F5F5F5F5F5F5F5F5F5F5F5F5F5F5F5F5F5F5F5F5F5F5F5F5F5F5F5F5F5F5F5F5F5F5F5F5F5F5F5F5F5F5F5F5F5F5F5F5F5F5F5F5
310
F5F5F5F5F5F5F5F5F5F5F5F5F5F5F5F5F5F5F5F5E2F5F5F5E2E2F5F5F5E2F5F5F5F5F5F5F5F5F5F5F5F5F5F5F5F5F5F5F5F5F5F5F5F5F5F5F5F5F5F5F5F5F5F5F5F5F5F5F5F5F5F5F5F5F5F5F5F5F5F5F5F5F5F5F5F5F5F5F5F5F5F5F5F5F5F5F5F5F5F5F5F5F5F5F5F5F5F5F5F5F5F5F5F5F5F5F5F5F5F5F5F5F5F5F5F5F5
310
F5F5F5F5F5F5F5F5F5F5F5F5F5F5F5F5F5F5F5F5F5F5F5F5F5F5F5F5F5F5F5F5F5F5F5F5F5F5F5F5F5F5F5F5F5F5F5F5F5F5F5F5F5F5F5F5F5F5F5F5F5F5F5F5F5F5F5F5F5F5F5F5F5E2F5F5F5E2E2F5F5F5E2F5F5F5F5F5F5F5F5F5F5F5F5F5F5F5F5F5F5F5F5F5F5F5F5F5F5F5F5F5F5F5F5F5F5F5F5F5F5F5F5F5F5F5F5
310
F5F5F5F5F5F5F5F5F5F5F5F5F5F5F5F5F5F5F5F5F5F5F5F5F5F5F5F5F5F5F5F5F5F5F5F5F5F5F5F5F5F5F5F5F5F5F5F5F5F5F5F5F5F5F5F5F5F5F5F5F5F5F5F5F5F5F5F5F5F5F5F5F5F5F5F5F5F5F5F5F5F5F5F5F5F5F5F5F5F5F5F5F5F5F5F5F5F5F5F5F5F5F5F5F5F5F5F5F5F5F5F5F5F5F5F5F5F5F5F5F5F5F5F5F5F5E2
310
F5F5F5E2E2F5F5F5E2F5F5F5F5F5F5F5F5F5F5F5F5F5F5F5F5F5F5F5F5F5F5F5F5F5F5F5F5F5F5F5F5F5F5F5F5F5F5F5F5F5F5F5F5F5F5F5F5F5F5F5F5F5F5F5F5F5F5F5F5F5F5F5F5F5F5F5F5F5F5F5F5F5F5F5F5F5F5F5F5F5F5F5F5F5F5F5F5F5F5F5F5F5F5F5F5F5F5F5F5F5F5F5F5F5F5F5F5F5F5F5F5F5F5F5F5F5F5
310
F5F5F5F5F5F5F5F5F5F5F5F5F5F5F5F5F5F5F5F5F5F5F5F5F5F5F5F5F5F5F5F5F5F5F5F5F5F5F5F5F5F5F5F5F5F5F5F5F5F5F5F5E2F5F5F5E2E2F5F5F5E2F5F5F5F5F5F5F5F5F5F5F5F5F5F5F5F5F5F5F5F5F5F5F5F5F5F5F5F5F5F5F5F5F5F5F5F5F5F5F5F5F5F5F5F5F5F5F5F5F5F5F5F5F5F5F5F5F5F5F5F5F5F5F5F5F5
310
F5F5F5F5F5F5F5F5F5F5F5F5F5F5F5F5F5F5F5F5F5F5F5F5F5F5F5F5F5F5F5F5F5F5F5F5F5F5F5F5F5F5F5F5F5F5F5F5F5F5F5F5F5F5F5F5F5F5F5F5F5F5F5F5F5F5F5F5F5F5F5F5F5F5F5F5F5F5F5F5F5F5F5F5F5F5F5F5F5F5F5F5F5F5F5F5F5F5F5F5F5F5F5F5F5E2F5F5F5E2E2F5F5F5E2F5F5F5F5F5F5F5F5F5F5F5F5
310
F5F5F5F5F5F5F5F5F5F5F5F5F5F5F5F5F5F5F5F5F5F5F5F5F5F5F5F5F5F5F5F5F5F5F5F5F5F5F5F5F5F5F5F5F5F5F5F5F5F5F5F5F5F5F5F5F5F5F5F5F5F5F5F5F5F5F5F5F5F5F5F5F5F5F5F5F5F5F5F5F5F5F5F5F5F5F5F5F5F5F5F5F5F5F5F5F5F5F5F5F5F5F5F5F5F5F5F5F5F5F5F5F5F5F5F5F5F5F5F5F5F5F5F5F5F5F5
310
F5F5F5F5F5F5F5F5F5F5F5F5F5F5F5F5F5F5F5F5F5F5F5F5F5F5F5F5F5F5F5E2F5F5F5E2E2F5F5F5E2F5F5F5F5F5F5F5F5F5F5F5F5F5F5F5F5F5F5F5F5F5F5F5F5F5F5F5F5F5F5F5F5F5F5F5F5F5F5F5F5F5F5F5F5F5F5F5F5F5F5F5F5F5F5F5F5F5F5F5F5F5F5F5F5F5F5F5F5F5F5F5F5F5F5F5F5F5F5F5F5F5F5F5F5F5F5
310
F5F5F5F5F5F5F5F5F5F5F5F5F5F5F5F5F5F5F5F5F5F5F5F5F5F5F5F5F5F5F5F5F5F5F5F5F5F5F5F5F5F5F5F5F5F5F5F5F5F5F5F5F5F5F5F5F5F5F5F5F5F5F5F5F5F5F5F5F5F5F5F5F5F5F5F5F5F5F5F5F5F5F5F5E2F5F5F5E2E2F5F5F5E2F5F5F5F5F5F5F5F5F5F5F5F5F5F5F5F5F5F5F5F5F5F5F5F5F5F5F5F5F5F5F5F5F5
310
F5F5F5F5F5F5F5F5F5F5F5F5F5F5F5F5F5F5F5F5F5F5F5F5F5F5F5F5F5F5F5F5F5F5F5F5F5F5F5F5F5F5F5F5F5F5F5F5F5F5F5F5F5F5F5F5F5F5F5F5F5F5F5F5F5F5F5F5F5F5F5F5F5F5F5F5F5F5F5F5F5F5F5F5F5F5F5F5F5F5F5F5F5F5F5F5F5F5F5F5F5F5F5F5F5F5F5F5F5F5F5F5F5F5F5F5F5F5F5F5F5F5F5F5F5F5F5
310
F5F5F5F5F5F5F5F5F5F5E2F5F5F5E2E2F5F5F5E2F5F5F5F5F5F5F5F5F5F5F5F5F5F5F5F5F5F5F5F5F5F5F5F5F5F5F5F5F5F5F5F5F5F5F5F5F5F5F5F5F5F5F5F5F5F5F5F5F5F5F5F5F5F5F5F5F5F5F5F5F5F5F5F5F5F5F5F5F5F5F5F5F5F5F5F5F5F5F5F5F5F5F5F5F5F5F5F5F5F5F5F5F5F5F5F5F5F5F5F5F5F5F5F5F5F5F5
310
F5F5F5F5F5F5F5F5F5F5F5F5F5F5F5F5F5F5F5F5F5F5F5F5F5F5F5F5F5F5F5F5F5F5F5F5F5F5F5F5F5F5F5F5F5F5F5F5F5F5F5F5F5F5F5F5F5F5F5F5F5F5F5E2F5F5F5E2E2F5F5F5E2F5F5F5F5F5F5F5F5F5F5F5F5F5F5F5F5F5F5F5F5F5F5F5F5F5F5F5F5F5F5F5F5F5F5F5F5F5F5F5F5F5F5F5F5F5F5F5F5F5F5F5F5F5F5
310
F5F5F5F5F5F5F5F5F5F5F5F5F5F5F5F5F5F5F5F5F5F5F5F5F5F5F5F5F5F5F5F5F5F5F5F5F5F5F5F5F5F5F5F5F5F5F5F5F5F5F5F5F5F5F5F5F5F5F5F5F5F5F5F5F5F5F5F5F5F5F5F5F5F5F5F5F5F5F5F5F5F5F5F5F5F5F5F5F5F5F5F5F5F5F5F5F5F5F5F5F5F5F5F5F5F5F5F5F5F5F5F5F5F5F5F5E2F5F5F5E2E2F5F5F5E2F5
310
F5F5F5F5F5F5F5F5F5F5F5F5F5F5F5F5F5F5F5F5F5F5F5F5F5F5F5F5F5F5F5F5F5F5F5F5F5F5F5F5F5F5F5F5F5F5F5F5F5F5F5F5F5F5F5F5F5F5F5F5F5F5F5F5F5F5F5F5F5F5F5F5F5F5F5F5F5F5F5F5F5F5F5F5F5F5F5F5F5F5F5F5F5F5F5F5F5F5F5F5F5F5F5F5F5F5F5F5F5F5F5F5F5F5F5F5F5F5F5F5F5F5F5F5F5F5F5
310
F5F5F5F5F5F5F5F5F5F5F5F5F5F5F5F5F5F5F5F5F5F5F5F5F5F5F5F5F5F5F5F5F5F5F5F5F5F5F5F5F5F5E2F5F5F5E2E2F5F5F5E2F5F5F5F5F5F5F5F5F5F5F5F5F5F5F5F5F5F5F5F5F5F5F5F5F5F5F5F5F5F5F5F5F5F5F5F5F5F5F5F5F5F5F5F5F5F5F5F5F5F5F5F5F5F5F5F5F5F5F5F5F5F5F5F5F5F5F5F5F5F5F5F5F5F5F5
310
F5F5F5F5F5F5F5F5F5F5F5F5F5F5F5F5F5F5F5F5F5F5F5F5F5F5F5F5F5F5F5F5F5F5F5F5F5F5F5F5F5F5F5F5F5F5F5F5F5F5F5F5F5F5F5F5F5F5F5F5F5F5F5F5F5F5F5F5F5F5F5F5F5F5F5F5F5F5F5F5F5F5F5F5F5F5F5F5F5F5F5F5F5F5F5E2F5F5F5E2E2F5F5F5F5F5F5F5F5F5F5F5F5F5F5F5F5F5F5F5F5F5F5F5F5F5F5
310
F5F5F5F5F5F5F5F5F5F5F5F5F5F5F5F5F5F5F5F5F5F5F5F5F5F5F5F5F5F5F5F5F5F5F5F5F5F5F5F5F5F5F5F5F5F5F5F5F5F5F5F5F5F5F5F5F5F5F5F5F5F5F5F5F5F5F5F5F5F5F5F5F5F5F5F5F5F5F5F5F5F5F5F5F5F5F5F5F5F5F5F5F5F5F5F5F5F5F5F5F5F5F5F5F5F5F5F5F5F5F5F5F5F5F5F5F5F5F5F5F5F5F5F5F5F5F5
310
F5F5F5F5F5F5F5F5F5F5F5F5F5F5F5F5F5F5F5F5F5F5F5F5F5E2E2F5F5F5F5F5F5F5F5F5F5F5F5F5F5F5F5F5F5F5F5F5F5F5F5F5F5F5F5F5F5F5F5F5F5F5F5F5F5F5F5F5F5F5F5F5F5F5F5F5F5F5F5F5F5F5F5F5F5F5F5F5F5F5F5F5F5F5F5F5F5F5F5F5F5F5F5F5F5F5F5F5F5F5F5F5F5F5F5F5F5F5F5F5F5F5F5F5F5F5F5
310
F5F5F5F5F5F5F5F5F5F5F5F5F5F5F5F5F5F5F5F5F5F5F5F5F5F5F5F5F5F5F5F5F5F5F5F5F5F5F5F5F5F5F5F5F5F5F5F5F5F5F5F5F5F5F5F5F5F5F5F5F5F5F5F5F5F5F5F5F5F5F5F5F5F5F5F5F5F5E2E2F5F5F5F5F5F5F5F5F5F5F5F5F5F5F5F5F5F5F5F5F5F5F5F5F5F5F5F5F5F5F5F5F5F5F5F5F5F5F5F5F5F5F5F5F5F5F5
310
F5F5F5F5F5F5F5F5F5F5F5F5F5F5F5F5F5F5F5F5F5F5F5F5F5F5F5F5F5F5F5F5F5F5F5F5F5F5F5F5F5F5F5F5F5F5F5F5F5F5F5F5F5F5F5F5F5F5F5F5F5F5F5F5F5F5F5F5F5F5F5F5F5F5F5F5F5F5F5F5F5F5F5F5F5F5F5F5F5F5F5F5F5F5F5F5F5F5F5F5F5F5F5F5F5F5F5F5F5F5F5F5F5F5F5F5F5F5F5F5F5F5F5F5F5F5F5
310
F5F5F5F5E2E2F5F5F5F5F5F5F5F5F5F5F5F5F5F5F5F5F5F5F5F5F5F5F5F5F5F5F5F5F5F5F5F5F5F5F5F5F5F5F5F5F5F5F5F5F5F5F5F5F5F5F5F5F5F5F5F5F5F5F5F5F5F5F5F5F5F5F5F5F5F5F5F5F5F5F5F5F5F5F5F5F5F5F5F5F5F5F5F5F5F5F5F5F5F5F5F5F5F5F5F5F5F5F5F5F5F5F5F5F5F5F5F5F5F5F5F5F5F5F5F5F5
310
F5F5F5F5F5F5F5F5F5F5F5F5F5F5F5F5F5F5F5F5F5F5F5F5F5F5F5F5F5F5F5F5F5F5F5F5F5F5F5F5F5F5F5F5F5F5F5F5F5F5F5F5F5F5F5F5F5E2E2F5F5F5F5F5F5F5F5F5F5F5F5F5F5F5F5F5F5F5F5F5F5F5F5F5F5F5F5F5F5F5F5F5F5F5F5F5F5F5F5F5F5F5F5F5F5F5F5F5F5F5F5F5F5F5F5F5F5F5F5F5F5F5F5F5F5F5F5
310
F5F5F5F5F5F5F5F5F5F5F5F5F5F5F5F5F5F5F5F5F5F5F5F5F5F5F5F5F5F5F5F5F5F5F5F5F5F5F5F5F5F5F5F5F5F5F5F5F5F5F5F5F5F5F5F5F5F5F5F5F5F5F5F5F5F5F5F5F5F5F5F5F5F5F5F5F5F5F5F5F5F5F5F5F5F5F5F5F5F5F5F5F5F5F5F5F5F5F5F5F5F5F5F5F5F5F5F5F5F5E2E2F5F5F5F5F5F5F5F5F5F5F5F5F5F5F5
310
F5F5F5F5F5F5F5F5F5F5F5F5F5F5F5F5F5F5F5F5F5F5F5F5F5F5F5F5F5F5F5F5F5F5F5F5F5F5F5F5F5F5F5F5F5F5F5F5F5F5F5F5F5F5F5F5F5F5F5F5F5F5F5F5F5F5F5F5F5F5F5F5F5F5F5F5F5F5F5F5F5F5F5F5F5F5F5F5F5F5F5F5F5F5F5F5F5F5F5F5F5F5F5F5F5F5F5F5F5F5F5F5F5F5F5F5F5F5F5F5F5F5F5F5F5F5F5
310
F5F5F5F5F5F5F5F5F5F5F5F5F5F5F5F5F5F5F5F5F5F5F5F5F5F5F5F5F5F5F5F5F5F5F5F5E2E2F5F5F5F5F5F5F5F5F5F5F5F5F5F5F5F5F5F5F5F5F5F5F5F5F5F5F5F5F5F5F5F5F5F5F5F5F5F5F5F5F5F5F5F5F5F5F5F5F5F5F5F5F5F5F5F5F5F5F5F5F5F5F5F5F5F5F5F5F5F5F5F5F5F5F5F5F5F5F5F5F5F5F5F5F5F5F5F5F5
310
F5F5F5F5F5F5F5F5F5F5F5F5F5F5F5F5F5F5F5F5F5F5F5F5F5F5F5F5F5F5F5F5F5F5F5F5F5F5F5F5F5F5F5F5F5F5F5F5F5F5F5F5F5F5F5F5F5F5F5F5F5F5F5F5F5F5F5F5F5F5F5F5F5F5F5F5F5F5F5F5F5F5F5F5F5F5F5F5F5E2E2F5F5F5F5F5F5F5F5F5F5F5F5F5F5F5F5F5F5F5F5F5F5F5F5F5F5F5F5F5F5F5F5F5F5F5F5
310
F5F5F5F5F5F5F5F5F5F5F5F5F5F5F5F5F5F5F5F5F5F5F5F5F5F5F5F5F5F5F5F5F5F5F5F5F5F5F5F5F5F5F5F5F5F5F5F5F5F5F5F5F5F5F5F5F5F5F5F5F5F5F5F5F5F5F5F5F5F5F5F5F5F5F5F5F5F5F5F5F5F5F5F5F5F5F5F5F5F5F5F5F5F5F5F5F5F5F5F5F5F5F5F5F5F5F5F5F5F5F5F5F5F5F5F5F5F5F5F5F5F5F5F5F5F5F5
310
F5F5F5F5F5F5F5F5F5F5F5F5F5F5F5E2E2F5F5F5F5F5F5F5F5F5F5F5F5F5F5F5F5F5F5F5F5F5F5F5F5F5F5F5F5F5F5F5F5F5F5F5F5F5F5F5F5F5F5F5F5F5F5F5F5F5F5F5F5F5F5F5F5F5F5F5F5F5F5F5F5F5F5F5F5F5F5F5F5F5F5F5F5F5F5F5F5F5F5F5F5F5F5F5F5F5F5F5F5F5F5F5F5F5F5F5F5F5F5F5F5F5F5F5F5F5F5
310
F5F5F5F5F5F5F5F5F5F5F5F5F5F5F5F5F5F5F5F5F5F5F5F5F5F5F5F5F5F5F5F5F5F5F5F5F5F5F5F5F5F5F5F5F5F5F5F5F5F5F5F5F5F5F5F5F5F5F5F5F5F5F5F5F5F5F5F5E2E2F5F5F5E2F5F5F5F5F5F5F5F5F5F5F5F5F5F5F5F5F5F5F5F5F5F5F5F5F5F5F5F5F5F5F5F5F5F5F5F5F5F5F5F5F5F5F5F5F5F5F5F5F5F5F5F5F5
310
F5F5F5F5F5F5F5F5F5F5F5F5F5F5F5F5F5F5F5F5F5F5F5F5F5F5F5F5F5F5F5F5F5F5F5F5F5F5F5F5F5F5F5F5F5F5F5F5F5F5F5F5F5F5F5F5F5F5F5F5F5F5F5F5F5F5F5F5F5F5F5F5F5F5F5F5F5F5F5F5F5F5F5F5F5F5F5F5F5F5F5F5F5F5F5F5F5F5F5F5F5F5F5F5F5F5F5F5F5F5F5F5F5F5F5F5F5E2F5F5F5E2E2F5F5F5E2
310
F5F5F5F5F5F5F5F5F5F5F5F5F5F5F5F5F5F5F5F5F5F5F5F5F5F5F5F5F5F5F5F5F5F5F5F5F5F5F5F5F5F5F5F5F5F5F5F5F5F5F5F5F5F5F5F5F5F5F5F5F5F5F5F5F5F5F5F5F5F5F5F5F5F5F5F5F5F5F5F5F5F5F5F5F5F5F5F5F5F5F5F5F5F5F5F5F5F5F5F5F5F5F5F5F5F5F5F5F5F5F5F5F5F5F5F5F5F5F5F5F5F5F5F5F5F5F5
310
F5F5F5F5F5F5F5F5F5F5F5F5F5F5F5F5F5F5F5F5F5F5F5F5F5F5F5F5F5F5F5F5F5F5F5F5F5F5F5F5F5F5F5E2F5F5F5E2E2F5F5F5E2F5F5F5F5F5F5F5F5F5F5F5F5F5F5F5F5F5F5F5F5F5F5F5F5F5F5F5F5F5F5F5F5F5F5F5F5F5F5F5F5F5F5F5F5F5F5F5F5F5F5F5F5F5F5F5F5F5F5F5F5F5F5F5F5F5F5F5F5F5F5F5F5F5F5
310
F5F5F5F5F5F5F5F5F5F5F5F5F5F5F5F5F5F5F5F5F5F5F5F5F5F5F5F5F5F5F5F5F5F5F5F5F5F5F5F5F5F5F5F5F5F5F5F5F5F5F5F5F5F5F5F5F5F5F5F5F5F5F5F5F5F5F5F5F5F5F5F5F5F5F5F5F5F5F5F5F5F5F5F5F5F5F5F5F5F5F5F5F5F5F5F5E2F5F5F5E2E2F5F5F5E2F5F5F5F5F5F5F5F5F5F5F5F5F5F5F5F5F5F5F5F5F5
310
F5F5F5F5F5F5F5F5F5F5F5F5F5F5F5F5F5F5F5F5F5F5F5F5F5F5F5F5F5F5F5F5F5F5F5F5F5F5F5F5F5F5F5F5F5F5F5F5F5F5F5F5F5F5F5F5F5F5F5F5F5F5F5F5F5F5F5F5F5F5F5F5F5F5F5F5F5F5F5F5F5F5F5F5F5F5F5F5F5F5F5F5F5F5F5F5F5F5F5F5F5F5F5F5F5F5F5F5F5F5F5F5F5F5F5F5F5F5F5F5F5F5F5F5F5F5F5
310
F5F5F5F5F5F5F5F5F5F5F5F5F5F5F5F5F5F5F5F5F5F5E2F5F5F5E2E2F5F5F5E2F5F5F5F5F5F5F5F5F5F5F5F5F5F5F5F5F5F5F5F5F5F5F5F5F5F5F5F5F5F5F5F5F5F5F5F5F5F5F5F5F5F5F5F5F5F5F5F5F5F5F5F5F5F5F5F5F5F5F5F5F5F5F5F5F5F5F5F5F5F5F5F5F5F5F5F5F5F5F5F5F5F5F5F5F5F5F5F5F5F5F5F5F5F5F5
310
F5F5F5F5F5F5F5F5F5F5F5F5F5F5F5F5F5F5F5F5F5F5F5F5F5F5F5F5F5F5F5F5F5F5F5F5F5F5F5F5F5F5F5F5F5F5F5F5F5F5F5F5F5F5F5F5F5F5F5F5F5F5F5F5F5F5F5F5F5F5F5F5F5F5F5E2F5F5F5E2E2F5F5F5E2F5F5F5F5F5F5F5F5F5F5F5F5F5F5F5F5F5F5F5F5F5F5F5F5F5F5F5F5F5F5F5F5F5F5F5F5F5F5F5F5F5F5
310
F5F5F5F5F5F5F5F5F5F5F5F5F5F5F5F5F5F5F5F5F5F5F5F5F5F5F5F5F5F5F5F5F5F5F5F5F5F5F5F5F5F5F5F5F5F5F5F5F5F5F5F5F5F5F5F5F5F5F5F5F5F5F5F5F5F5F5F5F5F5F5F5F5F5F5F5F5F5F5F5F5F5F5F5F5F5F5F5F5F5F5F5F5F5F5F5F5F5F5F5F5F5F5F5F5F5F5F5F5F5F5F5F5F5F5F5F5F5F5F5F5F5F5F5F5F5F5
310
F5E2F5F5F5E2E2F5F5F5E2F5F5F5F5F5F5F5F5F5F5F5F5F5F5F5F5F5F5F5F5F5F5F5F5F5F5F5F5F5F5F5F5F5F5F5F5F5F5F5F5F5F5F5F5F5F5F5F5F5F5F5F5F5F5F5F5F5F5F5F5F5F5F5F5F5F5F5F5F5F5F5F5F5F5F5F5F5F5F5F5F5F5F5F5F5F5F5F5F5F5F5F5F5F5F5F5F5F5F5F5F5F5F5F5F5F5F5F5F5F5F5F5F5F5F5F5
310
F5F5F5F5F5F5F5F5F5F5F5F5F5F5F5F5F5F5F5F5F5F5F5F5F5F5F5F5F5F5F5F5F5F5F5F5F5F5F5F5F5F5F5F5F5F5F5F5F5F5F5F5F5F5E2F5F5F5E2E2F5F5F5E2F5F5F5F5F5F5F5F5F5F5F5F5F5F5F5F5F5F5F5F5F5F5F5F5F5F5F5F5F5F5F5F5F5F5F5F5F5F5F5F5F5F5F5F5F5F5F5F5F5F5F5F5F5F5F5F5F5F5F5F5F5F5F5
310
F5F5F5F5F5F5F5F5F5F5F5F5F5F5F5F5F5F5F5F5F5F5F5F5F5F5F5F5F5F5F5F5F5F5F5F5F5F5F5F5F5F5F5F5F5F5F5F5F5F5F5F5F5F5F5F5F5F5F5F5F5F5F5F5F5F5F5F5F5F5F5F5F5F5F5F5F5F5F5F5F5F5F5F5F5F5F5F5F5F5F5F5F5F5F5F5F5F5F5F5F5F5F5F5F5F5F5E2F5F5F5E2E2F5F5F5E2E2E2E2E2E2E2E2F5F5F5
310
F5F5F5F5F5F5E2E2E2E2E2E2E2E2E2E2E2E2E2E2E2E2F5F5F5F5F5F5F5F5F5E2E2E2E2E2E2E2E2E2E2E2E2E2E2E2F5F5F5F5F5F5F5F5F5E2E2E2E2E2E2E2E2E2E2E2E2E2E2E2E2F5F5F5F5F5F5F5F5E2E2E2E2E2E2E2E2E2E2E2E2E2E2E2E2F5F5F5F5F5F5F5F5F5E2E2E2E2E2E2E2E2E2E2E2E2E2E2E2F5F5F5F5F5F5F5F5
310
F5E2E2E2E2E2E2E2E2E2E2E2E2E2E2E2E2F5F5F5F5F5F5F5F5F5E2E2E2E2E2E2E2E2F5F5F5E2E2F5F5F5F5F5F5F5F5F5F5F5F5F5F5F5F5F5F5F5F5F5F5F5F5F5F5F5F5F5F5F5F5F5F5F5F5F5F5F5F5F5F5F5F5F5F5F5F5F5F5F5F5F5F5F5F5F5F5F5F5F5F5F5F5F5F5F5F5F5F5F5F5F5F5F5F5F5F5F5F5F5F5F5F5F5F5F5F5
310
F5F5F5F5F5F5F5F5F5F5F5F5F5F5F5F5F5F5F5F5F5F5F5F5F5F5F5F5F5F5F5F5F5F5F5F5F5F5F5F5F5F5F5F5F5F5F5F5F5F5F5F5F5F5F5F5F5F5F5F5F5F5F5F5F5F5F5F5F5F5F5F5F5F5F5F5F5F5F5F5F5F5F5F5F5F5F5F5F5F5E2E2F5F5F5F5F5F5F5F5F5F5F5F5F5F5F5F5F5F5F5F5F5F5F5F5F5F5F5F5F5F5F5F5F5F5F5
310
F5F5F5F5F5F5F5F5F5F5F5F5F5F5F5F5F5F5F5F5F5F5F5F5F5F5F5F5F5F5F5F5F5F5F5F5F5F5F5F5F5F5F5F5F5F5F5F5F5F5F5F5F5F5F5F5F5F5F5F5F5F5F5F5F5F5F5F5F5F5F5F5F5F5F5F5F5F5F5F5F5F5F5F5F5F5F5F5F5F5F5F5F5F5F5F5F5F5F5F5F5F5F5F5F5F5F5F5F5F5F5F5F5F5F5F5F5F5F5F5F5F5F5F5F5F5F5
310
F5F5F5F5F5F5F5F5F5F5F5F5F5F5F5F5E2E2F5F5F5F5F5F5F5F5F5F5F5F5F5F5F5F5F5F5F5F5F5F5F5F5F5F5F5F5F5F5F5F5F5F5F5F5F5F5F5F5F5F5F5F5F5F5F5F5F5F5F5F5F5F5F5F5F5F5F5F5F5F5F5F5F5F5F5F5F5F5F5F5F5F5F5F5F5F5F5F5F5F5F5F5F5F5F5F5F5F5F5F5F5F5F5F5F5F5F5F5F5F5F5F5F5F5F5F5F5
310
F5F5F5F5F5F5F5F5F5F5F5F5F5F5F5F5F5F5F5F5F5F5F5F5F5F5F5F5F5F5F5F5F5F5F5F5F5F5F5F5F5F5F5F5F5F5F5F5F5F5F5F5F5F5F5F5F5F5F5F5F5F5F5F5F5F5F5F5F5E2E2F5F5F5F5F5F5F5F5F5F5F5F5F5F5F5F5F5F5F5F5F5F5F5F5F5F5F5F5F5F5F5F5F5F5F5F5F5F5F5F5F5F5F5F5F5F5F5F5F5F5F5F5F5F5F5F5
310
F5F5F5F5F5F5F5F5F5F5F5F5F5F5F5F5F5F5F5F5F5F5F5F5F5F5F5F5F5F5F5F5F5F5F5F5F5F5F5F5F5F5F5F5F5F5F5F5F5F5F5F5F5F5F5F5F5F5F5F5F5F5F5F5F5F5F5F5F5F5F5F5F5F5F5F5F5F5F5F5F5F5F5F5F5F5F5F5F5F5F5F5F5F5F5F5F5F5F5F5F5F5F5F5F5F5F5F5F5F5F5F5F5F5F5F5F5F5F5F5F5F5E2E2E2E2E2
310
E2E2E2E2E2E2E2E2E2E2E2E2E2E2E2E2E2E2E2E2E2E2E2E2E2E2E2E2E2E2E2E2E2E2E2E2E2E2E2E2E2E2E2E2E2E2E2E2E2E2E2E2E2E2E2E2E2E2E2E2E2E2E2E2E2E2E2E2E2E2E2E2E2E2E2E2E2E2E2E2E2E2E2E2E2E2E2E2E2E2E2E2E2E2E2E2E2E2E2E2E2E2E2E2E2E2E2E2E2E2E2E2E2E2E2E2E2E2E2E2E2E2E2E2E2E2E2
310
E2E2E2E2E2E2E2E2E2E2E2E2E2E2E2E2E2E2E2E2E2E2E2E2E2E2E2E2E2E2E2E2E2E2E2E2E2E2E2E2E2E2E2E2E2E2E2E2E2
  0
XRECORD
  5
11E7
102
{ACAD_REACTORS
330
11E6
102
}
330
11E6
100
AcDbXrecord
280
     1
102
SHADEPLOT
 70
     0
102
SHADEPLOTRESLEVEL
 70
     2
102
SHADEPLOTCUSTOMDPI
 70
   300
  0
XRECORD
  5
100A
102
{ACAD_REACTORS
330
1009
102
}
330
1009
100
AcDbXrecord
280
     1
102
MATERIAL
148
0.0
149
0.0
149
0.0
 93
        0
 94
       63
282
     0
 72
     1
 77
     1
171
     1
175
     1
179
     1
273
     0
  0
XRECORD
  5
1008
102
{ACAD_REACTORS
330
1007
102
}
330
1007
100
AcDbXrecord
280
     1
102
MATERIAL
148
0.0
149
0.0
149
0.0
 93
        0
 94
       63
282
     0
 72
     1
 77
     1
171
     1
175
     1
179
     1
273
     0
  0
XRECORD
  5
100C
102
{ACAD_REACTORS
330
100B
102
}
330
100B
100
AcDbXrecord
280
     1
102
MATERIAL
148
0.0
149
0.0
149
0.0
 93
        0
 94
       63
282
     0
 72
     1
 77
     1
171
     1
175
     1
179
     1
273
     0
  0
XRECORD
  5
11EA
102
{ACAD_REACTORS
330
11E9
102
}
330
11E9
100
AcDbXrecord
280
     1
102
ACAD_ROUNDTRIP_PRE2007_TABLESTYLE
 90
      512
 91
        0
  1

 92
      512
 93
        0
  2

 94
      512
 95
        0
  3

  0
ENDSEC
  0
EOF
