  0
SECTION
  2
HEADER
  9
$ACADVER
  1
AC1015
  9
$ACADMAINTVER
 70
    20
  9
$DWGCODEPAGE
  3
ANSI_1252
  9
$INSBASE
 10
0.0
 20
0.0
 30
0.0
  9
$EXTMIN
 10
27.07702281638791
 20
22.18719218442817
 30
-0.000000000000013
  9
$EXTMAX
 10
61.47200755252734
 20
39.71009331521443
 30
0.0000000000000023
  9
$LIMMIN
 10
0.0
 20
0.0
  9
$LIMMAX
 10
17.0
 20
11.0
  9
$ORTHOMODE
 70
     0
  9
$REGENMODE
 70
     1
  9
$FILLMODE
 70
     1
  9
$QTEXTMODE
 70
     0
  9
$MIRRTEXT
 70
     1
  9
$LTSCALE
 40
1.0
  9
$ATTMODE
 70
     1
  9
$TEXTSIZE
 40
0.12
  9
$TRACEWID
 40
0.05
  9
$TEXTSTYLE
  7
ADESK1
  9
$CLAYER
  8
Dimensions
  9
$CELTYPE
  6
BYLAYER
  9
$CECOLOR
 62
   256
  9
$CELTSCALE
 40
1.0
  9
$DISPSILH
 70
     0
  9
$DIMSCALE
 40
1.0
  9
$DIMASZ
 40
0.1
  9
$DIMEXO
 40
0.05
  9
$DIMDLI
 40
0.5
  9
$DIMRND
 40
0.0
  9
$DIMDLE
 40
0.0
  9
$DIMEXE
 40
0.1
  9
$DIMTP
 40
0.1
  9
$DIMTM
 40
0.1
  9
$DIMTXT
 40
0.12
  9
$DIMCEN
 40
0.0
  9
$DIMTSZ
 40
0.0
  9
$DIMTOL
 70
     0
  9
$DIMLIM
 70
     0
  9
$DIMTIH
 70
     1
  9
$DIMTOH
 70
     1
  9
$DIMSE1
 70
     0
  9
$DIMSE2
 70
     0
  9
$DIMTAD
 70
     0
  9
$DIMZIN
 70
     7
  9
$DIMBLK
  1

  9
$DIMASO
 70
     1
  9
$DIMSHO
 70
     1
  9
$DIMPOST
  1

  9
$DIMAPOST
  1
mm
  9
$DIMALT
 70
     0
  9
$DIMALTD
 70
     2
  9
$DIMALTF
 40
25.4
  9
$DIMLFAC
 40
1.0
  9
$DIMTOFL
 70
     0
  9
$DIMTVP
 40
0.0
  9
$DIMTIX
 70
     0
  9
$DIMSOXD
 70
     0
  9
$DIMSAH
 70
     0
  9
$DIMBLK1
  1

  9
$DIMBLK2
  1

  9
$DIMSTYLE
  2
AM_ANSI
  9
$DIMCLRD
 70
   256
  9
$DIMCLRE
 70
   256
  9
$DIMCLRT
 70
   256
  9
$DIMTFAC
 40
0.71
  9
$DIMGAP
 40
0.06
  9
$DIMJUST
 70
     0
  9
$DIMSD1
 70
     0
  9
$DIMSD2
 70
     0
  9
$DIMTOLJ
 70
     1
  9
$DIMTZIN
 70
     7
  9
$DIMALTZ
 70
     0
  9
$DIMALTTZ
 70
     0
  9
$DIMUPT
 70
     0
  9
$DIMDEC
 70
     2
  9
$DIMTDEC
 70
     2
  9
$DIMALTU
 70
     2
  9
$DIMALTTD
 70
     2
  9
$DIMTXSTY
  7
STANDARD
  9
$DIMAUNIT
 70
     0
  9
$DIMADEC
 70
     0
  9
$DIMALTRND
 40
0.0
  9
$DIMAZIN
 70
     2
  9
$DIMDSEP
 70
    46
  9
$DIMATFIT
 70
     3
  9
$DIMFRAC
 70
     0
  9
$DIMLDRBLK
  1

  9
$DIMLUNIT
 70
     2
  9
$DIMLWD
 70
    -1
  9
$DIMLWE
 70
    -1
  9
$DIMTMOVE
 70
     0
  9
$LUNITS
 70
     2
  9
$LUPREC
 70
     4
  9
$SKETCHINC
 40
0.1
  9
$FILLETRAD
 40
0.01
  9
$AUNITS
 70
     0
  9
$AUPREC
 70
     0
  9
$MENU
  1
.
  9
$ELEVATION
 40
0.0
  9
$PELEVATION
 40
0.0
  9
$THICKNESS
 40
0.0
  9
$LIMCHECK
 70
     0
  9
$CHAMFERA
 40
0.125
  9
$CHAMFERB
 40
0.125
  9
$CHAMFERC
 40
1.0
  9
$CHAMFERD
 40
0.0
  9
$SKPOLY
 70
     1
  9
$TDCREATE
 40
2454683.317750057
  9
$TDUCREATE
 40
2454683.651083391
  9
$TDUPDATE
 40
2454784.449666088
  9
$TDUUPDATE
 40
2454784.782999422
  9
$TDINDWG
 40
0.4534376620
  9
$TDUSRTIMER
 40
0.4534371296
  9
$USRTIMER
 70
     1
  9
$ANGBASE
 50
0.0
  9
$ANGDIR
 70
     0
  9
$PDMODE
 70
     0
  9
$PDSIZE
 40
0.0
  9
$PLINEWID
 40
0.0
  9
$SPLFRAME
 70
     0
  9
$SPLINETYPE
 70
     6
  9
$SPLINESEGS
 70
     8
  9
$HANDSEED
  5
16A3
  9
$SURFTAB1
 70
     6
  9
$SURFTAB2
 70
     6
  9
$SURFTYPE
 70
     6
  9
$SURFU
 70
     6
  9
$SURFV
 70
     6
  9
$UCSBASE
  2

  9
$UCSNAME
  2

  9
$UCSORG
 10
0.0
 20
0.0
 30
0.0
  9
$UCSXDIR
 10
1.0
 20
0.0
 30
0.0
  9
$UCSYDIR
 10
0.0
 20
1.0
 30
0.0
  9
$UCSORTHOREF
  2

  9
$UCSORTHOVIEW
 70
     0
  9
$UCSORGTOP
 10
0.0
 20
0.0
 30
0.0
  9
$UCSORGBOTTOM
 10
0.0
 20
0.0
 30
0.0
  9
$UCSORGLEFT
 10
0.0
 20
0.0
 30
0.0
  9
$UCSORGRIGHT
 10
0.0
 20
0.0
 30
0.0
  9
$UCSORGFRONT
 10
0.0
 20
0.0
 30
0.0
  9
$UCSORGBACK
 10
0.0
 20
0.0
 30
0.0
  9
$PUCSBASE
  2

  9
$PUCSNAME
  2

  9
$PUCSORG
 10
0.0
 20
0.0
 30
0.0
  9
$PUCSXDIR
 10
1.0
 20
0.0
 30
0.0
  9
$PUCSYDIR
 10
0.0
 20
1.0
 30
0.0
  9
$PUCSORTHOREF
  2

  9
$PUCSORTHOVIEW
 70
     0
  9
$PUCSORGTOP
 10
0.0
 20
0.0
 30
0.0
  9
$PUCSORGBOTTOM
 10
0.0
 20
0.0
 30
0.0
  9
$PUCSORGLEFT
 10
0.0
 20
0.0
 30
0.0
  9
$PUCSORGRIGHT
 10
0.0
 20
0.0
 30
0.0
  9
$PUCSORGFRONT
 10
0.0
 20
0.0
 30
0.0
  9
$PUCSORGBACK
 10
0.0
 20
0.0
 30
0.0
  9
$USERI1
 70
     0
  9
$USERI2
 70
     0
  9
$USERI3
 70
     0
  9
$USERI4
 70
     0
  9
$USERI5
 70
     0
  9
$USERR1
 40
0.0
  9
$USERR2
 40
0.0
  9
$USERR3
 40
0.0
  9
$USERR4
 40
0.0
  9
$USERR5
 40
0.0
  9
$WORLDVIEW
 70
     1
  9
$SHADEDGE
 70
     3
  9
$SHADEDIF
 70
    70
  9
$TILEMODE
 70
     1
  9
$MAXACTVP
 70
    48
  9
$PINSBASE
 10
0.0
 20
0.0
 30
0.0
  9
$PLIMCHECK
 70
     0
  9
$PEXTMIN
 10
1.000000000000000E+20
 20
1.000000000000000E+20
 30
1.000000000000000E+20
  9
$PEXTMAX
 10
-1.000000000000000E+20
 20
-1.000000000000000E+20
 30
-1.000000000000000E+20
  9
$PLIMMIN
 10
-0.2500002402958907
 20
-0.2499999962453767
  9
$PLIMMAX
 10
10.74999951940821
 20
8.249999763458731
  9
$UNITMODE
 70
     0
  9
$VISRETAIN
 70
     1
  9
$PLINEGEN
 70
     0
  9
$PSLTSCALE
 70
     1
  9
$TREEDEPTH
 70
  3020
  9
$CMLSTYLE
  2
STANDARD
  9
$CMLJUST
 70
     0
  9
$CMLSCALE
 40
1.0
  9
$PROXYGRAPHICS
 70
     1
  9
$MEASUREMENT
 70
     0
  9
$CELWEIGHT
370
    -1
  9
$ENDCAPS
280
     0
  9
$JOINSTYLE
280
     0
  9
$LWDISPLAY
290
     0
  9
$INSUNITS
 70
     1
  9
$HYPERLINKBASE
  1

  9
$STYLESHEET
  1

  9
$XEDIT
290
     1
  9
$CEPSNTYPE
380
     0
  9
$PSTYLEMODE
290
     1
  9
$FINGERPRINTGUID
  2
{786CC3B3-D4E8-4B5B-B46D-3C6DF81FB24F}
  9
$VERSIONGUID
  2
{EFEE6102-DB96-45BF-BDB2-9205E3F43844}
  9
$EXTNAMES
290
     1
  9
$PSVPSCALE
 40
0.0
  9
$OLESTARTUP
290
     0
  0
ENDSEC
  0
SECTION
  2
CLASSES
  0
CLASS
  1
ACMESTATEMGR
  2
AcMeStateMgr
  3
AcMeServices
 90
        0
280
     0
281
     0
  0
CLASS
  1
ACMESCOPE
  2
AcMeScope
  3
AcMeServices
 90
        0
280
     0
281
     0
  0
CLASS
  1
ACMECOMMANDHISTORY
  2
AcMeCommandHistory
  3
AcMeServices
 90
        0
280
     0
281
     0
  0
CLASS
  1
ACRFINSADJUSTERMGR
  2
AcRfInsAdjusterMgr
  3
AcMeServices
 90
        0
280
     0
281
     0
  0
CLASS
  1
ACMEDRAWINGMAN
  2
AcMeDrawingMan
  3
AcMeServices
 90
        0
280
     0
281
     0
  0
CLASS
  1
AMATTR
  2
AcMeAttribute
  3
AcMeServices
 90
    32768
280
     0
281
     0
  0
CLASS
  1
ACMEBOMCOLUMN
  2
AcMeBOMColumn
  3
AcMeServices
 90
    32768
280
     0
281
     0
  0
CLASS
  1
ACMEBOMCONF
  2
AcMeBOMConf
  3
AcMeServices
 90
    32768
280
     0
281
     0
  0
CLASS
  1
ACMEBOMTABLE
  2
AcMeBOMTable
  3
AcMeServices
 90
    32768
280
     0
281
     0
  0
CLASS
  1
ACMEBOMENTRY
  2
AcMeBOMEntry
  3
AcMeServices
 90
    32768
280
     0
281
     0
  0
CLASS
  1
ACMEVIEW
  2
AcMeView
  3
AcMeServices
 90
        0
280
     0
281
     0
  0
CLASS
  1
ACGREFMASTER
  2
AcGrefMaster
  3
AcAttribServices
 90
        0
280
     0
281
     0
  0
CLASS
  1
AMIMASTER
  2
AmiMaster
  3
AmiServices
 90
        0
280
     0
281
     0
  0
CLASS
  1
ACASGREFMASTER
  2
AcAsGrefMaster
  3
AutoSurfResolverServices
 90
        0
280
     0
281
     0
  0
CLASS
  1
ADAPPL
  2
AcAdAppl
  3
DesignerServices
 90
        0
280
     0
281
     0
  0
CLASS
  1
DEPMGR
  2
AcAdDepMgr
  3
DesignerServices
 90
        0
280
     0
281
     0
  0
CLASS
  1
PARAMMGR
  2
AcAdParamMgr
  3
DesignerServices
 90
        0
280
     0
281
     0
  0
CLASS
  1
PARAMSCOPE
  2
AcAdParamScope
  3
DesignerServices
 90
        0
280
     0
281
     0
  0
CLASS
  1
ACIMSYSVARMAN
  2
AcImSysVarManager
  3
AcMeServices
 90
        0
280
     0
281
     0
  0
CLASS
  1
ACIMINTSYSVAR
  2
AcImIntSysVar
  3
AcMeServices
 90
        0
280
     0
281
     0
  0
CLASS
  1
ACIMREALSYSVAR
  2
AcImRealSysVar
  3
AcMeServices
 90
        0
280
     0
281
     0
  0
CLASS
  1
ACIMSTRSYSVAR
  2
AcImStrSysVar
  3
AcMeServices
 90
        0
280
     0
281
     0
  0
CLASS
  1
NAMEDAPPL
  2
AcAdNamedAppl
  3
DesignerServices
 90
        0
280
     0
281
     0
  0
CLASS
  1
ADHNTMPLT
  2
AdHoleNoteTemplateMgr
  3
DesignerServices
 90
    32768
280
     0
281
     0
  0
CLASS
  1
AM_HNTEMPLATE_MGR_NAME
  2
AdHoleNoteTemplateMgrName
  3
DesignerServices
 90
    32768
280
     0
281
     0
  0
CLASS
  1
ACADGREFMODULE
  2
AcAdGrefModule
  3
AdGrefServices
 90
        0
280
     0
281
     0
  0
CLASS
  1
AM_DRAWING_MGR
  2
AcDmDwgMgr
  3
AcMechDwgViewMgmt
 90
        0
280
     0
281
     0
  0
CLASS
  1
AM_DWG_DOCUMENT
  2
AcDmDwgDocument
  3
AcMechDwgViewMgmt
 90
        0
280
     0
281
     0
  0
CLASS
  1
AM_DWG_SHEET
  2
AcDmSheet
  3
AcMechDwgViewMgmt
 90
        0
280
     0
281
     0
  0
CLASS
  1
AM_VIEWDIMPARMAP
  2
AcDmViewDimParMap
  3
AcMechDwgViewMgmt
 90
        0
280
     0
281
     0
  0
CLASS
  1
AM_DWGMGR_NAME
  2
AcDmDwgMgrName
  3
AcMechDwgViewMgmt
 90
        0
280
     0
281
     0
  0
CLASS
  1
ACAMPROJECT
  2
AcAmProject
  3
DesignerAssemblies
 90
        0
280
     0
281
     0
  0
CLASS
  1
ACAMGRCOMPSET
  2
AcAmGrCompSet
  3
DesignerAssemblies
 90
    32768
280
     0
281
     0
  0
CLASS
  1
ACAMGRCOMPDEFSET
  2
AcAmGrCompDefSet
  3
DesignerAssemblies
 90
        0
280
     0
281
     0
  0
CLASS
  1
ACAMGRCOMPDEF
  2
AcAmGrCompDef
  3
DesignerAssemblies
 90
        0
280
     0
281
     0
  0
CLASS
  1
ACCMCONTEXT
  2
AcCmContext
  3
DesignerAssemblies
 90
        0
280
     0
281
     0
  0
CLASS
  1
ACAMCOMPDEF
  2
AcAmCompDef
  3
DesignerAssemblies
 90
        0
280
     0
281
     0
  0
CLASS
  1
ACAMCOMPDEFMGR
  2
AcAmCompDefMgr
  3
DesignerAssemblies
 90
        0
280
     0
281
     0
  0
CLASS
  1
AMCONTEXTMGR
  2
AcAmContextMgr
  3
DesignerAssemblies
 90
        0
280
     0
281
     0
  0
CLASS
  1
ACAMCONTEXTMODELER
  2
AcAmContextModeler
  3
DesignerAssemblies
 90
        0
280
     0
281
     0
  0
CLASS
  1
ACDMVIEWGEOM
  2
AcDmViewGeometry
  3
AcMechDwgViewMgmt
 90
    32768
280
     0
281
     1
  0
CLASS
  1
CBROWSERAPPOBJECT
  2
CBrowserAppObject
  3
McadcomServices
 90
        0
280
     0
281
     0
  0
CLASS
  1
IM_STATIC_MAN
  2
AcImStaticVarManager
  3
AcMeServices
 90
        0
280
     0
281
     0
  0
CLASS
  1
ASAPP
  2
AcAsAppObject
  3
AutoSurfServices
 90
        0
280
     0
281
     0
  0
CLASS
  1
ACIMDBLSTATICVAR
  2
AcImDblStaticVar
  3
AcMeServices
 90
        0
280
     0
281
     0
  0
CLASS
  1
ACIMSTRSTATICVAR
  2
AcImStrStaticVar
  3
AcMeServices
 90
        0
280
     0
281
     0
  0
CLASS
  1
ACIMINTSTATICVAR
  2
AcImIntStaticVar
  3
AcMeServices
 90
        0
280
     0
281
     0
  0
CLASS
  1
CATALOGSTATE
  2
AcAmCatalogState
  3
DesignerAssemblies
 90
        0
280
     0
281
     0
  0
CLASS
  1
DM_PLACEHOLDER
  2
AcDmSelsetPlaceholder
  3
AcMechDwgViewMgmt
 90
        0
280
     0
281
     0
  0
CLASS
  1
DICTIONARYVAR
  2
AcDbDictionaryVar
  3
ObjectDBX Classes
 90
        0
280
     0
281
     0
  0
CLASS
  1
ACMSTANDARDJIS
  2
AcmStandardJIS
  3
"Amdt_StdImp|Product Description: AutoCAD Mechanical|Company: Autodesk"
 90
    32768
280
     0
281
     0
  0
CLASS
  1
ACMSTANDARDANSI
  2
AcmStandardANSI
  3
"Amdt_StdImp|Product Description: AutoCAD Mechanical|Company: Autodesk"
 90
        0
280
     0
281
     0
  0
CLASS
  1
ACMSTANDARDBSI
  2
AcmStandardBSI
  3
"Amdt_StdImp|Product Description: AutoCAD Mechanical|Company: Autodesk"
 90
    32768
280
     0
281
     0
  0
CLASS
  1
ACMSTANDARDDIN
  2
AcmStandardDIN
  3
"Amdt_StdImp|Product Description: AutoCAD Mechanical|Company: Autodesk"
 90
    32768
280
     0
281
     0
  0
CLASS
  1
ACMSTANDARDISO
  2
AcmStandardISO
  3
"Amdt_StdImp|Product Description: AutoCAD Mechanical|Company: Autodesk"
 90
    32768
280
     0
281
     0
  0
CLASS
  1
LAYER_INDEX
  2
AcDbLayerIndex
  3
ObjectDBX Classes
 90
        0
280
     0
281
     0
  0
CLASS
  1
IDBUFFER
  2
AcDbIdBuffer
  3
ObjectDBX Classes
 90
        0
280
     0
281
     0
  0
CLASS
  1
ACDBDICTIONARYWDFLT
  2
AcDbDictionaryWithDefault
  3
ObjectDBX Classes
 90
        0
280
     0
281
     0
  0
CLASS
  1
ACME_DOCUMENT
  2
AcMeDbDoc
  3
AcMeServices
 90
        0
280
     0
281
     0
  0
CLASS
  1
AMGSETTINGSOBJ
  2
AmgSettingsObj
  3
"AcadM|Product Description: AutoCAD Mechanical|Company: Autodesk"
 90
        0
280
     0
281
     0
  0
CLASS
  1
AMGOBJPROPCFG
  2
AmgObjPropCfg
  3
"AmgLay|Product Description: AutoCAD Mechanical|Company: Autodesk"
 90
        1
280
     0
281
     0
  0
CLASS
  1
ACDBENTITYCACHE
  2
AcMeEntityCache
  3
AcMeServices
 90
        0
280
     0
281
     0
  0
CLASS
  1
GSMANAGER
  2
AcMeGSManager
  3
AcMeServices
 90
        0
280
     0
281
     0
  0
CLASS
  1
AMDTINTERNALREACTOR
  2
AmdtInternalReactor
  3
AcMeServices
 90
        0
280
     0
281
     0
  0
CLASS
  1
ACME_DATABASE
  2
AcMeDbDatabase
  3
AcMeServices
 90
        0
280
     0
281
     0
  0
CLASS
  1
ACGREFACADMASTER
  2
AcGrefacadMaster
  3
AcGrefServices
 90
        0
280
     0
281
     0
  0
CLASS
  1
AMDTMENUSTATEMGR
  2
AmdtMenuStateMgr
  3
McadcomServices
 90
        0
280
     0
281
     0
  0
CLASS
  1
AMDTMCOMMENUSTATE
  2
AmdtMcomMenuState
  3
McadcomServices
 90
        0
280
     0
281
     0
  0
CLASS
  1
MAPIADMODULE
  2
MApiAdModule
  3
MApiAdServices
 90
        0
280
     0
281
     0
  0
CLASS
  1
AMDTDMMENUSTATE
  2
AmdtDmMenuState
  3
AcMechDwgViewMgmt
 90
        0
280
     0
281
     0
  0
CLASS
  1
AMDTADMENUSTATE
  2
AmdtAdMenuState
  3
DesignerServices
 90
        0
280
     0
281
     0
  0
CLASS
  1
AMDTAMMENUSTATE
  2
AmdtAmMenuState
  3
DesignerAssemblies
 90
        0
280
     0
281
     0
  0
CLASS
  1
ACMDATADICTIONARY
  2
AcmDataDictionary
  3
"AcmSymBB|Product Description: AutoCAD Mechanical|Company: Autodesk"
 90
        0
280
     0
281
     0
  0
CLASS
  1
ACMDATAENTRYBLOCK
  2
AcmDataEntryBlock
  3
"AcmSymBB|Product Description: AutoCAD Mechanical|Company: Autodesk"
 90
        0
280
     0
281
     0
  0
CLASS
  1
AMDTBROWSERDBTAB
  2
AmdtBrowserDbTab
  3
McadcomServices
 90
        0
280
     0
281
     0
  0
CLASS
  1
ACAMGFILTERDAT
  2
AcAmgFilterDat
  3
"AcadM|Product Description: AutoCAD Mechanical|Company: Autodesk"
 90
        0
280
     0
281
     0
  0
CLASS
  1
MAPIAMMOUDLE
  2
MApiAmModule
  3
MApiAmServices
 90
        0
280
     0
281
     0
  0
CLASS
  1
AMDTMAPISURFMOUDULE
  2
AmdtMApiSurfModule
  3
MApiSurfServices
 90
        0
280
     0
281
     0
  0
CLASS
  1
ACMSURFSTANDARDANSI
  2
AcmSurfTextStdANSI
  3
"Amdt_StdImp|Product Description: AutoCAD Mechanical|Company: Autodesk"
 90
        0
280
     0
281
     0
  0
CLASS
  1
ACMFCFSTANDARDANSI
  2
AcmFCFStdANSI
  3
"Amdt_StdImp|Product Description: AutoCAD Mechanical|Company: Autodesk"
 90
        0
280
     0
281
     0
  0
CLASS
  1
ACMWELDSTANDARDANSI
  2
AcmWeldingStdANSI
  3
"Amdt_StdImp|Product Description: AutoCAD Mechanical|Company: Autodesk"
 90
        0
280
     0
281
     0
  0
CLASS
  1
ACMIDSTANDARDANSI
  2
AcmIdStdANSI
  3
"Amdt_StdImp|Product Description: AutoCAD Mechanical|Company: Autodesk"
 90
        0
280
     0
281
     0
  0
CLASS
  1
ACMDATUMSTANDARDANSI
  2
AcmDatumStdANSI
  3
"Amdt_StdImp|Product Description: AutoCAD Mechanical|Company: Autodesk"
 90
        0
280
     0
281
     0
  0
CLASS
  1
ACMBOMSTANDARDANSI
  2
AcmBOMStdANSI
  3
"Amdt_StdImp|Product Description: AutoCAD Mechanical|Company: Autodesk"
 90
        0
280
     0
281
     0
  0
CLASS
  1
ACAMGLAYSTD
  2
AcAmgLayStd
  3
"AmgLay|Product Description: AutoCAD Mechanical|Company: Autodesk"
 90
        0
280
     0
281
     0
  0
CLASS
  1
ACAMGDIMSTD
  2
AcAmgDimStd
  3
"AmgDim|Product Description: AutoCAD Mechanical|Company: Autodesk"
 90
        0
280
     0
281
     0
  0
CLASS
  1
ACAMGTITLESTD
  2
AcAmgTitleStd
  3
"AmgTitle|Product Description: AutoCAD Mechanical|Company: Autodesk"
 90
        0
280
     0
281
     0
  0
CLASS
  1
ACMDETAILSTANDARDANSI
  2
AmdtDetailSymStdANSI
  3
"Amdt_StdImp|Product Description: AutoCAD Mechanical|Company: Autodesk"
 90
        0
280
     0
281
     0
  0
CLASS
  1
ACMSECTIONSTANDARDANSI
  2
AmdtSectionSymStdANSI
  3
"Amdt_StdImp|Product Description: AutoCAD Mechanical|Company: Autodesk"
 90
        0
280
     0
281
     0
  0
CLASS
  1
ACMCENTERLINESTANDARDANSI
  2
AmdtCenterLineStdANSI
  3
"Amdt_StdImp|Product Description: AutoCAD Mechanical|Company: Autodesk"
 90
        0
280
     0
281
     0
  0
CLASS
  1
ACMTHREADLINESTANDARDANSI
  2
AmdtThreadLineStdANSI
  3
"Amdt_StdImp|Product Description: AutoCAD Mechanical|Company: Autodesk"
 90
        0
280
     0
281
     0
  0
CLASS
  1
ACMSURFSTANDARDBSI
  2
AcmSurfTextStdBSI
  3
"Amdt_StdImp|Product Description: AutoCAD Mechanical|Company: Autodesk"
 90
    32768
280
     0
281
     0
  0
CLASS
  1
ACMFCFSTANDARDBSI
  2
AcmFCFStdBSI
  3
"Amdt_StdImp|Product Description: AutoCAD Mechanical|Company: Autodesk"
 90
    32768
280
     0
281
     0
  0
CLASS
  1
ACMWELDSTANDARDBSI
  2
AcmWeldingStdBSI
  3
"Amdt_StdImp|Product Description: AutoCAD Mechanical|Company: Autodesk"
 90
    32768
280
     0
281
     0
  0
CLASS
  1
ACMIDSTANDARDBSI
  2
AcmIdStdBSI
  3
"Amdt_StdImp|Product Description: AutoCAD Mechanical|Company: Autodesk"
 90
    32768
280
     0
281
     0
  0
CLASS
  1
ACMDATUMSTANDARDBSI
  2
AcmDatumStdBSI
  3
"Amdt_StdImp|Product Description: AutoCAD Mechanical|Company: Autodesk"
 90
    32768
280
     0
281
     0
  0
CLASS
  1
ACMBOMSTANDARDBSI
  2
AcmBOMStdBSI
  3
"Amdt_StdImp|Product Description: AutoCAD Mechanical|Company: Autodesk"
 90
    32768
280
     0
281
     0
  0
CLASS
  1
ACMDETAILSTANDARDBSI
  2
AmdtDetailSymStdBSI
  3
"Amdt_StdImp|Product Description: AutoCAD Mechanical|Company: Autodesk"
 90
    32768
280
     0
281
     0
  0
CLASS
  1
ACMSECTIONSTANDARDBSI
  2
AmdtSectionSymStdBSI
  3
"Amdt_StdImp|Product Description: AutoCAD Mechanical|Company: Autodesk"
 90
    32768
280
     0
281
     0
  0
CLASS
  1
ACMCENTERLINESTANDARDBSI
  2
AmdtCenterLineStdBSI
  3
"Amdt_StdImp|Product Description: AutoCAD Mechanical|Company: Autodesk"
 90
    32768
280
     0
281
     0
  0
CLASS
  1
ACMTHREADLINESTANDARDBSI
  2
AmdtThreadLineStdBSI
  3
"Amdt_StdImp|Product Description: AutoCAD Mechanical|Company: Autodesk"
 90
    32768
280
     0
281
     0
  0
CLASS
  1
AMDTEDGESTANDARDDIN
  2
AmdtEdgeStdDIN
  3
"Amdt_StdImp|Product Description: AutoCAD Mechanical|Company: Autodesk"
 90
    32768
280
     0
281
     0
  0
CLASS
  1
ACMSURFSTANDARDDIN
  2
AcmSurfTextStdDIN
  3
"Amdt_StdImp|Product Description: AutoCAD Mechanical|Company: Autodesk"
 90
    32768
280
     0
281
     0
  0
CLASS
  1
ACMFCFSTANDARDDIN
  2
AcmFCFStdDIN
  3
"Amdt_StdImp|Product Description: AutoCAD Mechanical|Company: Autodesk"
 90
    32768
280
     0
281
     0
  0
CLASS
  1
ACMWELDSTANDARDDIN
  2
AcmWeldingStdDIN
  3
"Amdt_StdImp|Product Description: AutoCAD Mechanical|Company: Autodesk"
 90
    32768
280
     0
281
     0
  0
CLASS
  1
ACMIDSTANDARDDIN
  2
AcmIdStdDIN
  3
"Amdt_StdImp|Product Description: AutoCAD Mechanical|Company: Autodesk"
 90
    32768
280
     0
281
     0
  0
CLASS
  1
ACMDATUMSTANDARDDIN
  2
AcmDatumStdDIN
  3
"Amdt_StdImp|Product Description: AutoCAD Mechanical|Company: Autodesk"
 90
    32768
280
     0
281
     0
  0
CLASS
  1
ACMBOMSTANDARDDIN
  2
AcmBOMStdDIN
  3
"Amdt_StdImp|Product Description: AutoCAD Mechanical|Company: Autodesk"
 90
    32768
280
     0
281
     0
  0
CLASS
  1
ACMDETAILSTANDARDDIN
  2
AmdtDetailSymStdDIN
  3
"Amdt_StdImp|Product Description: AutoCAD Mechanical|Company: Autodesk"
 90
    32768
280
     0
281
     0
  0
CLASS
  1
ACMSECTIONSTANDARDDIN
  2
AmdtSectionSymStdDIN
  3
"Amdt_StdImp|Product Description: AutoCAD Mechanical|Company: Autodesk"
 90
    32768
280
     0
281
     0
  0
CLASS
  1
ACMCENTERLINESTANDARDDIN
  2
AmdtCenterLineStdDIN
  3
"Amdt_StdImp|Product Description: AutoCAD Mechanical|Company: Autodesk"
 90
    32768
280
     0
281
     0
  0
CLASS
  1
ACMTHREADLINESTANDARDDIN
  2
AmdtThreadLineStdDIN
  3
"Amdt_StdImp|Product Description: AutoCAD Mechanical|Company: Autodesk"
 90
    32768
280
     0
281
     0
  0
CLASS
  1
ACMSURFSTANDARDISO
  2
AcmSurfTextStdISO
  3
"Amdt_StdImp|Product Description: AutoCAD Mechanical|Company: Autodesk"
 90
    32768
280
     0
281
     0
  0
CLASS
  1
ACMFCFSTANDARDISO
  2
AcmFCFStdISO
  3
"Amdt_StdImp|Product Description: AutoCAD Mechanical|Company: Autodesk"
 90
    32768
280
     0
281
     0
  0
CLASS
  1
ACMWELDSTANDARDISO
  2
AcmWeldingStdISO
  3
"Amdt_StdImp|Product Description: AutoCAD Mechanical|Company: Autodesk"
 90
    32768
280
     0
281
     0
  0
CLASS
  1
ACMIDSTANDARDISO
  2
AcmIdStdISO
  3
"Amdt_StdImp|Product Description: AutoCAD Mechanical|Company: Autodesk"
 90
    32768
280
     0
281
     0
  0
CLASS
  1
ACMDATUMSTANDARDISO
  2
AcmDatumStdISO
  3
"Amdt_StdImp|Product Description: AutoCAD Mechanical|Company: Autodesk"
 90
    32768
280
     0
281
     0
  0
CLASS
  1
ACMBOMSTANDARDISO
  2
AcmBOMStdISO
  3
"Amdt_StdImp|Product Description: AutoCAD Mechanical|Company: Autodesk"
 90
    32768
280
     0
281
     0
  0
CLASS
  1
AMDTEDGESTANDARDISO
  2
AmdtEdgeStdISO
  3
"Amdt_StdImp|Product Description: AutoCAD Mechanical|Company: Autodesk"
 90
    32768
280
     0
281
     0
  0
CLASS
  1
ACMDETAILSTANDARDISO
  2
AmdtDetailSymStdISO
  3
"Amdt_StdImp|Product Description: AutoCAD Mechanical|Company: Autodesk"
 90
    32768
280
     0
281
     0
  0
CLASS
  1
ACMSECTIONSTANDARDISO
  2
AmdtSectionSymStdISO
  3
"Amdt_StdImp|Product Description: AutoCAD Mechanical|Company: Autodesk"
 90
    32768
280
     0
281
     0
  0
CLASS
  1
ACMCENTERLINESTANDARDISO
  2
AmdtCenterLineStdISO
  3
"Amdt_StdImp|Product Description: AutoCAD Mechanical|Company: Autodesk"
 90
    32768
280
     0
281
     0
  0
CLASS
  1
ACMTHREADLINESTANDARDISO
  2
AmdtThreadLineStdISO
  3
"Amdt_StdImp|Product Description: AutoCAD Mechanical|Company: Autodesk"
 90
    32768
280
     0
281
     0
  0
CLASS
  1
ACMSURFSTANDARDJIS
  2
AcmSurfTextStdJIS
  3
"Amdt_StdImp|Product Description: AutoCAD Mechanical|Company: Autodesk"
 90
    32768
280
     0
281
     0
  0
CLASS
  1
ACMFCFSTANDARDJIS
  2
AcmFCFStdJIS
  3
"Amdt_StdImp|Product Description: AutoCAD Mechanical|Company: Autodesk"
 90
    32768
280
     0
281
     0
  0
CLASS
  1
ACMWELDSTANDARDJIS
  2
AcmWeldingStdJIS
  3
"Amdt_StdImp|Product Description: AutoCAD Mechanical|Company: Autodesk"
 90
    32768
280
     0
281
     0
  0
CLASS
  1
ACMIDSTANDARDJIS
  2
AcmIdStdJIS
  3
"Amdt_StdImp|Product Description: AutoCAD Mechanical|Company: Autodesk"
 90
    32768
280
     0
281
     0
  0
CLASS
  1
ACMDATUMSTANDARDJIS
  2
AcmDatumStdJIS
  3
"Amdt_StdImp|Product Description: AutoCAD Mechanical|Company: Autodesk"
 90
    32768
280
     0
281
     0
  0
CLASS
  1
ACMBOMSTANDARDJIS
  2
AcmBOMStdJIS
  3
"Amdt_StdImp|Product Description: AutoCAD Mechanical|Company: Autodesk"
 90
    32768
280
     0
281
     0
  0
CLASS
  1
ACMDETAILSTANDARDJIS
  2
AmdtDetailSymStdJIS
  3
"Amdt_StdImp|Product Description: AutoCAD Mechanical|Company: Autodesk"
 90
    32768
280
     0
281
     0
  0
CLASS
  1
ACMSECTIONSTANDARDJIS
  2
AmdtSectionSymStdJIS
  3
"Amdt_StdImp|Product Description: AutoCAD Mechanical|Company: Autodesk"
 90
    32768
280
     0
281
     0
  0
CLASS
  1
ACMCENTERLINESTANDARDJIS
  2
AmdtCenterLineStdJIS
  3
"Amdt_StdImp|Product Description: AutoCAD Mechanical|Company: Autodesk"
 90
    32768
280
     0
281
     0
  0
CLASS
  1
ACMTHREADLINESTANDARDJIS
  2
AmdtThreadLineStdJIS
  3
"Amdt_StdImp|Product Description: AutoCAD Mechanical|Company: Autodesk"
 90
    32768
280
     0
281
     0
  0
CLASS
  1
ACMNOTESTANDARDANSI
  2
AmdtNoteStdANSI
  3
"Amdt_StdImp|Product Description: AutoCAD Mechanical|Company: Autodesk"
 90
        0
280
     0
281
     0
  0
CLASS
  1
ACAMGHOLECHARTSTDANSI
  2
AcAmgHoleChartStdANSI
  3
ACMSYMBB_MODULE_NAME
 90
        0
280
     0
281
     0
  0
CLASS
  1
TABLESTYLE
  2
AcDbTableStyle
  3
ObjectDBX Classes
 90
     4095
280
     0
281
     0
  0
CLASS
  1
AMDTNOTETEMPLATEDB
  2
AmdtNoteTemplateDB
  3
AMDT_STDIMP_MODULE_NAME
 90
        0
280
     0
281
     0
  0
CLASS
  1
MATERIAL
  2
AcDbMaterial
  3
ObjectDBX Classes
 90
     1024
280
     0
281
     0
  0
CLASS
  1
VISUALSTYLE
  2
AcDbVisualStyle
  3
ObjectDBX Classes
 90
     4095
280
     0
281
     0
  0
CLASS
  1
ACRFATTGENMGR
  2
AcRfAttGeneralMgr
  3
AcAttribServices
 90
        0
280
     0
281
     0
  0
CLASS
  1
ACRFOBJATTMGR
  2
AcRfObjAttGroupMgr
  3
AcAttribServices
 90
        0
280
     0
281
     0
  0
CLASS
  1
ACRFMCADAPIATTHOLDER
  2
AcRfMCADAPIAttHolder
  3
AcAttribServices
 90
        0
280
     0
281
     0
  0
CLASS
  1
AMDTSYSATTR
  2
AmdtSystemAttribute
  3
AcAttribServices
 90
        0
280
     0
281
     0
  0
CLASS
  1
ACMTAPERSTANDARDANSI
  2
AcmTaperStdANSI
  3
"Amdt_StdImp|Product Description: AutoCAD Mechanical|Company: Autodesk"
 90
        0
280
     0
281
     0
  0
CLASS
  1
SORTENTSTABLE
  2
AcDbSortentsTable
  3
ObjectDBX Classes
 90
        0
280
     0
281
     0
  0
CLASS
  1
ACDBPLACEHOLDER
  2
AcDbPlaceHolder
  3
ObjectDBX Classes
 90
        0
280
     0
281
     0
  0
CLASS
  1
LAYOUT
  2
AcDbLayout
  3
ObjectDBX Classes
 90
        0
280
     0
281
     0
  0
ENDSEC
  0
SECTION
  2
TABLES
  0
TABLE
  2
VPORT
  5
8
330
0
100
AcDbSymbolTable
 70
     1
  0
VPORT
  5
57D
330
8
100
AcDbSymbolTableRecord
100
AcDbViewportTableRecord
  2
*Active
 70
     0
 10
0.0
 20
0.0
 11
1.0
 21
1.0
 12
0.0006757919610862
 22
-0.0003740099090948
 13
0.0
 23
0.0
 14
0.125
 24
0.125
 15
1.0
 25
1.0
 16
0.0
 26
0.0
 36
1.0
 17
44.27383939249653
 27
30.9490167597304
 37
0.0
 40
18.52443395044482
 41
1.8627648839556
 42
50.0
 43
0.0
 44
0.0
 50
0.0
 51
0.0
 71
     0
 72
   100
 73
     1
 74
     1
 75
     0
 76
     0
 77
     0
 78
     0
281
     0
 65
     0
110
0.0
120
0.0
130
0.0
111
1.0
121
0.0
131
0.0
112
0.0
122
1.0
132
0.0
 79
     0
146
0.0
  0
ENDTAB
  0
TABLE
  2
LTYPE
  5
5
330
0
100
AcDbSymbolTable
 70
    36
  0
LTYPE
  5
13
330
5
100
AcDbSymbolTableRecord
100
AcDbLinetypeTableRecord
  2
BYBLOCK
 70
     0
  3

 72
    65
 73
     0
 40
0.0
  0
LTYPE
  5
14
330
5
100
AcDbSymbolTableRecord
100
AcDbLinetypeTableRecord
  2
BYLAYER
 70
     0
  3

 72
    65
 73
     0
 40
0.0
  0
LTYPE
  5
15
330
5
100
AcDbSymbolTableRecord
100
AcDbLinetypeTableRecord
  2
CONTINUOUS
 70
     0
  3
Solid line
 72
    65
 73
     0
 40
0.0
  0
LTYPE
  5
8C
330
5
100
AcDbSymbolTableRecord
100
AcDbLinetypeTableRecord
  2
HIDDEN
 70
     0
  3
__ __ __ __ __ __ __ __ __ __ __ __ __ __ __ __
 72
    65
 73
     2
 40
0.375
 49
0.25
 74
     0
 49
-0.125
 74
     0
  0
LTYPE
  5
8E
330
5
100
AcDbSymbolTableRecord
100
AcDbLinetypeTableRecord
  2
PHANTOM2
 70
     0
  3
___ _ _ ___ _ _ ___ _ _ ___ _ _ ___ _ _ ___ _ _
 72
    65
 73
     6
 40
1.25
 49
0.625
 74
     0
 49
-0.125
 74
     0
 49
0.125
 74
     0
 49
-0.125
 74
     0
 49
0.125
 74
     0
 49
-0.125
 74
     0
  0
LTYPE
  5
99
330
5
100
AcDbSymbolTableRecord
100
AcDbLinetypeTableRecord
  2
CENTER
 70
     0
  3
____ _ ____ _ ____ _ ____ _ ____ _ ____ _ ____ 
 72
    65
 73
     4
 40
2.0
 49
1.25
 74
     0
 49
-0.25
 74
     0
 49
0.25
 74
     0
 49
-0.25
 74
     0
  0
LTYPE
  5
F2
330
5
100
AcDbSymbolTableRecord
100
AcDbLinetypeTableRecord
  2
ASULTYPE
 70
     0
  3
Solid line
 72
    65
 73
     2
 40
3.0
 49
2.5
 74
     0
 49
0.5
 74
     0
  0
LTYPE
  5
F3
330
5
100
AcDbSymbolTableRecord
100
AcDbLinetypeTableRecord
  2
ASVLTYPE
 70
     0
  3
__ __ __ __ __ __ __ __ __ __ __ __ __ __ __ __ __ __ __ __ __
 72
    65
 73
     2
 40
0.75
 49
0.5
 74
     0
 49
-0.25
 74
     0
  0
LTYPE
  5
15C
330
5
100
AcDbSymbolTableRecord
100
AcDbLinetypeTableRecord
  2
AM_ISO02W050
 70
     0
  3
__ __ __ __ __ __ __ __ __ __ __ __ __ __ __
 72
    65
 73
     2
 40
7.5
 49
6.0
 74
     0
 49
-1.5
 74
     0
  0
LTYPE
  5
15D
330
5
100
AcDbSymbolTableRecord
100
AcDbLinetypeTableRecord
  2
AM_ISO08W050
 70
     0
  3
____ . ____ . ____ . ____ . ____ . ____ . ____
 72
    65
 73
     4
 40
18.0
 49
12.0
 74
     0
 49
-1.5
 74
     0
 49
3.0
 74
     0
 49
-1.5
 74
     0
  0
LTYPE
  5
15E
330
5
100
AcDbSymbolTableRecord
100
AcDbLinetypeTableRecord
  2
AM_ISO09W050
 70
     0
  3
_____ . . _____ . . _____ . . ____ .. ____
 72
    65
 73
     6
 40
22.5
 49
12.0
 74
     0
 49
-1.5
 74
     0
 49
3.0
 74
     0
 49
-1.5
 74
     0
 49
3.0
 74
     0
 49
-1.5
 74
     0
  0
LTYPE
  5
15F
330
5
100
AcDbSymbolTableRecord
100
AcDbLinetypeTableRecord
  2
AM_ISO02W050x2
 70
     0
  3
 _ _ _ _ _ _ _ _ _ _ _ _
 72
    65
 73
     2
 40
3.75
 49
3.0
 74
     0
 49
-0.75
 74
     0
  0
LTYPE
  5
160
330
5
100
AcDbSymbolTableRecord
100
AcDbLinetypeTableRecord
  2
AM_ISO08W050x2
 70
     0
  3
__ . __ . __ . __ . __ . __
 72
    65
 73
     4
 40
9.0
 49
6.0
 74
     0
 49
-0.75
 74
     0
 49
1.5
 74
     0
 49
-0.75
 74
     0
  0
LTYPE
  5
163
330
5
100
AcDbSymbolTableRecord
100
AcDbLinetypeTableRecord
  2
amzigzag
 70
     0
  3
/\/-/\/-/\/-/\/-/\/-/\/
 72
    65
 73
     2
 40
11.0001
 49
0.0001
 74
     4
 75
   136
340
538
 46
0.04
 50
0.0
 44
0.0
 45
0.0
 49
-11.0
 74
     0
  0
LTYPE
  5
164
330
5
100
AcDbSymbolTableRecord
100
AcDbLinetypeTableRecord
  2
HIDDEN2
 70
     0
  3
Hidden (.5x) _ _ _ _ _ _ _ _ _ _ _ _ _ _ _ _ _
 72
    65
 73
     2
 40
0.1875
 49
0.125
 74
     0
 49
-0.0625
 74
     0
  0
LTYPE
  5
165
330
5
100
AcDbSymbolTableRecord
100
AcDbLinetypeTableRecord
  2
CENTER2
 70
     0
  3
Center (.5x) ___ _ ___ _ ___ _ ___ _ ___ _ ___
 72
    65
 73
     4
 40
1.125
 49
0.75
 74
     0
 49
-0.125
 74
     0
 49
0.125
 74
     0
 49
-0.125
 74
     0
  0
LTYPE
  5
2A6
330
5
100
AcDbSymbolTableRecord
100
AcDbLinetypeTableRecord
  2
Amconstr
 70
     0
  3
_______________________
 72
    65
 73
     2
 40
9999.0
 49
9999.0
 74
     0
 49
0.0
 74
     0
  0
LTYPE
  5
2B1
330
5
100
AcDbSymbolTableRecord
100
AcDbLinetypeTableRecord
  2
Amzigzag2
 70
     0
  3
/\/-/\/-/\/-/\/-/\/-/\/
 72
    65
 73
     2
 40
0.4401
 49
0.0001
 74
     4
 75
   136
340
538
 46
0.0016
 50
0.0
 44
0.0
 45
0.0
 49
-0.4400000000000003
 74
     0
  0
LTYPE
  5
2B2
330
5
100
AcDbSymbolTableRecord
100
AcDbLinetypeTableRecord
  2
AM_DIN_F_W050
 70
     0
  3
__ __ __ __ __ __ __ __ __ __ __ __ __ __ __
 72
    65
 73
     2
 40
6.25
 49
4.75
 74
     0
 49
-1.5
 74
     0
  0
LTYPE
  5
2B3
330
5
100
AcDbSymbolTableRecord
100
AcDbLinetypeTableRecord
  2
AM_DIN_G_W050
 70
     0
  3
____ . ____ . ____ . ____ . ____ . ____ . ____
 72
    65
 73
     4
 40
13.75
 49
9.75
 74
     0
 49
-1.5
 74
     0
 49
1.0
 74
     0
 49
-1.5
 74
     0
  0
LTYPE
  5
2B4
330
5
100
AcDbSymbolTableRecord
100
AcDbLinetypeTableRecord
  2
AM_DIN_K_W050
 70
     0
  3
_____ . . _____ . . _____ . . ____ .. ____
 72
    65
 73
     6
 40
16.25
 49
9.75
 74
     0
 49
-1.5
 74
     0
 49
1.0
 74
     0
 49
-1.5
 74
     0
 49
1.0
 74
     0
 49
-1.5
 74
     0
  0
LTYPE
  5
2B5
330
5
100
AcDbSymbolTableRecord
100
AcDbLinetypeTableRecord
  2
AM_DIN_G_W050x2
 70
     0
  3
__ . __ . __ . __ . __ . __
 72
    65
 73
     4
 40
6.875
 49
4.75
 74
     0
 49
-0.875
 74
     0
 49
0.375
 74
     0
 49
-0.875
 74
     0
  0
LTYPE
  5
2B6
330
5
100
AcDbSymbolTableRecord
100
AcDbLinetypeTableRecord
  2
AM_DIN_F_W050x2
 70
     0
  3
 _ _ _ _ _ _ _ _ _ _ _ _
 72
    65
 73
     2
 40
3.125
 49
2.25
 74
     0
 49
-0.875
 74
     0
  0
LTYPE
  5
2CC
330
5
100
AcDbSymbolTableRecord
100
AcDbLinetypeTableRecord
  2
ACANSTGBM
 70
     0
  3
__ . . __ . .
 72
    65
 73
     6
 40
9.0
 49
4.0
 74
     0
 49
-1.0
 74
     0
 49
1.0
 74
     0
 49
-1.0
 74
     0
 49
1.0
 74
     0
 49
-1.0
 74
     0
  0
LTYPE
  5
2CD
330
5
100
AcDbSymbolTableRecord
100
AcDbLinetypeTableRecord
  2
ACANSTGLM
 70
     0
  3
_ _ _ _ _
 72
    65
 73
     2
 40
3.0
 49
2.0
 74
     0
 49
-1.0
 74
     0
  0
LTYPE
  5
2E5
330
5
100
AcDbSymbolTableRecord
100
AcDbLinetypeTableRecord
  2
ACBSWELD
 70
     0
  3
_ _ _ _ _
 72
    65
 73
     2
 40
2.0
 49
2.0
 74
     0
 49
-1.0
 74
     0
  0
LTYPE
  5
2E8
330
5
100
AcDbSymbolTableRecord
100
AcDbLinetypeTableRecord
  2
ACBSITGB
 70
     0
  3
__ . . __ . .
 72
    65
 73
     6
 40
9.0
 49
4.0
 74
     0
 49
-1.0
 74
     0
 49
1.0
 74
     0
 49
-1.0
 74
     0
 49
1.0
 74
     0
 49
-1.0
 74
     0
  0
LTYPE
  5
2E9
330
5
100
AcDbSymbolTableRecord
100
AcDbLinetypeTableRecord
  2
ACBSITGL
 70
     0
  3
_ _ _ _ _
 72
    65
 73
     2
 40
3.0
 49
2.0
 74
     0
 49
-1.0
 74
     0
  0
LTYPE
  5
300
330
5
100
AcDbSymbolTableRecord
100
AcDbLinetypeTableRecord
  2
ACDINWELD
 70
     0
  3
_ _ _ _ _
 72
    65
 73
     2
 40
2.0
 49
2.0
 74
     0
 49
-1.0
 74
     0
  0
LTYPE
  5
303
330
5
100
AcDbSymbolTableRecord
100
AcDbLinetypeTableRecord
  2
ACDINTGB
 70
     0
  3
__ . . __ . .
 72
    65
 73
     6
 40
9.0
 49
4.0
 74
     0
 49
-1.0
 74
     0
 49
1.0
 74
     0
 49
-1.0
 74
     0
 49
1.0
 74
     0
 49
-1.0
 74
     0
  0
LTYPE
  5
304
330
5
100
AcDbSymbolTableRecord
100
AcDbLinetypeTableRecord
  2
ACDINTGL
 70
     0
  3
_ _ _ _ _
 72
    65
 73
     2
 40
3.0
 49
2.0
 74
     0
 49
-1.0
 74
     0
  0
LTYPE
  5
31A
330
5
100
AcDbSymbolTableRecord
100
AcDbLinetypeTableRecord
  2
ACISOWELD
 70
     0
  3
_ _ _ _ _
 72
    65
 73
     2
 40
2.0
 49
2.0
 74
     0
 49
-1.0
 74
     0
  0
LTYPE
  5
31D
330
5
100
AcDbSymbolTableRecord
100
AcDbLinetypeTableRecord
  2
ACISOTGB
 70
     0
  3
__ . . __ . .
 72
    65
 73
     6
 40
9.0
 49
4.0
 74
     0
 49
-1.0
 74
     0
 49
1.0
 74
     0
 49
-1.0
 74
     0
 49
1.0
 74
     0
 49
-1.0
 74
     0
  0
LTYPE
  5
31E
330
5
100
AcDbSymbolTableRecord
100
AcDbLinetypeTableRecord
  2
ACISOTGL
 70
     0
  3
_ _ _ _ _
 72
    65
 73
     2
 40
3.0
 49
2.0
 74
     0
 49
-1.0
 74
     0
  0
LTYPE
  5
337
330
5
100
AcDbSymbolTableRecord
100
AcDbLinetypeTableRecord
  2
ACJISTGB
 70
     0
  3
__ . . __ . .
 72
    65
 73
     6
 40
9.0
 49
4.0
 74
     0
 49
-1.0
 74
     0
 49
1.0
 74
     0
 49
-1.0
 74
     0
 49
1.0
 74
     0
 49
-1.0
 74
     0
  0
LTYPE
  5
338
330
5
100
AcDbSymbolTableRecord
100
AcDbLinetypeTableRecord
  2
ACJISTGL
 70
     0
  3
_ _ _ _ _
 72
    65
 73
     2
 40
3.0
 49
2.0
 74
     0
 49
-1.0
 74
     0
  0
LTYPE
  5
3A6
330
5
100
AcDbSymbolTableRecord
100
AcDbLinetypeTableRecord
  2
ACANSTGB
 70
     0
  3
__ . . __ . .
 72
    65
 73
     6
 40
0.35433070866
 49
0.15748031496
 74
     0
 49
-0.03937007874
 74
     0
 49
0.03937007874
 74
     0
 49
-0.03937007874
 74
     0
 49
0.03937007874
 74
     0
 49
-0.03937007874
 74
     0
  0
LTYPE
  5
3A7
330
5
100
AcDbSymbolTableRecord
100
AcDbLinetypeTableRecord
  2
ACANSTGL
 70
     0
  3
_ _ _ _ _
 72
    65
 73
     2
 40
0.11811023622
 49
0.07874015748
 74
     0
 49
-0.03937007874
 74
     0
  0
ENDTAB
  0
TABLE
  2
LAYER
  5
2
102
{ACAD_XDICTIONARY
360
44C
102
}
330
0
100
AcDbSymbolTable
 70
     6
  0
LAYER
  5
F
330
2
100
AcDbSymbolTableRecord
100
AcDbLayerTableRecord
  2
0
 70
     0
 62
     7
  6
CONTINUOUS
370
    -3
390
14F
  0
LAYER
  5
66D
330
2
100
AcDbSymbolTableRecord
100
AcDbLayerTableRecord
  2
Defpoints
 70
     0
 62
     7
  6
CONTINUOUS
290
     0
370
    -3
390
14F
  0
LAYER
  5
BEB
330
2
100
AcDbSymbolTableRecord
100
AcDbLayerTableRecord
  2
Part
 70
     0
 62
     1
  6
CONTINUOUS
370
    -3
390
14F
1001
AcAecLayerStandard
1000

1000

  0
LAYER
  5
BED
330
2
100
AcDbSymbolTableRecord
100
AcDbLayerTableRecord
  2
Dimensions
 70
     0
 62
     4
  6
CONTINUOUS
370
    -3
390
14F
1001
AcAecLayerStandard
1000

1000

  0
LAYER
  5
BEE
330
2
100
AcDbSymbolTableRecord
100
AcDbLayerTableRecord
  2
Notes
 70
     0
 62
     3
  6
CONTINUOUS
370
    -3
390
14F
1001
AcAecLayerStandard
1000

1000

  0
LAYER
  5
BEF
330
2
100
AcDbSymbolTableRecord
100
AcDbLayerTableRecord
  2
Labels
 70
     0
 62
    30
  6
CONTINUOUS
370
    -3
390
14F
1001
AcAecLayerStandard
1000

1000

  0
ENDTAB
  0
TABLE
  2
STYLE
  5
3
330
0
100
AcDbSymbolTable
 70
    18
  0
STYLE
  5
10
330
3
100
AcDbSymbolTableRecord
100
AcDbTextStyleTableRecord
  2
STANDARD
 70
     0
 40
0.0
 41
1.0
 50
0.0
 71
     0
 42
0.12
  3
ARIAL.TTF
  4

1001
ACAD
1000
Arial Baltic
1071
    47650
  0
STYLE
  5
11D
330
3
100
AcDbSymbolTableRecord
100
AcDbTextStyleTableRecord
  2
ADESK1
 70
     0
 40
0.0
 41
1.0
 50
0.0
 71
     0
 42
0.12
  3
romans.shx
  4

  0
STYLE
  5
162
330
3
100
AcDbSymbolTableRecord
100
AcDbTextStyleTableRecord
  2

 70
     1
 40
0.0
 41
1.0
 50
0.0
 71
     0
 42
0.12
  3
ltypeshp.shx
  4

  0
STYLE
  5
2C5
330
3
100
AcDbSymbolTableRecord
100
AcDbTextStyleTableRecord
  2
ACANSTSI
 70
     0
 40
1.0
 41
1.0
 50
0.0
 71
     0
 42
3.5
  3
romans.shx
  4

  0
STYLE
  5
2C8
330
3
100
AcDbSymbolTableRecord
100
AcDbTextStyleTableRecord
  2
ACANSGDT
 70
     0
 40
0.0
 41
1.0
 50
0.0
 71
     0
 42
3.5
  3
amgdt.shx
  4

  0
STYLE
  5
2E0
330
3
100
AcDbSymbolTableRecord
100
AcDbTextStyleTableRecord
  2
ACBSITS
 70
     0
 40
1.0
 41
1.0
 50
0.0
 71
     0
 42
3.5
  3
isocp.shx
  4

  0
STYLE
  5
2E3
330
3
100
AcDbSymbolTableRecord
100
AcDbTextStyleTableRecord
  2
ACBSIGDT
 70
     0
 40
0.0
 41
1.0
 50
0.0
 71
     0
 42
3.5
  3
amgdt.shx
  4

  0
STYLE
  5
2FA
330
3
100
AcDbSymbolTableRecord
100
AcDbTextStyleTableRecord
  2
ACDINTS
 70
     0
 40
1.0
 41
1.0
 50
0.0
 71
     0
 42
3.5
  3
isocp.shx
  4

  0
STYLE
  5
2FE
330
3
100
AcDbSymbolTableRecord
100
AcDbTextStyleTableRecord
  2
ACDINGDT
 70
     0
 40
0.0
 41
1.0
 50
0.0
 71
     0
 42
3.5
  3
amgdt.shx
  4

  0
STYLE
  5
315
330
3
100
AcDbSymbolTableRecord
100
AcDbTextStyleTableRecord
  2
ACISOTS
 70
     0
 40
1.0
 41
1.0
 50
0.0
 71
     0
 42
3.5
  3
isocp.shx
  4

  0
STYLE
  5
318
330
3
100
AcDbSymbolTableRecord
100
AcDbTextStyleTableRecord
  2
ACISOGDT
 70
     0
 40
0.0
 41
1.0
 50
0.0
 71
     0
 42
3.5
  3
amgdt.shx
  4

  0
STYLE
  5
330
330
3
100
AcDbSymbolTableRecord
100
AcDbTextStyleTableRecord
  2
ACJISTS
 70
     0
 40
1.0
 41
1.0
 50
0.0
 71
     0
 42
3.5
  3
isocp.shx
  4
bigfont.shx
  0
STYLE
  5
333
330
3
100
AcDbSymbolTableRecord
100
AcDbTextStyleTableRecord
  2
ACJISGDT
 70
     0
 40
0.0
 41
1.0
 50
0.0
 71
     0
 42
3.5
  3
amgdt.shx
  4

  0
STYLE
  5
39B
330
3
100
AcDbSymbolTableRecord
100
AcDbTextStyleTableRecord
  2
ACANSTS
 70
     0
 40
1.0
 41
1.0
 50
0.0
 71
     0
 42
0.12
  3
romans.shx
  4

  0
STYLE
  5
4F1
330
3
100
AcDbSymbolTableRecord
100
AcDbTextStyleTableRecord
  2
USER1
 70
     0
 40
0.0
 41
1.0
 50
0.0
 71
     0
 42
0.12
  3
TXT.SHX
  4

  0
STYLE
  5
4F2
330
3
100
AcDbSymbolTableRecord
100
AcDbTextStyleTableRecord
  2
USER2
 70
     0
 40
0.0
 41
1.0
 50
0.0
 71
     0
 42
0.12
  3
SIMPLEX.SHX
  4

  0
STYLE
  5
4F3
330
3
100
AcDbSymbolTableRecord
100
AcDbTextStyleTableRecord
  2
USER3
 70
     0
 40
0.0
 41
1.0
 50
0.0
 71
     0
 42
0.12
  3
ITALIC.SHX
  4

  0
STYLE
  5
538
330
3
100
AcDbSymbolTableRecord
100
AcDbTextStyleTableRecord
  2

 70
     1
 40
0.0
 41
1.0
 50
0.0
 71
     0
 42
0.12
  3
genltshp.shx
  4

  0
ENDTAB
  0
TABLE
  2
VIEW
  5
6
330
0
100
AcDbSymbolTable
 70
     3
  0
VIEW
  5
193
330
6
100
AcDbSymbolTableRecord
100
AcDbViewTableRecord
  2
AMDTVIEW1
 70
     0
 40
11.38251346627189
 10
7.263840830449826
 20
5.691256733135945
 41
14.52768166089965
 11
0.0
 21
0.0
 31
1.0
 12
0.0
 22
0.0
 32
0.0
 42
50.0
 43
0.0
 44
0.0
 50
0.0
 71
     0
281
     0
 72
     0
  0
VIEW
  5
194
330
6
100
AcDbSymbolTableRecord
100
AcDbViewTableRecord
  2
AMDTVIEW2
 70
     0
 40
11.38251346627189
 10
7.263840830449826
 20
5.691256733135945
 41
14.52768166089965
 11
0.0
 21
0.0
 31
1.0
 12
0.0
 22
0.0
 32
0.0
 42
50.0
 43
0.0
 44
0.0
 50
0.0
 71
     0
281
     0
 72
     0
  0
VIEW
  5
195
330
6
100
AcDbSymbolTableRecord
100
AcDbViewTableRecord
  2
AMDTVIEW3
 70
     0
 40
11.38251346627189
 10
7.263840830449826
 20
5.691256733135945
 41
14.52768166089965
 11
0.0
 21
0.0
 31
1.0
 12
0.0
 22
0.0
 32
0.0
 42
50.0
 43
0.0
 44
0.0
 50
0.0
 71
     0
281
     0
 72
     0
  0
ENDTAB
  0
TABLE
  2
UCS
  5
7
330
0
100
AcDbSymbolTable
 70
     0
  0
ENDTAB
  0
TABLE
  2
APPID
  5
9
330
0
100
AcDbSymbolTable
 70
    21
  0
APPID
  5
11
330
9
100
AcDbSymbolTableRecord
100
AcDbRegAppTableRecord
  2
ACAD
 70
     0
  0
APPID
  5
9C
330
9
100
AcDbSymbolTableRecord
100
AcDbRegAppTableRecord
  2
AD_DRAW
 70
     0
  0
APPID
  5
B6
330
9
100
AcDbSymbolTableRecord
100
AcDbRegAppTableRecord
  2
DESIGNERASSEMBLIES
 70
     0
  0
APPID
  5
BD
330
9
100
AcDbSymbolTableRecord
100
AcDbRegAppTableRecord
  2
MCAD_NO_VIS
 70
     0
  0
APPID
  5
F4
330
9
100
AcDbSymbolTableRecord
100
AcDbRegAppTableRecord
  2
ASURF_PCURVE_APPNAME
 70
     0
  0
APPID
  5
168
330
9
100
AcDbSymbolTableRecord
100
AcDbRegAppTableRecord
  2
ACAD_TEMP_GRAPHIC
 70
     0
  0
APPID
  5
172
330
9
100
AcDbSymbolTableRecord
100
AcDbRegAppTableRecord
  2
ACATTRIBSERVICES
 70
     0
  0
APPID
  5
18F
330
9
100
AcDbSymbolTableRecord
100
AcDbRegAppTableRecord
  2
ACADM_DIM_EDIT
 70
     0
  0
APPID
  5
19D
330
9
100
AcDbSymbolTableRecord
100
AcDbRegAppTableRecord
  2
GENIUS_GENDIM_13
 70
     0
  0
APPID
  5
19E
330
9
100
AcDbSymbolTableRecord
100
AcDbRegAppTableRecord
  2
GENIUS_GENDTOL_13
 70
     0
  0
APPID
  5
19F
330
9
100
AcDbSymbolTableRecord
100
AcDbRegAppTableRecord
  2
GENIUS_GE3DTOL_13
 70
     0
  0
APPID
  5
2A2
330
9
100
AcDbSymbolTableRecord
100
AcDbRegAppTableRecord
  2
AMG_3D2D_5.0
 70
     0
  0
APPID
  5
3EE
330
9
100
AcDbSymbolTableRecord
100
AcDbRegAppTableRecord
  2
AMDT_DM_ADJ
 70
     0
  0
APPID
  5
4AA
330
9
100
AcDbSymbolTableRecord
100
AcDbRegAppTableRecord
  2
ACAD_DSTYLE_DIMARC_LENGTH_SYMBOL
 70
     0
  0
APPID
  5
4AB
330
9
100
AcDbSymbolTableRecord
100
AcDbRegAppTableRecord
  2
ACAD_DSTYLE_DIMJOGGED_JOGANGLE_SYMBOL
 70
     0
  0
APPID
  5
5F8
330
9
100
AcDbSymbolTableRecord
100
AcDbRegAppTableRecord
  2
ACAD_EXEMPT_FROM_CAD_STANDARDS
 70
     0
  0
APPID
  5
BEC
330
9
100
AcDbSymbolTableRecord
100
AcDbRegAppTableRecord
  2
AcAecLayerStandard
 70
     0
  0
APPID
  5
144A
330
9
100
AcDbSymbolTableRecord
100
AcDbRegAppTableRecord
  2
GENIUS_GENSCREG_15
 70
     0
  0
APPID
  5
144B
330
9
100
AcDbSymbolTableRecord
100
AcDbRegAppTableRecord
  2
GENIUS_GENOBJ-N-SDF_13
 70
     0
  0
APPID
  5
144C
330
9
100
AcDbSymbolTableRecord
100
AcDbRegAppTableRecord
  2
GENIUS_GENODEF_13
 70
     0
  0
APPID
  5
1666
330
9
100
AcDbSymbolTableRecord
100
AcDbRegAppTableRecord
  2
ACAD_PSEXT
 70
     0
  0
ENDTAB
  0
TABLE
  2
DIMSTYLE
  5
A
330
0
100
AcDbSymbolTable
 70
    35
100
AcDbDimStyleTable
 71
     5
340
2D3
340
322
340
308
340
2ED
340
33C
  0
DIMSTYLE
105
1D
330
A
100
AcDbSymbolTableRecord
100
AcDbDimStyleTableRecord
  2
STANDARD
 70
     0
340
10
  0
DIMSTYLE
105
2D3
330
A
100
AcDbSymbolTableRecord
100
AcDbDimStyleTableRecord
  2
AM_ANSI
 70
     0
  4
mm
 41
0.1
 42
0.05
 43
0.5
 44
0.1
 47
0.1
 48
0.1
 78
     7
 79
     2
140
0.12
141
0.0
146
0.71
147
0.06
176
   256
177
   256
178
   256
271
     2
272
     2
284
     7
340
10
371
    -1
372
    -1
1001
ACAD_DSTYLE_DIMJOGGED_JOGANGLE_SYMBOL
1070
   384
1040
0.7853981633974483
1001
ACAD_DSTYLE_DIMARC_LENGTH_SYMBOL
1070
   379
1070
     1
  0
DIMSTYLE
105
2D4
330
A
100
AcDbSymbolTableRecord
100
AcDbDimStyleTableRecord
  2
AM_ANSI$3
 70
     0
  4
mm
 41
0.1
 42
0.05
 43
0.5
 44
0.1
 47
0.1
 48
0.1
 78
     7
 79
     2
140
0.12
141
0.0
146
0.71
147
0.06
176
   256
177
   256
178
   256
271
     2
272
     2
284
     7
288
     1
289
     0
340
10
371
    -1
372
    -1
1001
ACAD_DSTYLE_DIMJOGGED_JOGANGLE_SYMBOL
1070
   384
1040
0.7853981633974483
1001
ACAD_DSTYLE_DIMARC_LENGTH_SYMBOL
1070
   379
1070
     1
  0
DIMSTYLE
105
2D5
330
A
100
AcDbSymbolTableRecord
100
AcDbDimStyleTableRecord
  2
AM_ANSI$4
 70
     0
  4
mm
 41
0.1
 42
0.05
 43
0.5
 44
0.1
 47
0.1
 48
0.1
 78
     7
 79
     2
140
0.12
141
0.0
146
0.71
147
0.06
176
   256
177
   256
178
   256
271
     2
272
     2
284
     7
288
     1
289
     0
340
10
371
    -1
372
    -1
1001
ACAD_DSTYLE_DIMJOGGED_JOGANGLE_SYMBOL
1070
   384
1040
0.7853981633974483
1001
ACAD_DSTYLE_DIMARC_LENGTH_SYMBOL
1070
   379
1070
     1
  0
DIMSTYLE
105
2D6
330
A
100
AcDbSymbolTableRecord
100
AcDbDimStyleTableRecord
  2
AM_ANSI$7
 70
     0
  4
mm
 41
0.1
 42
0.05
 43
0.5
 44
0.1
 47
0.1
 48
0.1
 78
     7
 79
     2
140
0.24
141
0.0
146
0.71
147
0.06
176
   256
177
   256
178
   256
271
     2
272
     2
284
     7
340
10
371
    -1
372
    -1
1001
ACAD_DSTYLE_DIMJOGGED_JOGANGLE_SYMBOL
1070
   384
1040
0.7853981633974483
1001
ACAD_DSTYLE_DIMARC_LENGTH_SYMBOL
1070
   379
1070
     1
  0
DIMSTYLE
105
2D7
330
A
100
AcDbSymbolTableRecord
100
AcDbDimStyleTableRecord
  2
AM_ANSI$SF
 70
     0
  4
mm
 41
0.1
 42
0.05
 43
0.5
 44
0.1
 47
0.1
 48
0.1
 75
     1
 76
     1
 78
     7
 79
     2
140
0.12
141
0.0
146
0.71
147
0.06
176
   256
177
   256
178
     2
274
     4
284
     7
340
10
371
    -1
372
    -1
1001
ACAD_DSTYLE_DIMJOGGED_JOGANGLE_SYMBOL
1070
   384
1040
0.7853981633974483
1001
ACAD_DSTYLE_DIMARC_LENGTH_SYMBOL
1070
   379
1070
     1
  0
DIMSTYLE
105
2D8
330
A
100
AcDbSymbolTableRecord
100
AcDbDimStyleTableRecord
  2
AM_ANSI$SH
 70
     0
  4
mm
 41
0.1
 42
0.05
 43
0.5
 44
0.1
 47
0.1
 48
0.1
 75
     1
 76
     1
 78
     7
 79
     2
140
0.12
141
0.0
146
0.71
147
0.06
173
     1
176
   256
177
   256
178
     2
274
     4
284
     7
340
10
343
2AD
371
    -1
372
    -1
1001
ACAD_DSTYLE_DIMJOGGED_JOGANGLE_SYMBOL
1070
   384
1040
0.7853981633974483
1001
ACAD_DSTYLE_DIMARC_LENGTH_SYMBOL
1070
   379
1070
     1
  0
DIMSTYLE
105
2ED
330
A
100
AcDbSymbolTableRecord
100
AcDbDimStyleTableRecord
  2
AM_BSI
 70
     0
  4
mm
 41
0.1574803149606299
 42
0.05
 43
0.5
 44
0.1
 47
0.1
 48
0.1
 73
     0
 74
     0
 77
     1
 78
     7
 79
     2
140
0.12
141
0.0
146
0.71
147
0.06
172
     1
176
   256
177
   256
178
     2
274
     4
283
     0
284
     7
340
10
371
    -1
372
    -1
  0
DIMSTYLE
105
2EE
330
A
100
AcDbSymbolTableRecord
100
AcDbDimStyleTableRecord
  2
AM_BSI$3
 70
     0
  4
mm
 41
0.1574803149606299
 42
0.05
 43
0.5
 44
0.1
 47
0.1
 48
0.1
 73
     0
 77
     1
 78
     7
 79
     2
140
0.12
141
0.0
146
0.71
147
0.06
176
   256
177
   256
178
     2
274
     4
283
     0
284
     7
288
     1
289
     0
340
10
371
    -1
372
    -1
  0
DIMSTYLE
105
2EF
330
A
100
AcDbSymbolTableRecord
100
AcDbDimStyleTableRecord
  2
AM_BSI$4
 70
     0
  4
mm
 41
0.1574803149606299
 42
0.05
 43
0.5
 44
0.1
 47
0.1
 48
0.1
 73
     0
 77
     1
 78
     7
 79
     2
140
0.12
141
0.0
146
0.71
147
0.06
176
   256
177
   256
178
     2
274
     4
283
     0
284
     7
288
     1
289
     0
340
10
371
    -1
372
    -1
  0
DIMSTYLE
105
2F0
330
A
100
AcDbSymbolTableRecord
100
AcDbDimStyleTableRecord
  2
AM_BSI$6
 70
     0
  4
mm
 41
0.1574803149606299
 42
0.05
 43
0.5
 44
0.1
 47
0.1
 48
0.1
 73
     0
 74
     0
 78
     7
 79
     2
140
0.12
141
0.0
146
0.71
147
0.06
172
     1
176
   256
177
   256
178
     2
274
     4
283
     0
284
     7
340
10
371
    -1
372
    -1
  0
DIMSTYLE
105
2F1
330
A
100
AcDbSymbolTableRecord
100
AcDbDimStyleTableRecord
  2
AM_BSI$7
 70
     0
  4
mm
 41
0.1
 42
0.05
 43
0.5
 44
0.1
 47
0.1
 48
0.1
 73
     0
 74
     0
 77
     1
 78
     7
 79
     2
140
0.24
141
0.0
146
0.71
147
0.06
172
     1
176
   256
177
   256
178
     2
274
     4
283
     0
284
     7
340
10
371
    -1
372
    -1
  0
DIMSTYLE
105
2F2
330
A
100
AcDbSymbolTableRecord
100
AcDbDimStyleTableRecord
  2
AM_BSI$SF
 70
     0
  4
mm
 41
0.1574803149606299
 42
0.05
 43
0.5
 44
0.1
 47
0.1
 48
0.1
 73
     0
 74
     0
 75
     1
 76
     1
 77
     1
 78
     7
 79
     2
140
0.12
141
0.0
146
0.71
147
0.06
172
     1
176
   256
177
   256
178
     2
274
     4
283
     0
284
     7
340
10
371
    -1
372
    -1
  0
DIMSTYLE
105
2F3
330
A
100
AcDbSymbolTableRecord
100
AcDbDimStyleTableRecord
  2
AM_BSI$SH
 70
     0
  4
mm
 41
0.1574803149606299
 42
0.05
 43
0.5
 44
0.1
 47
0.1
 48
0.1
 73
     0
 74
     0
 75
     1
 76
     1
 77
     1
 78
     7
 79
     2
140
0.12
141
0.0
144
2.0
146
0.71
147
0.06
172
     1
173
     1
176
   256
177
   256
178
     2
274
     4
283
     0
284
     7
340
10
371
    -1
372
    -1
  0
DIMSTYLE
105
308
330
A
100
AcDbSymbolTableRecord
100
AcDbDimStyleTableRecord
  2
AM_DIN
 70
     0
  4
mm
 41
0.1
 42
0.05
 43
0.5
 44
0.1
 47
0.1
 48
0.1
 73
     0
 74
     0
 77
     1
 78
     7
 79
     2
140
0.12
141
0.0
146
0.71
147
0.06
172
     1
176
   256
177
   256
178
     2
274
     4
283
     0
284
     7
340
10
371
    -1
372
    -1
  0
DIMSTYLE
105
309
330
A
100
AcDbSymbolTableRecord
100
AcDbDimStyleTableRecord
  2
AM_DIN$3
 70
     0
  4
mm
 41
0.1
 42
0.05
 43
0.5
 44
0.1
 47
0.1
 48
0.1
 73
     0
 77
     1
 78
     7
 79
     2
140
0.12
141
0.0
146
0.71
147
0.06
176
   256
177
   256
178
     2
274
     4
283
     0
284
     7
288
     1
289
     0
340
10
371
    -1
372
    -1
  0
DIMSTYLE
105
30A
330
A
100
AcDbSymbolTableRecord
100
AcDbDimStyleTableRecord
  2
AM_DIN$4
 70
     0
  4
mm
 41
0.1
 42
0.05
 43
0.5
 44
0.1
 47
0.1
 48
0.1
 73
     0
 77
     1
 78
     7
 79
     2
140
0.12
141
0.0
146
0.71
147
0.06
176
   256
177
   256
178
     2
274
     4
283
     0
284
     7
288
     1
289
     0
340
10
371
    -1
372
    -1
  0
DIMSTYLE
105
30B
330
A
100
AcDbSymbolTableRecord
100
AcDbDimStyleTableRecord
  2
AM_DIN$6
 70
     0
  4
mm
 41
0.1
 42
0.05
 43
0.5
 44
0.1
 47
0.1
 48
0.1
 73
     0
 74
     0
 78
     7
 79
     2
140
0.12
141
0.0
146
0.71
147
0.06
172
     1
176
   256
177
   256
178
     2
274
     4
283
     0
284
     7
340
10
371
    -1
372
    -1
  0
DIMSTYLE
105
30C
330
A
100
AcDbSymbolTableRecord
100
AcDbDimStyleTableRecord
  2
AM_DIN$7
 70
     0
  4
mm
 41
0.1
 42
0.05
 43
0.5
 44
0.1
 47
0.1
 48
0.1
 73
     0
 74
     0
 77
     1
 78
     7
 79
     2
140
0.24
141
0.0
146
0.71
147
0.06
172
     1
176
   256
177
   256
178
     2
274
     4
283
     0
284
     7
340
10
371
    -1
372
    -1
  0
DIMSTYLE
105
30D
330
A
100
AcDbSymbolTableRecord
100
AcDbDimStyleTableRecord
  2
AM_DIN$SF
 70
     0
  4
mm
 41
0.1
 42
0.05
 43
0.5
 44
0.1
 47
0.1
 48
0.1
 73
     0
 74
     0
 75
     1
 76
     1
 77
     1
 78
     7
 79
     2
140
0.12
141
0.0
146
0.71
147
0.06
172
     1
176
   256
177
   256
178
     2
274
     4
283
     0
284
     7
340
10
371
    -1
372
    -1
  0
DIMSTYLE
105
30E
330
A
100
AcDbSymbolTableRecord
100
AcDbDimStyleTableRecord
  2
AM_DIN$SH
 70
     0
  4
mm
 41
0.1
 42
0.05
 43
0.5
 44
0.1
 47
0.1
 48
0.1
 73
     0
 74
     0
 75
     1
 76
     1
 77
     1
 78
     7
 79
     2
140
0.12
141
0.0
144
2.0
146
0.71
147
0.06
172
     1
173
     1
176
   256
177
   256
178
     2
274
     4
283
     0
284
     7
340
10
371
    -1
372
    -1
  0
DIMSTYLE
105
322
330
A
100
AcDbSymbolTableRecord
100
AcDbDimStyleTableRecord
  2
AM_ISO
 70
     0
  4
mm
 41
0.1
 42
0.05
 43
0.5
 44
0.1
 47
0.1
 48
0.1
 73
     0
 74
     0
 77
     1
 78
     7
 79
     2
140
0.12
141
0.0
146
0.71
147
0.06
172
     1
176
   256
177
   256
178
     2
274
     4
283
     0
284
     7
340
10
371
    -1
372
    -1
  0
DIMSTYLE
105
323
330
A
100
AcDbSymbolTableRecord
100
AcDbDimStyleTableRecord
  2
AM_ISO$3
 70
     0
  4
mm
 41
0.1
 42
0.05
 43
0.5
 44
0.1
 47
0.1
 48
0.1
 73
     0
 77
     1
 78
     7
 79
     2
140
0.12
141
0.0
146
0.71
147
0.06
176
   256
177
   256
178
     2
274
     4
283
     0
284
     7
288
     1
289
     0
340
10
371
    -1
372
    -1
  0
DIMSTYLE
105
324
330
A
100
AcDbSymbolTableRecord
100
AcDbDimStyleTableRecord
  2
AM_ISO$4
 70
     0
  4
mm
 41
0.1
 42
0.05
 43
0.5
 44
0.1
 47
0.1
 48
0.1
 73
     0
 77
     1
 78
     7
 79
     2
140
0.12
141
0.0
146
0.71
147
0.06
176
   256
177
   256
178
     2
274
     4
283
     0
284
     7
288
     1
289
     0
340
10
371
    -1
372
    -1
  0
DIMSTYLE
105
325
330
A
100
AcDbSymbolTableRecord
100
AcDbDimStyleTableRecord
  2
AM_ISO$6
 70
     0
  4
mm
 41
0.1
 42
0.05
 43
0.5
 44
0.1
 47
0.1
 48
0.1
 73
     0
 74
     0
 78
     7
 79
     2
140
0.12
141
0.0
146
0.71
147
0.06
172
     1
176
   256
177
   256
178
     2
274
     4
283
     0
284
     7
340
10
371
    -1
372
    -1
  0
DIMSTYLE
105
326
330
A
100
AcDbSymbolTableRecord
100
AcDbDimStyleTableRecord
  2
AM_ISO$7
 70
     0
  4
mm
 41
0.1
 42
0.05
 43
0.5
 44
0.1
 47
0.1
 48
0.1
 73
     0
 74
     0
 77
     1
 78
     7
 79
     2
140
0.24
141
0.0
146
0.71
147
0.06
172
     1
176
   256
177
   256
178
     2
274
     4
283
     0
284
     7
340
10
371
    -1
372
    -1
  0
DIMSTYLE
105
327
330
A
100
AcDbSymbolTableRecord
100
AcDbDimStyleTableRecord
  2
AM_ISO$SF
 70
     0
  4
mm
 41
0.1
 42
0.05
 43
0.5
 44
0.1
 47
0.1
 48
0.1
 73
     0
 74
     0
 75
     1
 76
     1
 77
     1
 78
     7
 79
     2
140
0.12
141
0.0
146
0.71
147
0.06
172
     1
176
   256
177
   256
178
     2
274
     4
283
     0
284
     7
340
10
371
    -1
372
    -1
  0
DIMSTYLE
105
328
330
A
100
AcDbSymbolTableRecord
100
AcDbDimStyleTableRecord
  2
AM_ISO$SH
 70
     0
  4
mm
 41
0.1
 42
0.05
 43
0.5
 44
0.1
 47
0.1
 48
0.1
 73
     0
 74
     0
 75
     1
 76
     1
 77
     1
 78
     7
 79
     2
140
0.12
141
0.0
144
2.0
146
0.71
147
0.06
172
     1
173
     1
176
   256
177
   256
178
     2
274
     4
283
     0
284
     7
340
10
371
    -1
372
    -1
  0
DIMSTYLE
105
33C
330
A
100
AcDbSymbolTableRecord
100
AcDbDimStyleTableRecord
  2
AM_JIS
 70
     0
  4
mm
 41
0.1
 42
0.05
 43
0.5
 44
0.1
 47
0.1
 48
0.1
 73
     0
 74
     0
 77
     3
 78
     7
 79
     2
140
0.12
141
0.0
146
0.71
147
0.06
172
     1
176
   256
177
   256
178
     2
274
     4
283
     0
284
     7
340
10
371
    -1
372
    -1
  0
DIMSTYLE
105
33D
330
A
100
AcDbSymbolTableRecord
100
AcDbDimStyleTableRecord
  2
AM_JIS$3
 70
     0
  4
mm
 41
0.1
 42
0.05
 43
0.5
 44
0.1
 47
0.1
 48
0.1
 73
     0
 77
     3
 78
     7
 79
     2
140
0.12
141
0.0
146
0.71
147
0.06
176
   256
177
   256
178
     2
274
     4
283
     0
284
     7
288
     1
289
     0
340
10
371
    -1
372
    -1
  0
DIMSTYLE
105
33E
330
A
100
AcDbSymbolTableRecord
100
AcDbDimStyleTableRecord
  2
AM_JIS$4
 70
     0
  4
mm
 41
0.1
 42
0.05
 43
0.5
 44
0.1
 47
0.1
 48
0.1
 73
     0
 77
     3
 78
     7
 79
     2
140
0.12
141
0.0
146
0.71
147
0.06
176
   256
177
   256
178
     2
274
     4
283
     0
284
     7
288
     1
289
     0
340
10
371
    -1
372
    -1
  0
DIMSTYLE
105
33F
330
A
100
AcDbSymbolTableRecord
100
AcDbDimStyleTableRecord
  2
AM_JIS$6
 70
     0
  4
mm
 41
0.1
 42
0.05
 43
0.5
 44
0.1
 47
0.1
 48
0.1
 73
     0
 74
     0
 78
     7
 79
     2
140
0.12
141
0.0
146
0.71
147
0.06
172
     1
176
   256
177
   256
178
     2
274
     4
283
     0
284
     7
340
10
371
    -1
372
    -1
  0
DIMSTYLE
105
340
330
A
100
AcDbSymbolTableRecord
100
AcDbDimStyleTableRecord
  2
AM_JIS$7
 70
     0
  4
mm
 41
0.1
 42
0.05
 43
0.5
 44
0.1
 47
0.1
 48
0.1
 73
     0
 74
     0
 77
     3
 78
     7
 79
     2
140
0.24
141
0.0
146
0.71
147
0.06
172
     1
176
   256
177
   256
178
     2
274
     4
283
     0
284
     7
340
10
371
    -1
372
    -1
  0
DIMSTYLE
105
341
330
A
100
AcDbSymbolTableRecord
100
AcDbDimStyleTableRecord
  2
AM_JIS$SF
 70
     0
  4
mm
 41
0.1
 42
0.05
 43
0.5
 44
0.1
 47
0.1
 48
0.1
 73
     0
 74
     0
 75
     1
 76
     1
 77
     3
 78
     7
 79
     2
140
0.12
141
0.0
146
0.71
147
0.06
172
     1
176
   256
177
   256
178
     2
274
     4
283
     0
284
     7
340
10
371
    -1
372
    -1
  0
DIMSTYLE
105
342
330
A
100
AcDbSymbolTableRecord
100
AcDbDimStyleTableRecord
  2
AM_JIS$SH
 70
     0
  4
mm
 41
0.1
 42
0.05
 43
0.5
 44
0.1
 47
0.1
 48
0.1
 73
     0
 74
     0
 75
     1
 76
     1
 77
     3
 78
     7
 79
     2
140
0.12
141
0.0
144
2.0
146
0.71
147
0.06
172
     1
173
     1
176
   256
177
   256
178
     2
274
     4
283
     0
284
     7
340
10
371
    -1
372
    -1
  0
ENDTAB
  0
TABLE
  2
BLOCK_RECORD
  5
1
330
0
100
AcDbSymbolTable
 70
    15
  0
BLOCK_RECORD
  5
19
102
{ACAD_XDICTIONARY
360
11F
102
}
330
1
100
AcDbSymbolTableRecord
100
AcDbBlockTableRecord
  2
*MODEL_SPACE
340
152
  0
BLOCK_RECORD
  5
16
330
1
100
AcDbSymbolTableRecord
100
AcDbBlockTableRecord
  2
*PAPER_SPACE
340
153
  0
BLOCK_RECORD
  5
2A7
330
1
100
AcDbSymbolTableRecord
100
AcDbBlockTableRecord
  2
_Open30
340
0
  0
BLOCK_RECORD
  5
2AD
330
1
100
AcDbSymbolTableRecord
100
AcDbBlockTableRecord
  2
GENAXEH
340
0
  0
BLOCK_RECORD
  5
C8B
102
{ACAD_XDICTIONARY
360
C8D
102
}
330
1
100
AcDbSymbolTableRecord
100
AcDbBlockTableRecord
  2
A$C4BBE29C1
340
0
1001
ACAD
1000
DesignCenter Data
1002
{
1070
     1
1070
     1
1002
}
  0
BLOCK_RECORD
  5
165D
102
{ACAD_XDICTIONARY
360
165E
102
}
330
1
100
AcDbSymbolTableRecord
100
AcDbBlockTableRecord
  2
A$C1BF10977
340
0
102
{BLKREFS
331
1668
102
}
1001
ACAD
1000
DesignCenter Data
1002
{
1070
     1
1070
     1
1002
}
  0
BLOCK_RECORD
  5
1667
102
{ACAD_XDICTIONARY
360
1669
102
}
330
1
100
AcDbSymbolTableRecord
100
AcDbBlockTableRecord
  2
A$C46157330
340
0
102
{BLKREFS
331
166E
102
}
1001
ACAD
1000
DesignCenter Data
1002
{
1070
     1
1070
     1
1002
}
  0
ENDTAB
  0
ENDSEC
  0
SECTION
  2
BLOCKS
  0
BLOCK
  5
1A
330
19
100
AcDbEntity
  8
0
100
AcDbBlockBegin
  2
*MODEL_SPACE
 70
     0
 10
0.0
 20
0.0
 30
0.0
  3
*MODEL_SPACE
  1

  0
ENDBLK
  5
1B
330
19
100
AcDbEntity
  8
0
100
AcDbBlockEnd
  0
BLOCK
  5
17
330
16
100
AcDbEntity
 67
     1
  8
0
100
AcDbBlockBegin
  2
*PAPER_SPACE
 70
     0
 10
0.0
 20
0.0
 30
0.0
  3
*PAPER_SPACE
  1

  0
ENDBLK
  5
18
330
16
100
AcDbEntity
 67
     1
  8
0
100
AcDbBlockEnd
  0
BLOCK
  5
2AB
330
2A7
100
AcDbEntity
  8
0
100
AcDbBlockBegin
  2
_Open30
 70
     0
 10
0.0
 20
0.0
 30
0.0
  3
_Open30
  1

  0
LINE
  5
2A8
330
2A7
100
AcDbEntity
  8
0
  6
ByBlock
 62
     0
370
    -2
100
AcDbLine
 10
-1.0
 20
0.26794919
 30
0.0
 11
0.0
 21
0.0
 31
0.0
  0
LINE
  5
2A9
330
2A7
100
AcDbEntity
  8
0
  6
ByBlock
 62
     0
370
    -2
100
AcDbLine
 10
0.0
 20
0.0
 30
0.0
 11
-1.0
 21
-0.26794919
 31
0.0
  0
LINE
  5
2AA
330
2A7
100
AcDbEntity
  8
0
  6
ByBlock
 62
     0
370
    -2
100
AcDbLine
 10
0.0
 20
0.0
 30
0.0
 11
-1.0
 21
0.0
 31
0.0
  0
ENDBLK
  5
2AC
330
2A7
100
AcDbEntity
  8
0
100
AcDbBlockEnd
  0
BLOCK
  5
2AF
330
2AD
100
AcDbEntity
  8
0
100
AcDbBlockBegin
  2
GENAXEH
 70
     0
 10
0.0
 20
0.0
 30
0.0
  3
GENAXEH
  1

  0
LINE
  5
2AE
330
2AD
100
AcDbEntity
  8
0
100
AcDbLine
 10
-1.0
 20
0.0
 30
0.0
 11
1.0
 21
0.0
 31
0.0
  0
ENDBLK
  5
2B0
330
2AD
100
AcDbEntity
  8
0
100
AcDbBlockEnd
  0
BLOCK
  5
C8F
330
C8B
100
AcDbEntity
  8
0
100
AcDbBlockBegin
  2
A$C4BBE29C1
 70
     0
 10
0.0
 20
0.0
 30
0.0
  3
A$C4BBE29C1
  1

  0
MTEXT
  5
C8C
330
C8B
100
AcDbEntity
  8
Notes
370
     0
100
AcDbMText
 10
0.0515143135118166
 20
0.277785081671599
 30
0.0
 40
0.2
 41
3.019983788495805
 71
     1
 72
     5
  1
BACK VIEW
 73
     1
 44
1.0
1001
ACAD
1000
MTEXTBEGIN
1070
    73
1070
     1
1070
    44
1040
1.0
1070
    74
1070
     0
1000
MTEXTEND
  0
ENDBLK
  5
C90
330
C8B
100
AcDbEntity
  8
0
100
AcDbBlockEnd
  0
BLOCK
  5
1660
330
165D
100
AcDbEntity
  8
0
100
AcDbBlockBegin
  2
A$C1BF10977
 70
     0
 10
0.0
 20
0.0
 30
0.0
  3
A$C1BF10977
  1

  0
MTEXT
  5
1661
330
165D
100
AcDbEntity
  8
0
100
AcDbMText
 10
0.3171433408724198
 20
-0.7389514448316846
 30
0.0
 40
0.125
 41
0.6342866817448503
 71
     5
 72
     5
  1
2
 73
     1
 44
1.0
1001
ACAD
1000
MTEXTBEGIN
1070
    73
1070
     1
1070
    44
1040
1.0
1070
    74
1070
     0
1000
MTEXTEND
1000
ACAD_MTEXT_DEFINED_HEIGHT_BEGIN
1070
    46
1040
0.2499999999999993
1000
ACAD_MTEXT_DEFINED_HEIGHT_END
  0
MTEXT
  5
1662
330
165D
100
AcDbEntity
  8
0
100
AcDbMText
 10
2.81379436502096
 20
-0.7360126418230735
 30
0.0
 40
0.125
 41
4.359015366552219
 71
     5
 72
     5
  1
DIMENSIONS REMOVED, TERMINAL \PDESIGNATION CORRECTED
 73
     1
 44
1.0
1001
ACAD
1000
MTEXTBEGIN
1070
    73
1070
     1
1070
    44
1040
1.0
1070
    74
1070
     0
1000
MTEXTEND
1000
ACAD_MTEXT_DEFINED_HEIGHT_BEGIN
1070
    46
1040
0.1292633015006892
1000
ACAD_MTEXT_DEFINED_HEIGHT_END
  0
MTEXT
  5
1663
330
165D
100
AcDbEntity
  8
0
100
AcDbMText
 10
5.371651024148526
 20
-0.7389514448316846
 30
0.0
 40
0.125
 41
0.7566979517029218
 71
     5
 72
     5
  1
11/08
 73
     1
 44
1.0
1001
ACAD
1000
MTEXTBEGIN
1070
    73
1070
     1
1070
    44
1040
1.0
1070
    74
1070
     0
1000
MTEXTEND
1000
ACAD_MTEXT_DEFINED_HEIGHT_BEGIN
1070
    46
1040
0.25
1000
ACAD_MTEXT_DEFINED_HEIGHT_END
  0
LINE
  5
1664
330
165D
100
AcDbEntity
  8
0
100
AcDbLine
 10
0.0
 20
-1.0
 30
0.0
 11
5.75
 21
-1.0
 31
0.0
  0
ENDBLK
  5
1665
330
165D
100
AcDbEntity
  8
0
100
AcDbBlockEnd
  0
BLOCK
  5
166B
330
1667
100
AcDbEntity
  8
0
100
AcDbBlockBegin
  2
A$C46157330
 70
     0
 10
0.0
 20
0.0
 30
0.0
  3
A$C46157330
  1

  0
INSERT
  5
1668
330
1667
100
AcDbEntity
  8
0
100
AcDbBlockReference
  2
A$C1BF10977
 10
0.0
 20
0.0
 30
0.0
  0
ENDBLK
  5
166C
330
1667
100
AcDbEntity
  8
0
100
AcDbBlockEnd
  0
ENDSEC
  0
SECTION
  2
ENTITIES
  0
LINE
  5
5FF
330
19
100
AcDbEntity
  8
Part
100
AcDbLine
 10
37.58701808999672
 20
31.52623190760876
 30
0.0
 11
39.41001808999672
 21
31.52623190760876
 31
0.0
  0
LINE
  5
600
330
19
100
AcDbEntity
  8
Part
100
AcDbLine
 10
37.58701808999672
 20
29.12523190760876
 30
0.0
 11
39.41001808999672
 21
29.12523190760876
 31
0.0
  0
ARC
  5
607
330
19
100
AcDbEntity
  8
Part
100
AcDbCircle
 10
38.55005997367729
 20
30.32573190760877
 30
0.0
 40
1.539041883680565
100
AcDbArc
 50
128.7366087619058
 51
231.2633912380939
  0
ARC
  5
608
330
19
100
AcDbEntity
  8
Part
100
AcDbCircle
 10
38.44697620631616
 20
30.32573190760877
 30
0.0
 40
1.539041883680565
100
AcDbArc
 50
308.7366087619059
 51
51.26339123809419
  0
LINE
  5
60A
330
19
100
AcDbEntity
  8
Part
100
AcDbLine
 10
39.35451808999673
 20
31.48923190760875
 30
0.0
 11
39.35451808999673
 21
31.38673190760876
 31
0.0
  0
LINE
  5
60B
330
19
100
AcDbEntity
  8
Part
100
AcDbLine
 10
37.64251808999672
 20
31.48923190760877
 30
0.0
 11
37.64251808999672
 21
31.38673190760876
 31
0.0
  0
CIRCLE
  5
60D
330
19
100
AcDbEntity
  8
Part
100
AcDbCircle
 10
37.75601808999673
 20
31.38673190760876
 30
0.0
 40
0.1135
  0
CIRCLE
  5
60E
330
19
100
AcDbEntity
  8
Part
100
AcDbCircle
 10
39.24101808999672
 20
31.38673190760876
 30
0.0
 40
0.1135
  0
LWPOLYLINE
  5
610
330
19
100
AcDbEntity
  8
Part
100
AcDbPolyline
 90
        6
 70
     1
 43
0.0
 10
37.83309435093354
 20
31.43123190760876
 10
37.75601808999673
 20
31.47573190760876
 10
37.67894182905991
 20
31.43123190760876
 10
37.67894182905991
 20
31.34223190760876
 10
37.75601808999673
 20
31.29773190760877
 10
37.83309435093354
 20
31.34223190760876
  0
LWPOLYLINE
  5
611
330
19
100
AcDbEntity
  8
Part
100
AcDbPolyline
 90
        6
 70
     1
 43
0.0
 10
39.16394182905991
 20
31.43123190760876
 10
39.24101808999672
 20
31.47573190760876
 10
39.31809435093354
 20
31.43123190760876
 10
39.31809435093354
 20
31.34223190760876
 10
39.24101808999672
 20
31.29773190760877
 10
39.16394182905991
 20
31.34223190760876
  0
LINE
  5
615
330
19
100
AcDbEntity
  8
Part
100
AcDbLine
 10
37.81259435093354
 20
31.44306758812715
 30
0.0
 11
37.67894182905991
 21
31.36590326864554
 31
0.0
  0
LINE
  5
616
330
19
100
AcDbEntity
  8
Part
100
AcDbLine
 10
37.83309435093354
 20
31.40756054657199
 30
0.0
 11
37.69944182905991
 21
31.33039622709038
 31
0.0
  0
LINE
  5
617
330
19
100
AcDbEntity
  8
Part
100
AcDbLine
 10
39.16394182905991
 20
31.40756054657199
 30
0.0
 11
39.29759435093354
 21
31.33039622709038
 31
0.0
  0
LINE
  5
618
330
19
100
AcDbEntity
  8
Part
100
AcDbLine
 10
39.18444182905991
 20
31.44306758812715
 30
0.0
 11
39.31809435093354
 21
31.36590326864554
 31
0.0
  0
LINE
  5
619
330
19
100
AcDbEntity
  8
Part
100
AcDbLine
 10
37.86951808999673
 20
31.48923190760877
 30
0.0
 11
39.12751808999671
 21
31.48923190760876
 31
0.0
  0
LINE
  5
61A
330
19
100
AcDbEntity
  8
Part
100
AcDbLine
 10
37.86951808999673
 20
31.38673190760876
 30
0.0
 11
37.86951808999673
 21
31.48923190760876
 31
0.0
  0
LINE
  5
61B
330
19
100
AcDbEntity
  8
Part
100
AcDbLine
 10
37.64251808999672
 20
31.48923190760877
 30
0.0
 11
37.58125113002495
 21
31.48923190760876
 31
0.0
  0
LINE
  5
61C
330
19
100
AcDbEntity
  8
Part
100
AcDbLine
 10
39.12751808999672
 20
31.38673190760876
 30
0.0
 11
39.12751808999672
 21
31.48923190760876
 31
0.0
  0
LINE
  5
61E
330
19
100
AcDbEntity
  8
Part
100
AcDbLine
 10
39.35451808999673
 20
31.48923190760876
 30
0.0
 11
39.41578504996851
 21
31.48923190760876
 31
0.0
  0
LINE
  5
621
330
19
100
AcDbEntity
  8
Part
100
AcDbLine
 10
37.91401808999672
 20
29.16223190760874
 30
0.0
 11
39.08301808999672
 21
29.16223190760875
 31
0.0
  0
LINE
  5
622
330
19
100
AcDbEntity
  8
Part
100
AcDbLine
 10
39.39901808999672
 20
29.16223190760875
 30
0.0
 11
39.41578504996851
 21
29.16223190760875
 31
0.0
  0
CIRCLE
  5
625
330
19
100
AcDbEntity
  8
Part
100
AcDbCircle
 10
37.75601808999673
 20
29.26473190760875
 30
0.0
 40
0.1135
  0
CIRCLE
  5
626
330
19
100
AcDbEntity
  8
Part
100
AcDbCircle
 10
39.24101808999672
 20
29.26473190760875
 30
0.0
 40
0.1135
  0
LWPOLYLINE
  5
627
330
19
100
AcDbEntity
  8
Part
100
AcDbPolyline
 90
        6
 70
     1
 43
0.0
 10
37.83309435093354
 20
29.22023190760875
 10
37.75601808999673
 20
29.17573190760876
 10
37.67894182905991
 20
29.22023190760875
 10
37.67894182905991
 20
29.30923190760875
 10
37.75601808999673
 20
29.35373190760875
 10
37.83309435093354
 20
29.30923190760875
  0
LWPOLYLINE
  5
628
330
19
100
AcDbEntity
  8
Part
100
AcDbPolyline
 90
        6
 70
     1
 43
0.0
 10
39.16394182905991
 20
29.22023190760875
 10
39.24101808999672
 20
29.17573190760876
 10
39.31809435093354
 20
29.22023190760875
 10
39.31809435093354
 20
29.30923190760875
 10
39.24101808999672
 20
29.35373190760875
 10
39.16394182905991
 20
29.30923190760875
  0
LINE
  5
629
330
19
100
AcDbEntity
  8
Part
100
AcDbLine
 10
37.83309435093354
 20
29.24390326864553
 30
0.0
 11
37.69944182905991
 21
29.32106758812714
 31
0.0
  0
LINE
  5
62A
330
19
100
AcDbEntity
  8
Part
100
AcDbLine
 10
37.81259435093354
 20
29.20839622709036
 30
0.0
 11
37.67894182905991
 21
29.28556054657197
 31
0.0
  0
LINE
  5
62B
330
19
100
AcDbEntity
  8
Part
100
AcDbLine
 10
39.16394182905991
 20
29.24390326864553
 30
0.0
 11
39.29759435093354
 21
29.32106758812714
 31
0.0
  0
LINE
  5
62C
330
19
100
AcDbEntity
  8
Part
100
AcDbLine
 10
39.18444182905991
 20
29.20839622709036
 30
0.0
 11
39.31809435093354
 21
29.28556054657197
 31
0.0
  0
LINE
  5
62E
330
19
100
AcDbEntity
  8
Part
100
AcDbLine
 10
37.59801808999672
 20
29.16223190760874
 30
0.0
 11
37.58125113002495
 21
29.16223190760874
 31
0.0
  0
MTEXT
  5
631
330
19
100
AcDbEntity
  8
Labels
100
AcDbMText
 10
38.19642753946236
 20
31.33934234099372
 30
0.0
 40
0.195
 41
0.9102745717214943
 71
     5
 72
     5
  1
{\fArial|b1|i0|c0|p34;\W0.8;ACX}
  7
ADESK1
 73
     1
 44
1.0
1001
ACAD
1000
MTEXTBEGIN
1070
    73
1070
     1
1070
    44
1040
1.0
1070
    74
1070
     0
1000
MTEXTEND
  0
MTEXT
  5
633
330
19
100
AcDbEntity
  8
Labels
100
AcDbMText
 10
38.48225154945322
 20
31.33589203664158
 30
0.0
 40
0.069
 41
0.6284733957883831
 71
     4
 72
     5
  1
{\fArial|b0|i0|c0|p34;\W0.8;AC CURRENT\PTRANSMITTER}
  7
ADESK1
 73
     1
 44
1.0
1001
ACAD
1000
MTEXTBEGIN
1070
    73
1070
     1
1070
    44
1040
1.0
1070
    74
1070
     0
1000
MTEXTEND
  0
LINE
  5
635
330
19
100
AcDbEntity
  8
Part
100
AcDbLine
 10
39.12201808999672
 20
30.80323190760875
 30
0.0
 11
37.86301808999671
 21
30.80323190760875
 31
0.0
  0
LINE
  5
636
330
19
100
AcDbEntity
  8
Part
100
AcDbLine
 10
39.12201808999673
 20
29.84823190760876
 30
0.0
 11
37.86301808999672
 21
29.84823190760876
 31
0.0
  0
LINE
  5
638
330
19
100
AcDbEntity
  8
Part
100
AcDbLine
 10
39.39001808999673
 20
30.20531473139691
 30
0.0
 11
39.39001808999673
 21
30.44614908382059
 31
0.0
  0
LINE
  5
63B
330
19
100
AcDbEntity
  8
Part
100
AcDbLine
 10
39.12201808999672
 20
29.84823190760875
 30
0.0
 11
39.12201808999672
 21
29.93114908382059
 31
0.0
  0
LINE
  5
63C
330
19
100
AcDbEntity
  8
Part
100
AcDbLine
 10
39.34151469525338
 20
30.531870141018
 30
0.0
 11
39.17052148474008
 21
30.63459367419949
 31
0.0
  0
LINE
  5
63D
330
19
100
AcDbEntity
  8
Part
100
AcDbLine
 10
39.34151469525338
 20
30.1195936741995
 30
0.0
 11
39.17052148474007
 21
30.01687014101799
 31
0.0
  0
LINE
  5
63E
330
19
100
AcDbEntity
  8
Part
100
AcDbLine
 10
39.12201808999673
 20
30.7203147313969
 30
0.0
 11
39.12201808999673
 21
30.80323190760875
 31
0.0
  0
ARC
  5
63F
330
19
100
AcDbEntity
  8
Part
100
AcDbCircle
 10
39.22201808999672
 20
29.93114908382059
 30
0.0
 40
0.1
100
AcDbArc
 50
120.9951859197677
 51
179.9999999999971
  0
ARC
  5
640
330
19
100
AcDbEntity
  8
Part
100
AcDbCircle
 10
39.22201808999673
 20
30.7203147313969
 30
0.0
 40
0.1
100
AcDbArc
 50
180.0
 51
239.0048140802322
  0
ARC
  5
641
330
19
100
AcDbEntity
  8
Part
100
AcDbCircle
 10
39.29001808999673
 20
30.44614908382059
 30
0.0
 40
0.1
100
AcDbArc
 50
0.0
 51
59.00481408023171
  0
ARC
  5
642
330
19
100
AcDbEntity
  8
Part
100
AcDbCircle
 10
39.29001808999673
 20
30.20531473139691
 30
0.0
 40
0.1
100
AcDbArc
 50
300.9951859197681
 51
0.0
  0
CIRCLE
  5
644
330
19
100
AcDbEntity
  8
Part
100
AcDbCircle
 10
39.26751808999673
 20
30.32573190760875
 30
0.0
 40
0.1115
  0
LINE
  5
649
330
19
100
AcDbEntity
  8
Part
100
AcDbLine
 10
39.20409654210813
 20
30.4174377267448
 30
0.0
 11
39.35922390913278
 21
30.26231035972016
 31
0.0
  0
LINE
  5
64A
330
19
100
AcDbEntity
  8
Part
100
AcDbLine
 10
39.17581227086066
 20
30.38915345549733
 30
0.0
 11
39.33093963788532
 21
30.23402608847269
 31
0.0
  0
LINE
  5
64C
330
19
100
AcDbEntity
  8
Part
100
AcDbLine
 10
37.59501808999671
 20
30.20531473139691
 30
0.0
 11
37.59501808999671
 21
30.44614908382059
 31
0.0
  0
ARC
  5
64D
330
19
100
AcDbEntity
  8
Part
100
AcDbCircle
 10
37.69501808999673
 20
30.44614908382059
 30
0.0
 40
0.1
100
AcDbArc
 50
120.9951859197681
 51
180.0
  0
LINE
  5
64E
330
19
100
AcDbEntity
  8
Part
100
AcDbLine
 10
37.86301808999672
 20
29.84823190760875
 30
0.0
 11
37.86301808999672
 21
29.93114908382059
 31
0.0
  0
ARC
  5
64F
330
19
100
AcDbEntity
  8
Part
100
AcDbCircle
 10
37.76301808999672
 20
29.93114908382059
 30
0.0
 40
0.1
100
AcDbArc
 50
0.0000000000029077
 51
59.00481408023203
  0
LINE
  5
650
330
19
100
AcDbEntity
  8
Part
100
AcDbLine
 10
37.86301808999672
 20
30.7203147313969
 30
0.0
 11
37.86301808999672
 21
30.80323190760875
 31
0.0
  0
ARC
  5
651
330
19
100
AcDbEntity
  8
Part
100
AcDbCircle
 10
37.76301808999671
 20
30.7203147313969
 30
0.0
 40
0.1
100
AcDbArc
 50
300.995185919768
 51
0.000000000000007
  0
LINE
  5
652
330
19
100
AcDbEntity
  8
Part
100
AcDbLine
 10
37.64352148474007
 20
30.531870141018
 30
0.0
 11
37.81451469525336
 21
30.63459367419949
 31
0.0
  0
LINE
  5
653
330
19
100
AcDbEntity
  8
Part
100
AcDbLine
 10
37.64352148474007
 20
30.1195936741995
 30
0.0
 11
37.81451469525336
 21
30.01687014101799
 31
0.0
  0
ARC
  5
654
330
19
100
AcDbEntity
  8
Part
100
AcDbCircle
 10
37.69501808999673
 20
30.20531473139691
 30
0.0
 40
0.1
100
AcDbArc
 50
180.0
 51
239.004814080232
  0
CIRCLE
  5
655
330
19
100
AcDbEntity
  8
Part
100
AcDbCircle
 10
37.71751808999672
 20
30.32573190760875
 30
0.0
 40
0.1115
  0
LINE
  5
656
330
19
100
AcDbEntity
  8
Part
100
AcDbLine
 10
37.78093963788531
 20
30.4174377267448
 30
0.0
 11
37.62581227086066
 21
30.26231035972016
 31
0.0
  0
LINE
  5
657
330
19
100
AcDbEntity
  8
Part
100
AcDbLine
 10
37.80922390913278
 20
30.38915345549733
 30
0.0
 11
37.65409654210813
 21
30.23402608847269
 31
0.0
  0
MTEXT
  5
658
330
19
100
AcDbEntity
  8
Part
100
AcDbMText
 10
37.91538528712417
 20
30.33117810479129
 30
0.0
 40
0.0594730348839037
 41
0.1125258330818951
 71
     5
 72
     5
  1
{\fArial|b0|i0|c0|p34;\W0.8;B\PU\PC\PH\PA\PN\PA\PN}
  7
ADESK1
 73
     1
 44
1.0
1001
ACAD
1000
MTEXTBEGIN
1070
    73
1070
     1
1070
    44
1040
1.0
1070
    74
1070
     0
1000
MTEXTEND
  0
CIRCLE
  5
65B
330
19
100
AcDbEntity
  8
Part
100
AcDbCircle
 10
38.10601808999672
 20
30.59873190760875
 30
0.0
 40
0.0955
  0
CIRCLE
  5
65C
330
19
100
AcDbEntity
  8
Part
100
AcDbCircle
 10
38.41401808999672
 20
30.59873190760875
 30
0.0
 40
0.0955
  0
CIRCLE
  5
65D
330
19
100
AcDbEntity
  8
Part
100
AcDbCircle
 10
38.72201808999672
 20
30.59873190760875
 30
0.0
 40
0.0955
  0
CIRCLE
  5
65E
330
19
100
AcDbEntity
  8
Part
100
AcDbCircle
 10
38.28101808999673
 20
30.05273190760874
 30
0.0
 40
0.0955
  0
CIRCLE
  5
65F
330
19
100
AcDbEntity
  8
Part
100
AcDbCircle
 10
38.58901808999673
 20
30.05273190760874
 30
0.0
 40
0.0955
  0
CIRCLE
  5
660
330
19
100
AcDbEntity
  8
Part
100
AcDbCircle
 10
38.89701808999673
 20
30.05273190760874
 30
0.0
 40
0.0955
  0
MTEXT
  5
662
330
19
100
AcDbEntity
  8
Part
100
AcDbMText
 10
38.10366526141658
 20
30.45586944799325
 30
0.0
 40
0.0594730348839037
 41
0.1125258330818951
 71
     5
 72
     5
  1
{\fArial|b0|i0|c0|p34;\W0.8;1}
  7
ADESK1
 73
     1
 44
1.0
1001
ACAD
1000
MTEXTBEGIN
1070
    73
1070
     1
1070
    44
1040
1.0
1070
    74
1070
     0
1000
MTEXTEND
  0
MTEXT
  5
663
330
19
100
AcDbEntity
  8
Part
100
AcDbMText
 10
38.41166526141658
 20
30.45586944799325
 30
0.0
 40
0.0594730348839037
 41
0.1125258330818951
 71
     5
 72
     5
  1
{\fArial|b0|i0|c0|p34;\W0.8;3}
  7
ADESK1
 73
     1
 44
1.0
1001
ACAD
1000
MTEXTBEGIN
1070
    73
1070
     1
1070
    44
1040
1.0
1070
    74
1070
     0
1000
MTEXTEND
  0
MTEXT
  5
664
330
19
100
AcDbEntity
  8
Part
100
AcDbMText
 10
38.71966526141657
 20
30.45586944799325
 30
0.0
 40
0.0594730348839037
 41
0.1125258330818951
 71
     5
 72
     5
  1
{\fArial|b0|i0|c0|p34;\W0.8;5}
  7
ADESK1
 73
     1
 44
1.0
1001
ACAD
1000
MTEXTBEGIN
1070
    73
1070
     1
1070
    44
1040
1.0
1070
    74
1070
     0
1000
MTEXTEND
  0
MTEXT
  5
665
330
19
100
AcDbEntity
  8
Part
100
AcDbMText
 10
38.27866526141658
 20
30.20594354681336
 30
0.0
 40
0.0594730348839037
 41
0.1125258330818951
 71
     5
 72
     5
  1
{\fArial|b0|i0|c0|p34;\W0.8;2}
  7
ADESK1
 73
     1
 44
1.0
1001
ACAD
1000
MTEXTBEGIN
1070
    73
1070
     1
1070
    44
1040
1.0
1070
    74
1070
     0
1000
MTEXTEND
  0
MTEXT
  5
666
330
19
100
AcDbEntity
  8
Part
100
AcDbMText
 10
38.58666526141659
 20
30.20594354681336
 30
0.0
 40
0.0594730348839037
 41
0.1125258330818951
 71
     5
 72
     5
  1
{\fArial|b0|i0|c0|p34;\W0.8;4}
  7
ADESK1
 73
     1
 44
1.0
1001
ACAD
1000
MTEXTBEGIN
1070
    73
1070
     1
1070
    44
1040
1.0
1070
    74
1070
     0
1000
MTEXTEND
  0
MTEXT
  5
667
330
19
100
AcDbEntity
  8
Part
100
AcDbMText
 10
38.89466526141659
 20
30.20594354681336
 30
0.0
 40
0.0594730348839037
 41
0.1125258330818951
 71
     5
 72
     5
  1
{\fArial|b0|i0|c0|p34;\W0.8;6}
  7
ADESK1
 73
     1
 44
1.0
1001
ACAD
1000
MTEXTBEGIN
1070
    73
1070
     1
1070
    44
1040
1.0
1070
    74
1070
     0
1000
MTEXTEND
  0
LINE
  5
669
330
19
100
AcDbEntity
  8
Part
100
AcDbLine
 10
38.08160869757419
 20
30.68873190760875
 30
0.0
 11
38.08160869757421
 21
30.62314130003128
 31
0.0
  0
LINE
  5
66A
330
19
100
AcDbEntity
  8
Part
100
AcDbLine
 10
38.13042748241923
 20
30.68873190760875
 30
0.0
 11
38.13042748241925
 21
30.62314130003128
 31
0.0
  0
LINE
  5
66B
330
19
100
AcDbEntity
  8
Part
100
AcDbLine
 10
38.08160869757421
 20
30.50868927392032
 30
0.0
 11
38.13042748241925
 21
30.50868927392032
 31
0.0
  0
LINE
  5
67E
330
19
100
AcDbEntity
  8
Part
100
AcDbLine
 10
38.08160869757421
 20
30.68873190760875
 30
0.0
 11
38.13042748241925
 21
30.68873190760875
 31
0.0
  0
LINE
  5
67F
330
19
100
AcDbEntity
  8
Part
100
AcDbLine
 10
38.19601808999672
 20
30.62314130003128
 30
0.0
 11
38.13042748241925
 21
30.62314130003128
 31
0.0
  0
LINE
  5
680
330
19
100
AcDbEntity
  8
Part
100
AcDbLine
 10
38.19601808999672
 20
30.57432251518624
 30
0.0
 11
38.13042748241925
 21
30.57432251518624
 31
0.0
  0
LINE
  5
681
330
19
100
AcDbEntity
  8
Part
100
AcDbLine
 10
38.01597545630828
 20
30.62314130003127
 30
0.0
 11
38.01597545630828
 21
30.57432251518623
 31
0.0
  0
LINE
  5
682
330
19
100
AcDbEntity
  8
Part
100
AcDbLine
 10
38.19601808999672
 20
30.62314130003127
 30
0.0
 11
38.19601808999672
 21
30.57432251518623
 31
0.0
  0
LINE
  5
683
330
19
100
AcDbEntity
  8
Part
100
AcDbLine
 10
38.13042748241925
 20
30.57432251518624
 30
0.0
 11
38.13042748241925
 21
30.50868927392032
 31
0.0
  0
LINE
  5
684
330
19
100
AcDbEntity
  8
Part
100
AcDbLine
 10
38.08160869757421
 20
30.57432251518624
 30
0.0
 11
38.08160869757421
 21
30.50868927392032
 31
0.0
  0
LINE
  5
685
330
19
100
AcDbEntity
  8
Part
100
AcDbLine
 10
38.08160869757421
 20
30.62314130003128
 30
0.0
 11
38.01597545630828
 21
30.62314130003127
 31
0.0
  0
LINE
  5
686
330
19
100
AcDbEntity
  8
Part
100
AcDbLine
 10
38.08160869757421
 20
30.57432251518624
 30
0.0
 11
38.01597545630828
 21
30.57432251518623
 31
0.0
  0
LINE
  5
687
330
19
100
AcDbEntity
  8
Part
100
AcDbLine
 10
38.38960869757419
 20
30.68873190760875
 30
0.0
 11
38.3896086975742
 21
30.62314130003128
 31
0.0
  0
LINE
  5
688
330
19
100
AcDbEntity
  8
Part
100
AcDbLine
 10
38.3896086975742
 20
30.57432251518624
 30
0.0
 11
38.3896086975742
 21
30.50868927392032
 31
0.0
  0
LINE
  5
689
330
19
100
AcDbEntity
  8
Part
100
AcDbLine
 10
38.43842748241923
 20
30.68873190760875
 30
0.0
 11
38.43842748241924
 21
30.62314130003128
 31
0.0
  0
LINE
  5
68A
330
19
100
AcDbEntity
  8
Part
100
AcDbLine
 10
38.43842748241924
 20
30.57432251518624
 30
0.0
 11
38.43842748241924
 21
30.50868927392032
 31
0.0
  0
LINE
  5
68B
330
19
100
AcDbEntity
  8
Part
100
AcDbLine
 10
38.3896086975742
 20
30.50868927392032
 30
0.0
 11
38.43842748241924
 21
30.50868927392032
 31
0.0
  0
LINE
  5
68C
330
19
100
AcDbEntity
  8
Part
100
AcDbLine
 10
38.3896086975742
 20
30.68873190760875
 30
0.0
 11
38.43842748241924
 21
30.68873190760875
 31
0.0
  0
LINE
  5
68D
330
19
100
AcDbEntity
  8
Part
100
AcDbLine
 10
38.50401808999672
 20
30.62314130003128
 30
0.0
 11
38.43842748241924
 21
30.62314130003128
 31
0.0
  0
LINE
  5
68E
330
19
100
AcDbEntity
  8
Part
100
AcDbLine
 10
38.3896086975742
 20
30.62314130003128
 30
0.0
 11
38.32397545630828
 21
30.62314130003127
 31
0.0
  0
LINE
  5
68F
330
19
100
AcDbEntity
  8
Part
100
AcDbLine
 10
38.50401808999672
 20
30.57432251518624
 30
0.0
 11
38.43842748241924
 21
30.57432251518624
 31
0.0
  0
LINE
  5
690
330
19
100
AcDbEntity
  8
Part
100
AcDbLine
 10
38.3896086975742
 20
30.57432251518624
 30
0.0
 11
38.32397545630828
 21
30.57432251518623
 31
0.0
  0
LINE
  5
691
330
19
100
AcDbEntity
  8
Part
100
AcDbLine
 10
38.32397545630828
 20
30.62314130003127
 30
0.0
 11
38.32397545630828
 21
30.57432251518623
 31
0.0
  0
LINE
  5
692
330
19
100
AcDbEntity
  8
Part
100
AcDbLine
 10
38.50401808999672
 20
30.62314130003127
 30
0.0
 11
38.50401808999672
 21
30.57432251518623
 31
0.0
  0
LINE
  5
693
330
19
100
AcDbEntity
  8
Part
100
AcDbLine
 10
38.69760869757419
 20
30.68873190760875
 30
0.0
 11
38.69760869757421
 21
30.62314130003128
 31
0.0
  0
LINE
  5
694
330
19
100
AcDbEntity
  8
Part
100
AcDbLine
 10
38.69760869757421
 20
30.57432251518624
 30
0.0
 11
38.69760869757421
 21
30.50868927392032
 31
0.0
  0
LINE
  5
695
330
19
100
AcDbEntity
  8
Part
100
AcDbLine
 10
38.74642748241923
 20
30.68873190760875
 30
0.0
 11
38.74642748241925
 21
30.62314130003128
 31
0.0
  0
LINE
  5
696
330
19
100
AcDbEntity
  8
Part
100
AcDbLine
 10
38.74642748241925
 20
30.57432251518624
 30
0.0
 11
38.74642748241925
 21
30.50868927392032
 31
0.0
  0
LINE
  5
697
330
19
100
AcDbEntity
  8
Part
100
AcDbLine
 10
38.69760869757421
 20
30.50868927392032
 30
0.0
 11
38.74642748241925
 21
30.50868927392032
 31
0.0
  0
LINE
  5
698
330
19
100
AcDbEntity
  8
Part
100
AcDbLine
 10
38.69760869757421
 20
30.68873190760875
 30
0.0
 11
38.74642748241925
 21
30.68873190760875
 31
0.0
  0
LINE
  5
699
330
19
100
AcDbEntity
  8
Part
100
AcDbLine
 10
38.81201808999672
 20
30.62314130003128
 30
0.0
 11
38.74642748241925
 21
30.62314130003128
 31
0.0
  0
LINE
  5
69A
330
19
100
AcDbEntity
  8
Part
100
AcDbLine
 10
38.69760869757421
 20
30.62314130003128
 30
0.0
 11
38.63197545630828
 21
30.62314130003127
 31
0.0
  0
LINE
  5
69B
330
19
100
AcDbEntity
  8
Part
100
AcDbLine
 10
38.81201808999672
 20
30.57432251518624
 30
0.0
 11
38.74642748241925
 21
30.57432251518624
 31
0.0
  0
LINE
  5
69C
330
19
100
AcDbEntity
  8
Part
100
AcDbLine
 10
38.69760869757421
 20
30.57432251518624
 30
0.0
 11
38.63197545630828
 21
30.57432251518623
 31
0.0
  0
LINE
  5
69D
330
19
100
AcDbEntity
  8
Part
100
AcDbLine
 10
38.63197545630828
 20
30.62314130003127
 30
0.0
 11
38.63197545630828
 21
30.57432251518623
 31
0.0
  0
LINE
  5
69E
330
19
100
AcDbEntity
  8
Part
100
AcDbLine
 10
38.81201808999672
 20
30.62314130003127
 30
0.0
 11
38.81201808999672
 21
30.57432251518623
 31
0.0
  0
LINE
  5
6AB
330
19
100
AcDbEntity
  8
Part
100
AcDbLine
 10
38.56460869757421
 20
30.14273190760875
 30
0.0
 11
38.56460869757421
 21
30.07714130003127
 31
0.0
  0
LINE
  5
6AC
330
19
100
AcDbEntity
  8
Part
100
AcDbLine
 10
38.56460869757421
 20
30.02832251518623
 30
0.0
 11
38.56460869757421
 21
29.96268927392031
 31
0.0
  0
LINE
  5
6AD
330
19
100
AcDbEntity
  8
Part
100
AcDbLine
 10
38.61342748241924
 20
30.14273190760875
 30
0.0
 11
38.61342748241925
 21
30.07714130003127
 31
0.0
  0
LINE
  5
6AE
330
19
100
AcDbEntity
  8
Part
100
AcDbLine
 10
38.61342748241925
 20
30.02832251518623
 30
0.0
 11
38.61342748241925
 21
29.96268927392031
 31
0.0
  0
LINE
  5
6AF
330
19
100
AcDbEntity
  8
Part
100
AcDbLine
 10
38.56460869757421
 20
29.96268927392031
 30
0.0
 11
38.61342748241925
 21
29.96268927392031
 31
0.0
  0
LINE
  5
6B0
330
19
100
AcDbEntity
  8
Part
100
AcDbLine
 10
38.56460869757421
 20
30.14273190760875
 30
0.0
 11
38.61342748241925
 21
30.14273190760875
 31
0.0
  0
LINE
  5
6B1
330
19
100
AcDbEntity
  8
Part
100
AcDbLine
 10
38.67901808999673
 20
30.07714130003127
 30
0.0
 11
38.61342748241925
 21
30.07714130003127
 31
0.0
  0
LINE
  5
6B2
330
19
100
AcDbEntity
  8
Part
100
AcDbLine
 10
38.56460869757421
 20
30.07714130003127
 30
0.0
 11
38.4989754563083
 21
30.07714130003126
 31
0.0
  0
LINE
  5
6B3
330
19
100
AcDbEntity
  8
Part
100
AcDbLine
 10
38.67901808999673
 20
30.02832251518623
 30
0.0
 11
38.61342748241925
 21
30.02832251518623
 31
0.0
  0
LINE
  5
6B4
330
19
100
AcDbEntity
  8
Part
100
AcDbLine
 10
38.56460869757421
 20
30.02832251518623
 30
0.0
 11
38.4989754563083
 21
30.02832251518622
 31
0.0
  0
LINE
  5
6B5
330
19
100
AcDbEntity
  8
Part
100
AcDbLine
 10
38.4989754563083
 20
30.07714130003126
 30
0.0
 11
38.4989754563083
 21
30.02832251518622
 31
0.0
  0
LINE
  5
6B6
330
19
100
AcDbEntity
  8
Part
100
AcDbLine
 10
38.67901808999673
 20
30.07714130003126
 30
0.0
 11
38.67901808999673
 21
30.02832251518622
 31
0.0
  0
LINE
  5
6C3
330
19
100
AcDbEntity
  8
Part
100
AcDbLine
 10
38.25660869757421
 20
30.14273190760875
 30
0.0
 11
38.25660869757421
 21
30.07714130003127
 31
0.0
  0
LINE
  5
6C4
330
19
100
AcDbEntity
  8
Part
100
AcDbLine
 10
38.25660869757421
 20
30.02832251518623
 30
0.0
 11
38.25660869757421
 21
29.96268927392031
 31
0.0
  0
LINE
  5
6C5
330
19
100
AcDbEntity
  8
Part
100
AcDbLine
 10
38.30542748241924
 20
30.14273190760875
 30
0.0
 11
38.30542748241925
 21
30.07714130003127
 31
0.0
  0
LINE
  5
6C6
330
19
100
AcDbEntity
  8
Part
100
AcDbLine
 10
38.30542748241925
 20
30.02832251518623
 30
0.0
 11
38.30542748241925
 21
29.96268927392031
 31
0.0
  0
LINE
  5
6C7
330
19
100
AcDbEntity
  8
Part
100
AcDbLine
 10
38.25660869757421
 20
29.96268927392031
 30
0.0
 11
38.30542748241925
 21
29.96268927392031
 31
0.0
  0
LINE
  5
6C8
330
19
100
AcDbEntity
  8
Part
100
AcDbLine
 10
38.25660869757421
 20
30.14273190760875
 30
0.0
 11
38.30542748241925
 21
30.14273190760875
 31
0.0
  0
LINE
  5
6C9
330
19
100
AcDbEntity
  8
Part
100
AcDbLine
 10
38.37101808999673
 20
30.07714130003127
 30
0.0
 11
38.30542748241925
 21
30.07714130003127
 31
0.0
  0
LINE
  5
6CA
330
19
100
AcDbEntity
  8
Part
100
AcDbLine
 10
38.25660869757421
 20
30.07714130003127
 30
0.0
 11
38.1909754563083
 21
30.07714130003126
 31
0.0
  0
LINE
  5
6CB
330
19
100
AcDbEntity
  8
Part
100
AcDbLine
 10
38.37101808999673
 20
30.02832251518623
 30
0.0
 11
38.30542748241925
 21
30.02832251518623
 31
0.0
  0
LINE
  5
6CC
330
19
100
AcDbEntity
  8
Part
100
AcDbLine
 10
38.25660869757421
 20
30.02832251518623
 30
0.0
 11
38.1909754563083
 21
30.02832251518622
 31
0.0
  0
LINE
  5
6CD
330
19
100
AcDbEntity
  8
Part
100
AcDbLine
 10
38.1909754563083
 20
30.07714130003126
 30
0.0
 11
38.1909754563083
 21
30.02832251518622
 31
0.0
  0
LINE
  5
6CE
330
19
100
AcDbEntity
  8
Part
100
AcDbLine
 10
38.37101808999673
 20
30.07714130003126
 30
0.0
 11
38.37101808999673
 21
30.02832251518622
 31
0.0
  0
MTEXT
  5
6D1
330
19
100
AcDbEntity
  8
Labels
100
AcDbMText
 10
38.09663146364492
 20
30.88653036199077
 30
0.0
 40
0.0594730348839037
 41
0.1125258330818951
 71
     5
 72
     5
  1
{\fArial|b0|i0|c0|p34;\W0.8;+PS}
  7
ADESK1
 73
     1
 44
1.0
1001
ACAD
1000
MTEXTBEGIN
1070
    73
1070
     1
1070
    44
1040
1.0
1070
    74
1070
     0
1000
MTEXTEND
  0
MTEXT
  5
6D2
330
19
100
AcDbEntity
  8
Labels
100
AcDbMText
 10
38.40463146364493
 20
30.88653036199077
 30
0.0
 40
0.0594730348839037
 41
0.1125258330818951
 71
     5
 72
     5
  1
{\fArial|b0|i0|c0|p34;\W0.8;-PS}
  7
ADESK1
 73
     1
 44
1.0
1001
ACAD
1000
MTEXTBEGIN
1070
    73
1070
     1
1070
    44
1040
1.0
1070
    74
1070
     0
1000
MTEXTEND
  0
LINE
  5
6D3
330
19
100
AcDbEntity
  8
Part
100
AcDbLine
 10
38.87260869757421
 20
30.14273190760875
 30
0.0
 11
38.87260869757421
 21
30.07714130003127
 31
0.0
  0
LINE
  5
6D4
330
19
100
AcDbEntity
  8
Part
100
AcDbLine
 10
38.87260869757421
 20
30.02832251518623
 30
0.0
 11
38.87260869757421
 21
29.96268927392031
 31
0.0
  0
LINE
  5
6D5
330
19
100
AcDbEntity
  8
Part
100
AcDbLine
 10
38.92142748241924
 20
30.14273190760875
 30
0.0
 11
38.92142748241925
 21
30.07714130003127
 31
0.0
  0
LINE
  5
6D6
330
19
100
AcDbEntity
  8
Part
100
AcDbLine
 10
38.92142748241925
 20
30.02832251518623
 30
0.0
 11
38.92142748241925
 21
29.96268927392031
 31
0.0
  0
LINE
  5
6D7
330
19
100
AcDbEntity
  8
Part
100
AcDbLine
 10
38.87260869757421
 20
29.96268927392031
 30
0.0
 11
38.92142748241925
 21
29.96268927392031
 31
0.0
  0
LINE
  5
6D8
330
19
100
AcDbEntity
  8
Part
100
AcDbLine
 10
38.87260869757421
 20
30.14273190760875
 30
0.0
 11
38.92142748241925
 21
30.14273190760875
 31
0.0
  0
LINE
  5
6D9
330
19
100
AcDbEntity
  8
Part
100
AcDbLine
 10
38.98701808999673
 20
30.07714130003127
 30
0.0
 11
38.92142748241925
 21
30.07714130003127
 31
0.0
  0
LINE
  5
6DA
330
19
100
AcDbEntity
  8
Part
100
AcDbLine
 10
38.87260869757421
 20
30.07714130003127
 30
0.0
 11
38.80697545630829
 21
30.07714130003126
 31
0.0
  0
LINE
  5
6DB
330
19
100
AcDbEntity
  8
Part
100
AcDbLine
 10
38.98701808999673
 20
30.02832251518623
 30
0.0
 11
38.92142748241925
 21
30.02832251518623
 31
0.0
  0
LINE
  5
6DC
330
19
100
AcDbEntity
  8
Part
100
AcDbLine
 10
38.87260869757421
 20
30.02832251518623
 30
0.0
 11
38.80697545630829
 21
30.02832251518622
 31
0.0
  0
LINE
  5
6DD
330
19
100
AcDbEntity
  8
Part
100
AcDbLine
 10
38.80697545630829
 20
30.07714130003126
 30
0.0
 11
38.80697545630829
 21
30.02832251518622
 31
0.0
  0
LINE
  5
6DE
330
19
100
AcDbEntity
  8
Part
100
AcDbLine
 10
38.98701808999673
 20
30.07714130003126
 30
0.0
 11
38.98701808999673
 21
30.02832251518622
 31
0.0
  0
CIRCLE
  5
6E0
102
{ACAD_REACTORS
330
71B
330
71C
102
}
330
19
100
AcDbEntity
  8
Part
100
AcDbCircle
 10
39.71801808999673
 20
30.5181490838206
 30
0.0
 40
0.072
  0
CIRCLE
  5
6E1
330
19
100
AcDbEntity
  8
Part
100
AcDbCircle
 10
39.71801808999673
 20
30.5181490838206
 30
0.0
 40
0.0534227783553121
  0
CIRCLE
  5
6EA
102
{ACAD_REACTORS
330
72B
330
72C
102
}
330
19
100
AcDbEntity
  8
Part
100
AcDbCircle
 10
37.26701808999671
 20
30.5181490838206
 30
0.0
 40
0.072
  0
CIRCLE
  5
6EB
330
19
100
AcDbEntity
  8
Part
100
AcDbCircle
 10
37.26701808999671
 20
30.5181490838206
 30
0.0
 40
0.0534227783553121
  0
LINE
  5
6ED
330
19
100
AcDbEntity
  8
Part
100
AcDbLine
 10
37.26131387461414
 20
30.57126645549945
 30
0.0
 11
37.26131387461414
 21
30.46503171214173
 31
0.0
  0
LINE
  5
6EE
330
19
100
AcDbEntity
  8
Part
100
AcDbLine
 10
37.27272230537927
 20
30.57126645549945
 30
0.0
 11
37.27272230537927
 21
30.46503171214173
 31
0.0
  0
LINE
  5
6F0
330
19
100
AcDbEntity
  8
Part
100
AcDbLine
 10
39.71231387461416
 20
30.57126645549945
 30
0.0
 11
39.71231387461416
 21
30.46503171214173
 31
0.0
  0
LINE
  5
6F1
330
19
100
AcDbEntity
  8
Part
100
AcDbLine
 10
39.72372230537929
 20
30.57126645549945
 30
0.0
 11
39.72372230537929
 21
30.46503171214173
 31
0.0
  0
MTEXT
  5
6F3
330
19
100
AcDbEntity
  8
Part
100
AcDbMText
 10
37.68871944261891
 20
30.20791706115268
 30
0.0
 40
0.0477654716166919
 41
0.0705914289825528
 71
     1
 72
     5
  1
{\fLogosplus|b0|i0|c0|p2;1}
  7
ADESK1
 73
     1
 44
1.0
1001
ACAD
1000
MTEXTBEGIN
1070
    73
1070
     1
1070
    44
1040
1.0
1070
    74
1070
     0
1000
MTEXTEND
  0
MTEXT
  5
6F4
330
19
100
AcDbEntity
  8
Part
100
AcDbMText
 10
37.67070281856848
 20
30.4945387183669
 30
0.0
 40
0.0477654716166919
 41
0.0705914289825528
 71
     1
 72
     5
  1
{\fLogosplus|b0|i0|c0|p2;8}
  7
ADESK1
 73
     1
 44
1.0
1001
ACAD
1000
MTEXTBEGIN
1070
    73
1070
     1
1070
    44
1040
1.0
1070
    74
1070
     0
1000
MTEXTEND
  0
LINE
  5
6F5
102
{ACAD_REACTORS
330
71C
102
}
330
19
100
AcDbEntity
  8
Labels
100
AcDbLine
 10
39.74501808999673
 20
30.63729356842578
 30
0.0
 11
39.74501808999673
 21
30.58489487020445
 31
0.0
  0
LINE
  5
6F6
102
{ACAD_REACTORS
330
71C
102
}
330
19
100
AcDbEntity
  8
Labels
100
AcDbLine
 10
39.74501808999673
 20
30.63729356842578
 30
0.0
 11
39.89601808999673
 21
30.63729356842578
 31
0.0
  0
LINE
  5
6F7
102
{ACAD_REACTORS
330
71C
102
}
330
19
100
AcDbEntity
  8
Labels
100
AcDbLine
 10
39.89601808999673
 20
30.63729356842578
 30
0.0
 11
39.89601808999673
 21
30.25229356842578
 31
0.0
  0
LINE
  5
6F8
102
{ACAD_REACTORS
330
71C
102
}
330
19
100
AcDbEntity
  8
Labels
100
AcDbLine
 10
39.74501808999673
 20
30.25229356842578
 30
0.0
 11
39.89601808999673
 21
30.25229356842578
 31
0.0
  0
LINE
  5
6F9
102
{ACAD_REACTORS
330
71B
102
}
330
19
100
AcDbEntity
  8
Labels
100
AcDbLine
 10
39.54001808999672
 20
30.63729356842578
 30
0.0
 11
39.54001808999672
 21
30.25229356842578
 31
0.0
  0
LINE
  5
6FA
102
{ACAD_REACTORS
330
71B
102
}
330
19
100
AcDbEntity
  8
Labels
100
AcDbLine
 10
39.54001808999672
 20
30.63729356842578
 30
0.0
 11
39.69101808999673
 21
30.63729356842578
 31
0.0
  0
LINE
  5
6FB
102
{ACAD_REACTORS
330
71B
102
}
330
19
100
AcDbEntity
  8
Labels
100
AcDbLine
 10
39.69101808999673
 20
30.63729356842578
 30
0.0
 11
39.69101808999673
 21
30.58489487020445
 31
0.0
  0
LINE
  5
6FC
102
{ACAD_REACTORS
330
71B
102
}
330
19
100
AcDbEntity
  8
Labels
100
AcDbLine
 10
39.54001808999672
 20
30.25229356842578
 30
0.0
 11
39.69101808999673
 21
30.25229356842578
 31
0.0
  0
LINE
  5
6FE
102
{ACAD_REACTORS
330
71B
102
}
330
19
100
AcDbEntity
  8
Labels
100
AcDbLine
 10
39.69101808999673
 20
30.45140329743673
 30
0.0
 11
39.69101808999673
 21
30.25229356842578
 31
0.0
  0
LINE
  5
6FF
102
{ACAD_REACTORS
330
71C
102
}
330
19
100
AcDbEntity
  8
Labels
100
AcDbLine
 10
39.74501808999673
 20
30.45140329743674
 30
0.0
 11
39.74501808999673
 21
30.25229356842578
 31
0.0
  0
LINE
  5
700
102
{ACAD_REACTORS
330
72C
102
}
330
19
100
AcDbEntity
  8
Labels
100
AcDbLine
 10
37.2400180899967
 20
30.63729356842578
 30
0.0
 11
37.2400180899967
 21
30.58489487020445
 31
0.0
  0
LINE
  5
701
102
{ACAD_REACTORS
330
72C
102
}
330
19
100
AcDbEntity
  8
Labels
100
AcDbLine
 10
37.2400180899967
 20
30.45140329743674
 30
0.0
 11
37.2400180899967
 21
30.25229356842578
 31
0.0
  0
LINE
  5
702
102
{ACAD_REACTORS
330
72C
102
}
330
19
100
AcDbEntity
  8
Labels
100
AcDbLine
 10
37.2400180899967
 20
30.63729356842578
 30
0.0
 11
37.08901808999671
 21
30.63729356842578
 31
0.0
  0
LINE
  5
703
102
{ACAD_REACTORS
330
72C
102
}
330
19
100
AcDbEntity
  8
Labels
100
AcDbLine
 10
37.08901808999671
 20
30.63729356842578
 30
0.0
 11
37.08901808999671
 21
30.25229356842578
 31
0.0
  0
LINE
  5
704
102
{ACAD_REACTORS
330
72C
102
}
330
19
100
AcDbEntity
  8
Labels
100
AcDbLine
 10
37.2400180899967
 20
30.25229356842578
 30
0.0
 11
37.08901808999671
 21
30.25229356842578
 31
0.0
  0
LINE
  5
705
102
{ACAD_REACTORS
330
72B
102
}
330
19
100
AcDbEntity
  8
Labels
100
AcDbLine
 10
37.44501808999671
 20
30.63729356842578
 30
0.0
 11
37.44501808999671
 21
30.25229356842578
 31
0.0
  0
LINE
  5
706
102
{ACAD_REACTORS
330
72B
102
}
330
19
100
AcDbEntity
  8
Labels
100
AcDbLine
 10
37.44501808999671
 20
30.63729356842578
 30
0.0
 11
37.2940180899967
 21
30.63729356842578
 31
0.0
  0
LINE
  5
707
102
{ACAD_REACTORS
330
72B
102
}
330
19
100
AcDbEntity
  8
Labels
100
AcDbLine
 10
37.2940180899967
 20
30.63729356842578
 30
0.0
 11
37.2940180899967
 21
30.58489487020445
 31
0.0
  0
LINE
  5
708
102
{ACAD_REACTORS
330
72B
102
}
330
19
100
AcDbEntity
  8
Labels
100
AcDbLine
 10
37.2940180899967
 20
30.45140329743673
 30
0.0
 11
37.2940180899967
 21
30.25229356842578
 31
0.0
  0
LINE
  5
709
102
{ACAD_REACTORS
330
72B
102
}
330
19
100
AcDbEntity
  8
Labels
100
AcDbLine
 10
37.44501808999671
 20
30.25229356842578
 30
0.0
 11
37.2940180899967
 21
30.25229356842578
 31
0.0
  0
MTEXT
  5
70A
330
19
100
AcDbEntity
  8
Labels
100
AcDbMText
 10
39.49250539003341
 20
30.20365921117462
 30
0.0
 40
0.113
 41
0.3998024440357284
 71
     1
 72
     5
  1
{\fArial|b1|i0|c0|p34;SPAN}
  7
ADESK1
 73
     1
 44
1.0
1001
ACAD
1000
MTEXTBEGIN
1070
    73
1070
     1
1070
    44
1040
1.0
1070
    74
1070
     0
1000
MTEXTEND
  0
MTEXT
  5
70B
330
19
100
AcDbEntity
  8
Labels
100
AcDbMText
 10
37.08100924792035
 20
30.20365921117462
 30
0.0
 40
0.113
 41
0.3998024440357284
 71
     1
 72
     5
  1
{\fArial|b1|i0|c0|p34;ZERO}
  7
ADESK1
 73
     1
 44
1.0
1001
ACAD
1000
MTEXTBEGIN
1070
    73
1070
     1
1070
    44
1040
1.0
1070
    74
1070
     0
1000
MTEXTEND
  0
MTEXT
  5
70C
330
19
100
AcDbEntity
  8
Labels
100
AcDbMText
 10
39.58789791802955
 20
30.01717824757196
 30
0.0
 40
0.1887610478681625
 41
0.2789653625151521
 71
     1
 72
     5
  1
{\fLogosplus|b0|i0|c0|p2;1}
  7
ADESK1
 73
     1
 44
1.0
1001
ACAD
1000
MTEXTBEGIN
1070
    73
1070
     1
1070
    44
1040
1.0
1070
    74
1070
     0
1000
MTEXTEND
  0
HATCH
  5
71B
330
19
100
AcDbEntity
  8
Labels
100
AcDbHatch
 10
0.0
 20
0.0
 30
0.0
210
0.0
220
0.0
230
1.0
  2
SOLID
 70
     1
 71
     1
 91
        1
 92
        7
 72
     1
 73
     1
 93
        7
 10
39.69101808999673
 20
30.45140329743673
 42
-0.3056146845807259
 10
39.64601808999672
 20
30.5181490838206
 42
-0.3056146845807259
 10
39.69101808999673
 20
30.58489487020445
 42
0.0
 10
39.69101808999672
 20
30.63729356842578
 42
0.0
 10
39.54001808999672
 20
30.63729356842578
 42
0.0
 10
39.54001808999673
 20
30.25229356842578
 42
0.0
 10
39.69101808999673
 20
30.25229356842578
 42
0.0
 97
        6
330
6E0
330
6FB
330
6FA
330
6F9
330
6FC
330
6FE
 75
     0
 76
     1
 47
0.0030901632791684
 98
        1
 10
39.65183828853859
 20
30.38635891903211
1001
ACAD
1010
0.0
1020
0.0
1030
0.0
  0
HATCH
  5
71C
330
19
100
AcDbEntity
  8
Labels
100
AcDbHatch
 10
0.0
 20
0.0
 30
0.0
210
0.0
220
0.0
230
1.0
  2
SOLID
 70
     1
 71
     1
 91
        1
 92
        7
 72
     1
 73
     1
 93
        7
 10
39.74501808999674
 20
30.25229356842577
 42
0.0
 10
39.89601808999673
 20
30.25229356842578
 42
0.0
 10
39.89601808999672
 20
30.63729356842577
 42
0.0
 10
39.74501808999673
 20
30.63729356842577
 42
0.0
 10
39.74501808999673
 20
30.58489487020445
 42
-0.3056146845807077
 10
39.79001808999673
 20
30.5181490838206
 42
-0.3056146845807077
 10
39.74501808999673
 20
30.45140329743673
 42
0.0
 97
        6
330
6F6
330
6F5
330
6E0
330
6FF
330
6F8
330
6F7
 75
     0
 76
     1
 47
0.0030901632791684
 98
        1
 10
39.81270376184998
 20
30.3647277735533
1001
ACAD
1010
0.0
1020
0.0
1030
0.0
  0
HATCH
  5
72B
330
19
100
AcDbEntity
  8
Labels
100
AcDbHatch
 10
0.0
 20
0.0
 30
0.0
210
0.0
220
0.0
230
1.0
  2
SOLID
 70
     1
 71
     1
 91
        1
 92
        7
 72
     1
 73
     1
 93
        7
 10
37.2940180899967
 20
30.25229356842577
 42
0.0
 10
37.44501808999671
 20
30.25229356842578
 42
0.0
 10
37.44501808999671
 20
30.63729356842577
 42
0.0
 10
37.2940180899967
 20
30.63729356842578
 42
0.0
 10
37.2940180899967
 20
30.58489487020445
 42
-0.3056146845807259
 10
37.33901808999671
 20
30.5181490838206
 42
-0.3056146845807259
 10
37.2940180899967
 20
30.45140329743673
 42
0.0
 97
        6
330
706
330
707
330
6EA
330
708
330
709
330
705
 75
     0
 76
     1
 47
0.0030901632791684
 98
        1
 10
37.31462257272785
 20
30.38641219424574
1001
ACAD
1010
0.0
1020
0.0
1030
0.0
  0
HATCH
  5
72C
330
19
100
AcDbEntity
  8
Labels
100
AcDbHatch
 10
0.0
 20
0.0
 30
0.0
210
0.0
220
0.0
230
1.0
  2
SOLID
 70
     1
 71
     1
 91
        1
 92
        7
 72
     1
 73
     1
 93
        7
 10
37.08901808999671
 20
30.25229356842578
 42
0.0
 10
37.2400180899967
 20
30.25229356842578
 42
0.0
 10
37.2400180899967
 20
30.45140329743673
 42
-0.3056146845807077
 10
37.19501808999671
 20
30.5181490838206
 42
-0.3056146845807077
 10
37.2400180899967
 20
30.58489487020445
 42
0.0
 10
37.2400180899967
 20
30.63729356842578
 42
0.0
 10
37.08901808999671
 20
30.63729356842578
 42
0.0
 97
        6
330
6EA
330
700
330
702
330
703
330
704
330
701
 75
     0
 76
     1
 47
0.0030901632791684
 98
        1
 10
37.12282143939584
 20
30.38641219424574
1001
ACAD
1010
0.0
1020
0.0
1030
0.0
  0
CIRCLE
  5
72D
330
19
100
AcDbEntity
  8
Part
100
AcDbCircle
 10
37.67745340838219
 20
30.76373190760876
 30
0.0
 40
0.1275
  0
LWPOLYLINE
  5
730
330
19
100
AcDbEntity
  8
Part
100
AcDbPolyline
 90
        6
 70
     1
 43
0.0
 10
37.67745340838219
 20
30.63623190760876
 10
37.78787164736471
 20
30.69998190760876
 10
37.78787164736471
 20
30.82748190760876
 10
37.67745340838219
 20
30.89123190760876
 10
37.56703516939968
 20
30.82748190760876
 10
37.56703516939968
 20
30.69998190760876
  0
CIRCLE
  5
731
330
19
100
AcDbEntity
  8
Part
100
AcDbCircle
 10
37.67745340838219
 20
30.76373190760876
 30
0.0
 40
0.061
  0
MTEXT
  5
732
330
19
100
AcDbEntity
  8
Labels
100
AcDbMText
 10
37.37770722345564
 20
30.88653036199077
 30
0.0
 40
0.0594730348839037
 41
0.1125258330818951
 71
     5
 72
     5
  1
{\fArial|b0|i0|c0|p34;\W0.8;GND}
  7
ADESK1
 73
     1
 44
1.0
1001
ACAD
1000
MTEXTBEGIN
1070
    73
1070
     1
1070
    44
1040
1.0
1070
    74
1070
     0
1000
MTEXTEND
  0
ARC
  5
733
330
19
100
AcDbEntity
  8
Part
100
AcDbCircle
 10
38.55005997367729
 20
30.32573190760877
 30
0.0
 40
1.514041883680565
100
AcDbArc
 50
129.7830553264575
 51
230.2169446735425
  0
ARC
  5
734
330
19
100
AcDbEntity
  8
Part
100
AcDbCircle
 10
38.44697620631616
 20
30.32573190760877
 30
0.0
 40
1.514041883680565
100
AcDbArc
 50
309.7830553264582
 51
50.21694467354219
  0
MTEXT
  5
736
330
19
100
AcDbEntity
  8
Labels
100
AcDbMText
 10
38.14926773034333
 20
29.81974757826924
 30
0.0
 40
0.09
 41
0.8735447827517788
 71
     1
 72
     5
  1
{\fArial|b0|i0|c0|p34;\W0.8;CT/PT}
  7
ADESK1
 73
     1
 44
1.0
1001
ACAD
1000
MTEXTBEGIN
1070
    73
1070
     1
1070
    44
1040
1.0
1070
    74
1070
     0
1000
MTEXTEND
  0
MTEXT
  5
737
330
19
100
AcDbEntity
  8
Labels
100
AcDbMText
 10
38.45726773034332
 20
29.81974757826924
 30
0.0
 40
0.09
 41
0.8735447827517788
 71
     1
 72
     5
  1
{\fArial|b0|i0|c0|p34;\W0.8;CT/PT}
  7
ADESK1
 73
     1
 44
1.0
1001
ACAD
1000
MTEXTBEGIN
1070
    73
1070
     1
1070
    44
1040
1.0
1070
    74
1070
     0
1000
MTEXTEND
  0
MTEXT
  5
738
330
19
100
AcDbEntity
  8
Labels
100
AcDbMText
 10
38.45869954894262
 20
29.55207847130052
 30
0.0
 40
0.05
 41
1.286421130596939
 71
     5
 72
     5
  1
{\fArial|b0|i0|c0|p34;\W0.8;WARNING: THIS DEVICE CONTAINS NO INTERNAL INPUT TRANSFORMER}
  7
ADESK1
 73
     1
 44
1.0
1001
ACAD
1000
MTEXTBEGIN
1070
    73
1070
     1
1070
    44
1040
1.0
1070
    74
1070
     0
1000
MTEXTEND
  0
MTEXT
  5
739
330
19
100
AcDbEntity
  8
Labels
100
AcDbMText
 10
37.9631183366395
 20
29.44154653224059
 30
0.0
 40
0.0401215302260477
 41
0.3060072343295854
 71
     1
 72
     5
  1
{\fLogosplus|b0|i0|c0|p2;\H6x;/}
  7
ADESK1
 73
     1
 44
1.0
1001
ACAD
1000
MTEXTBEGIN
1070
    73
1070
     1
1070
    44
1040
1.0
1070
    74
1070
     0
1000
MTEXTEND
  0
ARC
  5
73A
330
19
100
AcDbEntity
  8
Part
100
AcDbCircle
 10
37.75601808999673
 20
29.26473190760875
 30
0.0
 40
0.158
100
AcDbArc
 50
0.0
 51
180.0
  0
LINE
  5
73B
330
19
100
AcDbEntity
  8
Part
100
AcDbLine
 10
37.59801808999672
 20
29.26473190760875
 30
0.0
 11
37.59801808999672
 21
29.16223190760874
 31
0.0
  0
LINE
  5
73C
330
19
100
AcDbEntity
  8
Part
100
AcDbLine
 10
37.91401808999673
 20
29.26473190760875
 30
0.0
 11
37.91401808999673
 21
29.16223190760875
 31
0.0
  0
ARC
  5
73D
330
19
100
AcDbEntity
  8
Part
100
AcDbCircle
 10
39.24101808999672
 20
29.26473190760875
 30
0.0
 40
0.158
100
AcDbArc
 50
0.0
 51
180.0
  0
LINE
  5
73E
330
19
100
AcDbEntity
  8
Part
100
AcDbLine
 10
39.08301808999672
 20
29.26473190760875
 30
0.0
 11
39.08301808999672
 21
29.16223190760874
 31
0.0
  0
LINE
  5
73F
330
19
100
AcDbEntity
  8
Part
100
AcDbLine
 10
39.39901808999672
 20
29.26473190760875
 30
0.0
 11
39.39901808999672
 21
29.16223190760875
 31
0.0
  0
LINE
  5
740
330
19
100
AcDbEntity
  8
Part
100
AcDbLine
 10
37.82692605373733
 20
29.40592702324014
 30
0.0
 11
39.17011012625612
 21
29.40592702324014
 31
0.0
  0
LINE
  5
771
330
19
100
AcDbEntity
  8
Part
100
AcDbLine
 10
34.20150528183531
 20
31.52623190760876
 30
0.0
 11
32.8635052818353
 21
31.52623190760876
 31
0.0
  0
LINE
  5
772
330
19
100
AcDbEntity
  8
Part
100
AcDbLine
 10
34.20150528183531
 20
29.12523190760877
 30
0.0
 11
32.86350528183531
 21
29.12523190760876
 31
0.0
  0
LINE
  5
773
330
19
100
AcDbEntity
  8
Part
100
AcDbLine
 10
34.20150528183531
 20
31.52623190760876
 30
0.0
 11
34.20150528183531
 21
29.12523190760876
 31
0.0
  0
LINE
  5
774
330
19
100
AcDbEntity
  8
Part
100
AcDbLine
 10
32.86350528183531
 20
31.52623190760876
 30
0.0
 11
32.86350528183531
 21
29.12523190760876
 31
0.0
  0
LINE
  5
775
330
19
100
AcDbEntity
  8
Part
100
AcDbLine
 10
34.7495052818353
 20
30.80323190760875
 30
0.0
 11
34.62050528183532
 21
30.80323190760875
 31
0.0
  0
LINE
  5
776
330
19
100
AcDbEntity
  8
Part
100
AcDbLine
 10
34.74950528183531
 20
29.84823190760875
 30
0.0
 11
34.20150528183531
 21
29.84823190760875
 31
0.0
  0
LINE
  5
777
330
19
100
AcDbEntity
  8
Part
100
AcDbLine
 10
34.7495052818353
 20
30.80323190760875
 30
0.0
 11
34.74950528183531
 21
29.84823190760875
 31
0.0
  0
LINE
  5
778
330
19
100
AcDbEntity
  8
Part
100
AcDbLine
 10
34.16050528183531
 20
31.52623190760876
 30
0.0
 11
34.16050528183531
 21
29.12523190760876
 31
0.0
  0
LINE
  5
779
330
19
100
AcDbEntity
  8
Part
100
AcDbLine
 10
32.90450528183531
 20
31.52623190760876
 30
0.0
 11
32.90450528183531
 21
29.12523190760876
 31
0.0
  0
LINE
  5
7AE
330
19
100
AcDbEntity
  8
Part
100
AcDbLine
 10
37.45549512049058
 20
30.9079065898842
 30
0.0
 11
37.46757986165872
 21
30.91986347927639
 31
0.0
  0
LINE
  5
7AF
330
19
100
AcDbEntity
  8
Part
100
AcDbLine
 10
37.52160465767632
 20
30.97331671434617
 30
0.0
 11
37.53368939884448
 21
30.98527360373836
 31
0.0
  0
LINE
  5
7B0
330
19
100
AcDbEntity
  8
Part
100
AcDbLine
 10
37.33658594721676
 20
31.026815763158
 30
0.0
 11
37.34867068838491
 21
31.03877265255019
 31
0.0
  0
LINE
  5
7B1
330
19
100
AcDbEntity
  8
Part
100
AcDbLine
 10
37.31142044948923
 20
31.03833927222158
 30
0.0
 11
37.32348777334757
 21
31.05031342338861
 31
0.0
  0
LINE
  5
7B2
330
19
100
AcDbEntity
  8
Part
100
AcDbLine
 10
37.40275941029049
 20
31.09216196173201
 30
0.0
 11
37.41481360666818
 21
31.10414939591466
 31
0.0
  0
LINE
  5
7B3
330
19
100
AcDbEntity
  8
Part
100
AcDbLine
 10
37.25585686681216
 20
31.0944969812212
 30
0.0
 11
37.31142044948923
 21
31.03833927222158
 31
0.0
  0
LINE
  5
7B4
330
19
100
AcDbEntity
  8
Part
100
AcDbLine
 10
37.2679414371032
 20
31.10645370154412
 30
0.0
 11
37.3235050197803
 21
31.0502959925445
 31
0.0
  0
LINE
  5
7B5
330
19
100
AcDbEntity
  8
Part
100
AcDbLine
 10
37.35171317780796
 20
31.18924026117393
 30
0.0
 11
37.40727676048506
 21
31.13308255217431
 31
0.0
  0
LINE
  5
7B6
330
19
100
AcDbEntity
  8
Part
100
AcDbLine
 10
37.3396286075169
 20
31.17728354085101
 30
0.0
 11
37.39519219019399
 21
31.12112583185139
 31
0.0
  0
LINE
  5
7B7
330
19
100
AcDbEntity
  8
Part
100
AcDbLine
 10
37.33658594721676
 20
31.02681576315799
 30
0.0
 11
37.45549512049057
 21
30.90790658988419
 31
0.0
  0
ARC
  5
7B8
330
19
100
AcDbEntity
  8
Part
100
AcDbCircle
 10
36.87891911551808
 20
30.41368684474387
 30
0.0
 40
0.776360907950374
100
AcDbArc
 50
30.62956671856368
 51
40.69152430418161
  0
LINE
  5
7B9
330
19
100
AcDbEntity
  8
Part
100
AcDbLine
 10
37.34867068838492
 20
31.0387726525502
 30
0.0
 11
37.46757986165871
 21
30.91986347927639
 31
0.0
  0
LINE
  5
7BA
330
19
100
AcDbEntity
  8
Part
100
AcDbLine
 10
37.41481360666818
 20
31.10414939591466
 30
0.0
 11
37.53368939884446
 21
30.98527360373837
 31
0.0
  0
ARC
  5
7BB
330
19
100
AcDbEntity
  8
Part
100
AcDbCircle
 10
38.02866935552507
 20
31.56419991805298
 30
0.0
 40
0.7786254351273529
100
AcDbArc
 50
229.3655528893427
 51
239.368714371564
  0
LINE
  5
7BC
330
19
100
AcDbEntity
  8
Part
100
AcDbLine
 10
37.40275941029049
 20
31.09216196173201
 30
0.0
 11
37.52160465767632
 21
30.97331671434617
 31
0.0
  0
LINE
  5
7BD
330
19
100
AcDbEntity
  8
Part
100
AcDbLine
 10
37.54696155056294
 20
30.80923148744919
 30
0.0
 11
37.55393100731762
 21
30.79533042711907
 31
0.0
  0
LINE
  5
7BE
330
19
100
AcDbEntity
  8
Part
100
AcDbLine
 10
37.6319508690296
 20
30.89422080591589
 30
0.0
 11
37.64585192935971
 21
30.88725134916118
 31
0.0
  0
LINE
  5
7BF
330
19
100
AcDbEntity
  8
Part
100
AcDbLine
 10
37.40727002397227
 20
31.1330893607188
 30
0.0
 11
37.39504114953771
 21
31.12092821593408
 31
0.0
  0
ARC
  5
7C0
330
19
100
AcDbEntity
  8
Part
100
AcDbCircle
 10
37.15615656923036
 20
31.29128398310428
 30
0.0
 40
0.2160048371378685
100
AcDbArc
 50
301.1654383679848
 51
311.4992510010462
  0
ARC
  5
7C1
330
19
100
AcDbEntity
  8
Part
100
AcDbCircle
 10
37.15615656923036
 20
31.29128398310428
 30
0.0
 40
0.2160048371378685
100
AcDbArc
 50
318.500748998954
 51
328.1452283146879
  0
LINE
  5
7C2
330
19
100
AcDbEntity
  8
Part
100
AcDbLine
 10
37.2679414371032
 20
31.10645370154412
 30
0.0
 11
37.25585686681216
 21
31.0944969812212
 31
0.0
  0
LINE
  5
7C3
330
19
100
AcDbEntity
  8
Part
100
AcDbLine
 10
37.3396286075169
 20
31.17728354085101
 30
0.0
 11
37.35171317780796
 21
31.18924026117393
 31
0.0
  0
LINE
  5
7C4
330
19
100
AcDbEntity
  8
Part
100
AcDbLine
 10
37.35171317780796
 20
31.18924026117393
 30
0.0
 11
37.3396286075169
 21
31.17728354085101
 31
0.0
  0
ARC
  5
7C5
330
19
100
AcDbEntity
  8
Part
100
AcDbCircle
 10
37.21170290547475
 20
31.23514370494879
 30
0.0
 40
0.2160048371378685
100
AcDbArc
 50
301.1654383679848
 51
303.786778313725
  0
ARC
  5
7C6
330
19
100
AcDbEntity
  8
Part
100
AcDbCircle
 10
37.21170290547475
 20
31.23514370494879
 30
0.0
 40
0.2160048371378685
100
AcDbArc
 50
324.0546259611629
 51
328.1452283146879
  0
ARC
  5
7C7
330
19
100
AcDbEntity
  8
Part
100
AcDbCircle
 10
37.33601210358415
 20
31.04296073103386
 30
0.0
 40
0.0133334080618294
100
AcDbArc
 50
341.6932608332666
 51
108.3067391666925
  0
ARC
  5
7C8
330
19
100
AcDbEntity
  8
Part
100
AcDbCircle
 10
37.40026720688574
 20
31.10585371019267
 30
0.0
 40
0.0139167184968428
100
AcDbArc
 50
169.6838336426873
 51
280.3161663572887
  0
ARC
  5
7C9
330
19
100
AcDbEntity
  8
Part
100
AcDbCircle
 10
37.15422294210368
 20
31.29321761023096
 30
0.0
 40
0.2160048371378685
100
AcDbArc
 50
311.5967483051144
 51
318.4032516948856
  0
ARC
  5
7CA
330
19
100
AcDbEntity
  8
Part
100
AcDbCircle
 10
37.30889505433964
 20
31.13854549799499
 30
0.0
 40
0.0131957555501146
100
AcDbArc
 50
211.343630429963
 51
223.2496255005173
  0
ARC
  5
7CB
330
19
100
AcDbEntity
  8
Part
100
AcDbCircle
 10
37.30889505433964
 20
31.13854549799499
 30
0.0
 40
0.0131957555501146
100
AcDbArc
 50
46.75037449948254
 51
58.65636957003699
  0
LINE
  5
7F6
330
19
100
AcDbEntity
  8
Part
100
AcDbLine
 10
34.7495052818353
 20
30.4461490838206
 30
0.0
 11
34.20150528183531
 21
30.44614908382059
 31
0.0
  0
LINE
  5
7F7
330
19
100
AcDbEntity
  8
Part
100
AcDbLine
 10
34.74950528183531
 20
30.20531473139691
 30
0.0
 11
34.20150528183531
 21
30.20531473139691
 31
0.0
  0
LINE
  5
7F8
330
19
100
AcDbEntity
  8
Part
100
AcDbLine
 10
34.7495052818353
 20
30.531870141018
 30
0.0
 11
34.20150528183531
 21
30.531870141018
 31
0.0
  0
LINE
  5
7F9
330
19
100
AcDbEntity
  8
Part
100
AcDbLine
 10
34.7495052818353
 20
30.1195936741995
 30
0.0
 11
34.20150528183531
 21
30.1195936741995
 31
0.0
  0
LINE
  5
7FA
330
19
100
AcDbEntity
  8
Part
100
AcDbLine
 10
34.30350528183531
 20
31.47573190760876
 30
0.0
 11
34.30350528183531
 21
31.29773190760877
 31
0.0
  0
LINE
  5
7FB
330
19
100
AcDbEntity
  8
Part
100
AcDbLine
 10
34.30350528183531
 20
31.47573190760876
 30
0.0
 11
34.20150528183531
 21
31.47573190760876
 31
0.0
  0
LINE
  5
7FC
330
19
100
AcDbEntity
  8
Part
100
AcDbLine
 10
34.30350528183531
 20
31.43123190760876
 30
0.0
 11
34.20150528183531
 21
31.43123190760876
 31
0.0
  0
LINE
  5
7FD
330
19
100
AcDbEntity
  8
Part
100
AcDbLine
 10
34.30350528183531
 20
31.34223190760876
 30
0.0
 11
34.20150528183531
 21
31.34223190760876
 31
0.0
  0
LINE
  5
7FE
330
19
100
AcDbEntity
  8
Part
100
AcDbLine
 10
34.30350528183531
 20
31.29773190760877
 30
0.0
 11
34.20150528183531
 21
31.29773190760877
 31
0.0
  0
LINE
  5
7FF
330
19
100
AcDbEntity
  8
Part
100
AcDbLine
 10
34.30350528183531
 20
29.17573190760876
 30
0.0
 11
34.30350528183531
 21
29.35373190760875
 31
0.0
  0
LINE
  5
800
330
19
100
AcDbEntity
  8
Part
100
AcDbLine
 10
34.30350528183531
 20
29.17573190760876
 30
0.0
 11
34.20150528183531
 21
29.17573190760876
 31
0.0
  0
LINE
  5
801
330
19
100
AcDbEntity
  8
Part
100
AcDbLine
 10
34.30350528183531
 20
29.22023190760877
 30
0.0
 11
34.20150528183531
 21
29.22023190760877
 31
0.0
  0
LINE
  5
802
330
19
100
AcDbEntity
  8
Part
100
AcDbLine
 10
34.30350528183531
 20
29.30923190760875
 30
0.0
 11
34.20150528183531
 21
29.30923190760875
 31
0.0
  0
LINE
  5
803
330
19
100
AcDbEntity
  8
Part
100
AcDbLine
 10
34.30350528183531
 20
29.35373190760876
 30
0.0
 11
34.20150528183531
 21
29.35373190760876
 31
0.0
  0
LINE
  5
804
330
19
100
AcDbEntity
  8
Part
100
AcDbLine
 10
32.7615052818353
 20
31.47573190760876
 30
0.0
 11
32.7615052818353
 21
31.29773190760877
 31
0.0
  0
LINE
  5
805
330
19
100
AcDbEntity
  8
Part
100
AcDbLine
 10
32.7615052818353
 20
31.47573190760876
 30
0.0
 11
32.8635052818353
 21
31.47573190760876
 31
0.0
  0
LINE
  5
806
330
19
100
AcDbEntity
  8
Part
100
AcDbLine
 10
32.7615052818353
 20
31.43123190760876
 30
0.0
 11
32.8635052818353
 21
31.43123190760876
 31
0.0
  0
LINE
  5
807
330
19
100
AcDbEntity
  8
Part
100
AcDbLine
 10
32.7615052818353
 20
31.34223190760876
 30
0.0
 11
32.8635052818353
 21
31.34223190760876
 31
0.0
  0
LINE
  5
808
330
19
100
AcDbEntity
  8
Part
100
AcDbLine
 10
32.7615052818353
 20
31.29773190760877
 30
0.0
 11
32.8635052818353
 21
31.29773190760877
 31
0.0
  0
LINE
  5
809
330
19
100
AcDbEntity
  8
Part
100
AcDbLine
 10
32.7615052818353
 20
29.17573190760876
 30
0.0
 11
32.7615052818353
 21
29.35373190760875
 31
0.0
  0
LINE
  5
80A
330
19
100
AcDbEntity
  8
Part
100
AcDbLine
 10
32.7615052818353
 20
29.17573190760876
 30
0.0
 11
32.8635052818353
 21
29.17573190760876
 31
0.0
  0
LINE
  5
80B
330
19
100
AcDbEntity
  8
Part
100
AcDbLine
 10
32.7615052818353
 20
29.22023190760877
 30
0.0
 11
32.8635052818353
 21
29.22023190760877
 31
0.0
  0
LINE
  5
80C
330
19
100
AcDbEntity
  8
Part
100
AcDbLine
 10
32.7615052818353
 20
29.30923190760875
 30
0.0
 11
32.8635052818353
 21
29.30923190760875
 31
0.0
  0
LINE
  5
80D
330
19
100
AcDbEntity
  8
Part
100
AcDbLine
 10
32.7615052818353
 20
29.35373190760876
 30
0.0
 11
32.8635052818353
 21
29.35373190760876
 31
0.0
  0
LINE
  5
80E
330
19
100
AcDbEntity
  8
Part
100
AcDbLine
 10
34.8255052818353
 20
30.38723190760875
 30
0.0
 11
34.8255052818353
 21
30.26423190760875
 31
0.0
  0
LINE
  5
80F
330
19
100
AcDbEntity
  8
Part
100
AcDbLine
 10
34.77550528183531
 20
30.43723190760875
 30
0.0
 11
34.7495052818353
 21
30.43723190760875
 31
0.0
  0
LINE
  5
810
330
19
100
AcDbEntity
  8
Part
100
AcDbLine
 10
34.77550528183531
 20
30.21423190760875
 30
0.0
 11
34.74950528183531
 21
30.21423190760875
 31
0.0
  0
ARC
  5
811
330
19
100
AcDbEntity
  8
Part
100
AcDbCircle
 10
34.77550528183531
 20
30.38723190760875
 30
0.0
 40
0.05
100
AcDbArc
 50
0.0
 51
90.00000000000262
  0
ARC
  5
812
330
19
100
AcDbEntity
  8
Part
100
AcDbCircle
 10
34.77550528183531
 20
30.26423190760875
 30
0.0
 40
0.05
100
AcDbArc
 50
269.9999999999973
 51
0.0
  0
LINE
  5
814
330
19
100
AcDbEntity
  8
Part
100
AcDbLine
 10
34.33150528183531
 20
31.18924026117393
 30
0.0
 11
34.33150528183532
 21
30.63623190760876
 31
0.0
  0
LINE
  5
816
330
19
100
AcDbEntity
  8
Part
100
AcDbLine
 10
34.48150528183531
 20
31.03833927222158
 30
0.0
 11
34.40650528183531
 21
31.03833927222158
 31
0.0
  0
LINE
  5
817
330
19
100
AcDbEntity
  8
Part
100
AcDbLine
 10
34.48150528183531
 20
31.18924026117393
 30
0.0
 11
34.48150528183531
 21
31.03833927222158
 31
0.0
  0
LINE
  5
818
330
19
100
AcDbEntity
  8
Part
100
AcDbLine
 10
34.48150528183531
 20
31.17728354085101
 30
0.0
 11
34.44650528183532
 21
31.17728354085102
 31
0.0
  0
LINE
  5
819
330
19
100
AcDbEntity
  8
Part
100
AcDbLine
 10
34.48150528183531
 20
31.18924026117393
 30
0.0
 11
34.33150528183531
 21
31.18924026117393
 31
0.0
  0
LINE
  5
81C
330
19
100
AcDbEntity
  8
Part
100
AcDbLine
 10
34.39650528183531
 20
31.02833927222158
 30
0.0
 11
34.39650528183531
 21
31.026815763158
 31
0.0
  0
LINE
  5
81D
330
19
100
AcDbEntity
  8
Part
100
AcDbLine
 10
34.42350528183533
 20
31.026815763158
 30
0.0
 11
34.39650528183531
 21
31.026815763158
 31
0.0
  0
LINE
  5
81E
330
19
100
AcDbEntity
  8
Part
100
AcDbLine
 10
34.42350528183533
 20
30.90790658988419
 30
0.0
 11
34.35050528183533
 21
30.90790658988419
 31
0.0
  0
LINE
  5
820
330
19
100
AcDbEntity
  8
Part
100
AcDbLine
 10
34.42350528183533
 20
31.026815763158
 30
0.0
 11
34.42350528183533
 21
30.9079065898842
 31
0.0
  0
LINE
  5
823
330
19
100
AcDbEntity
  8
Part
100
AcDbLine
 10
34.35050528183533
 20
30.90790658988419
 30
0.0
 11
34.35050528183533
 21
30.63623190760877
 31
0.0
  0
ARC
  5
825
330
19
100
AcDbEntity
  8
Part
100
AcDbCircle
 10
34.44650528183532
 20
31.12728354085102
 30
0.0
 40
0.05
100
AcDbArc
 50
89.99999999999761
 51
179.9999999999951
  0
ARC
  5
826
330
19
100
AcDbEntity
  8
Part
100
AcDbCircle
 10
34.44650528183532
 20
31.12728354085103
 30
0.0
 40
0.05
100
AcDbArc
 50
180.0000000000049
 51
270.0000000000024
  0
LINE
  5
827
330
19
100
AcDbEntity
  8
Part
100
AcDbLine
 10
34.48150528183531
 20
31.07728354085103
 30
0.0
 11
34.44650528183532
 21
31.07728354085102
 31
0.0
  0
ARC
  5
828
330
19
100
AcDbEntity
  8
Part
100
AcDbCircle
 10
34.40650528183531
 20
31.02833927222158
 30
0.0
 40
0.01
100
AcDbArc
 50
90.0
 51
180.0
  0
LINE
  5
829
330
19
100
AcDbEntity
  8
Part
100
AcDbLine
 10
34.41350528183532
 20
30.89123190760876
 30
0.0
 11
34.41350528183533
 21
30.63623190760876
 31
0.0
  0
LINE
  5
82A
330
19
100
AcDbEntity
  8
Part
100
AcDbLine
 10
34.41350528183533
 20
30.89123190760877
 30
0.0
 11
34.35050528183533
 21
30.89123190760877
 31
0.0
  0
LINE
  5
82B
330
19
100
AcDbEntity
  8
Part
100
AcDbLine
 10
34.41350528183534
 20
30.63623190760877
 30
0.0
 11
34.33150528183531
 21
30.63623190760876
 31
0.0
  0
LINE
  5
82D
330
19
100
AcDbEntity
  8
Part
100
AcDbLine
 10
34.41350528183533
 20
30.82748190760876
 30
0.0
 11
34.35050528183533
 21
30.82748190760876
 31
0.0
  0
LINE
  5
82E
330
19
100
AcDbEntity
  8
Part
100
AcDbLine
 10
34.41350528183533
 20
30.69998190760877
 30
0.0
 11
34.35050528183531
 21
30.69998190760876
 31
0.0
  0
LINE
  5
82F
330
19
100
AcDbEntity
  8
Part
100
AcDbLine
 10
34.33150528183531
 20
30.89123190760876
 30
0.0
 11
34.20150528183531
 21
30.89123190760876
 31
0.0
  0
LINE
  5
831
330
19
100
AcDbEntity
  8
Part
100
AcDbLine
 10
34.62050528183532
 20
30.82473190760876
 30
0.0
 11
34.62050528183534
 21
30.70273190760878
 31
0.0
  0
LINE
  5
832
330
19
100
AcDbEntity
  8
Part
100
AcDbLine
 10
34.62050528183532
 20
30.82473190760876
 30
0.0
 11
34.41350528183532
 21
30.82473190760876
 31
0.0
  0
LINE
  5
833
330
19
100
AcDbEntity
  8
Part
100
AcDbLine
 10
34.62050528183533
 20
30.70273190760878
 30
0.0
 11
34.41350528183533
 21
30.70273190760876
 31
0.0
  0
LINE
  5
834
330
19
100
AcDbEntity
  8
Part
100
AcDbLine
 10
34.35050528183533
 20
30.63623190760877
 30
0.0
 11
34.33150528183532
 21
30.63623190760877
 31
0.0
  0
LINE
  5
836
330
19
100
AcDbEntity
  8
Part
100
AcDbLine
 10
34.26850528183532
 20
30.89123190760877
 30
0.0
 11
34.33150528183533
 21
30.89123190760877
 31
0.0
  0
LINE
  5
837
330
19
100
AcDbEntity
  8
Part
100
AcDbLine
 10
34.20150528183531
 20
30.63623190760877
 30
0.0
 11
34.35050528183533
 21
30.63623190760876
 31
0.0
  0
LINE
  5
838
330
19
100
AcDbEntity
  8
Part
100
AcDbLine
 10
34.20150528183531
 20
30.82748190760876
 30
0.0
 11
34.33150528183533
 21
30.82748190760876
 31
0.0
  0
LINE
  5
839
330
19
100
AcDbEntity
  8
Part
100
AcDbLine
 10
34.20150528183531
 20
30.69998190760877
 30
0.0
 11
34.33150528183534
 21
30.69998190760876
 31
0.0
  0
LINE
  5
920
330
19
100
AcDbEntity
  8
Part
100
AcDbLine
 10
34.20150528183531
 20
34.91987958815724
 30
0.0
 11
32.8635052818353
 21
34.91987958815724
 31
0.0
  0
LINE
  5
922
330
19
100
AcDbEntity
  8
Part
100
AcDbLine
 10
34.20150528183531
 20
37.31887958815724
 30
0.0
 11
32.8635052818353
 21
37.31887958815724
 31
0.0
  0
LINE
  5
923
330
19
100
AcDbEntity
  8
Part
100
AcDbLine
 10
34.20150528183531
 20
37.89487958815725
 30
0.0
 11
32.8635052818353
 21
37.89487958815725
 31
0.0
  0
LINE
  5
924
330
19
100
AcDbEntity
  8
Part
100
AcDbLine
 10
34.20150528183531
 20
35.49587958815725
 30
0.0
 11
32.8635052818353
 21
35.49587958815725
 31
0.0
  0
LINE
  5
925
330
19
100
AcDbEntity
  8
Part
100
AcDbLine
 10
34.20150528183531
 20
34.91987958815724
 30
0.0
 11
34.20150528183531
 21
37.89487958815725
 31
0.0
  0
LINE
  5
926
330
19
100
AcDbEntity
  8
Part
100
AcDbLine
 10
32.8635052818353
 20
34.91987958815724
 30
0.0
 11
32.8635052818353
 21
37.89487958815725
 31
0.0
  0
LINE
  5
927
330
19
100
AcDbEntity
  8
Part
100
AcDbLine
 10
32.90450528183531
 20
34.91987958815724
 30
0.0
 11
32.90450528183531
 21
37.89487958815725
 31
0.0
  0
LINE
  5
928
330
19
100
AcDbEntity
  8
Part
100
AcDbLine
 10
34.16050528183532
 20
34.91987958815724
 30
0.0
 11
34.16050528183532
 21
37.89487958815725
 31
0.0
  0
LINE
  5
929
330
19
100
AcDbEntity
  8
Part
100
AcDbLine
 10
34.30350528183531
 20
35.58780332722044
 30
0.0
 11
34.30350528183531
 21
35.74195584909406
 31
0.0
  0
LINE
  5
92A
330
19
100
AcDbEntity
  8
Part
100
AcDbLine
 10
34.30350528183531
 20
35.74195584909406
 30
0.0
 11
34.20150528183531
 21
35.74195584909406
 31
0.0
  0
LINE
  5
92B
330
19
100
AcDbEntity
  8
Part
100
AcDbLine
 10
34.30350528183531
 20
35.58780332722044
 30
0.0
 11
34.20150528183531
 21
35.58780332722044
 31
0.0
  0
LINE
  5
92C
330
19
100
AcDbEntity
  8
Part
100
AcDbLine
 10
34.30350528183531
 20
35.66487958815726
 30
0.0
 11
34.20150528183531
 21
35.66487958815725
 31
0.0
  0
LINE
  5
92D
330
19
100
AcDbEntity
  8
Part
100
AcDbLine
 10
34.30350528183531
 20
37.22695584909406
 30
0.0
 11
34.30350528183531
 21
37.07280332722044
 31
0.0
  0
LINE
  5
92E
330
19
100
AcDbEntity
  8
Part
100
AcDbLine
 10
34.30350528183531
 20
37.07280332722044
 30
0.0
 11
34.20150528183531
 21
37.07280332722044
 31
0.0
  0
LINE
  5
92F
330
19
100
AcDbEntity
  8
Part
100
AcDbLine
 10
34.30350528183531
 20
37.22695584909406
 30
0.0
 11
34.20150528183531
 21
37.22695584909406
 31
0.0
  0
LINE
  5
930
330
19
100
AcDbEntity
  8
Part
100
AcDbLine
 10
34.30350528183531
 20
37.14987958815724
 30
0.0
 11
34.20150528183531
 21
37.14987958815725
 31
0.0
  0
LINE
  5
931
330
19
100
AcDbEntity
  8
Part
100
AcDbLine
 10
32.7615052818353
 20
35.58780332722044
 30
0.0
 11
32.7615052818353
 21
35.74195584909406
 31
0.0
  0
LINE
  5
932
330
19
100
AcDbEntity
  8
Part
100
AcDbLine
 10
32.7615052818353
 20
35.74195584909406
 30
0.0
 11
32.8635052818353
 21
35.74195584909406
 31
0.0
  0
LINE
  5
933
330
19
100
AcDbEntity
  8
Part
100
AcDbLine
 10
32.7615052818353
 20
35.58780332722044
 30
0.0
 11
32.8635052818353
 21
35.58780332722044
 31
0.0
  0
LINE
  5
934
330
19
100
AcDbEntity
  8
Part
100
AcDbLine
 10
32.7615052818353
 20
35.66487958815726
 30
0.0
 11
32.8635052818353
 21
35.66487958815725
 31
0.0
  0
LINE
  5
935
330
19
100
AcDbEntity
  8
Part
100
AcDbLine
 10
32.7615052818353
 20
37.22695584909406
 30
0.0
 11
32.7615052818353
 21
37.07280332722044
 31
0.0
  0
LINE
  5
936
330
19
100
AcDbEntity
  8
Part
100
AcDbLine
 10
32.7615052818353
 20
37.07280332722044
 30
0.0
 11
32.8635052818353
 21
37.07280332722044
 31
0.0
  0
LINE
  5
937
330
19
100
AcDbEntity
  8
Part
100
AcDbLine
 10
32.7615052818353
 20
37.22695584909406
 30
0.0
 11
32.8635052818353
 21
37.22695584909406
 31
0.0
  0
LINE
  5
938
330
19
100
AcDbEntity
  8
Part
100
AcDbLine
 10
32.7615052818353
 20
37.14987958815724
 30
0.0
 11
32.8635052818353
 21
37.14987958815725
 31
0.0
  0
LINE
  5
93A
330
19
100
AcDbEntity
  8
Part
100
AcDbLine
 10
34.16050528183532
 20
36.55737958815725
 30
0.0
 11
32.90450528183531
 21
36.55737958815725
 31
0.0
  0
LINE
  5
93B
330
19
100
AcDbEntity
  8
Part
100
AcDbLine
 10
34.16050528183532
 20
36.25737958815725
 30
0.0
 11
32.90450528183531
 21
36.25737958815725
 31
0.0
  0
LINE
  5
93C
330
19
100
AcDbEntity
  8
Part
100
AcDbLine
 10
34.7495052818353
 20
37.29887958815726
 30
0.0
 11
34.20150528183531
 21
37.29887958815726
 31
0.0
  0
LINE
  5
93D
330
19
100
AcDbEntity
  8
Part
100
AcDbLine
 10
34.7495052818353
 20
35.50387958815722
 30
0.0
 11
34.41350528183532
 21
35.50387958815722
 31
0.0
  0
LINE
  5
93E
330
19
100
AcDbEntity
  8
Part
100
AcDbLine
 10
34.7495052818353
 20
37.03087958815725
 30
0.0
 11
34.20150528183531
 21
37.03087958815725
 31
0.0
  0
LINE
  5
93F
330
19
100
AcDbEntity
  8
Part
100
AcDbLine
 10
34.7495052818353
 20
35.77187958815724
 30
0.0
 11
34.20150528183531
 21
35.77187958815724
 31
0.0
  0
LINE
  5
940
330
19
100
AcDbEntity
  8
Part
100
AcDbLine
 10
34.7495052818353
 20
35.50387958815725
 30
0.0
 11
34.7495052818353
 21
37.29887958815726
 31
0.0
  0
LINE
  5
942
330
19
100
AcDbEntity
  8
Part
100
AcDbLine
 10
34.8255052818353
 20
37.23787958815726
 30
0.0
 11
34.8255052818353
 21
37.11487958815725
 31
0.0
  0
ARC
  5
943
330
19
100
AcDbEntity
  8
Part
100
AcDbCircle
 10
34.77550528183531
 20
37.11487958815725
 30
0.0
 40
0.05
100
AcDbArc
 50
269.9999999999973
 51
0.0
  0
ARC
  5
944
330
19
100
AcDbEntity
  8
Part
100
AcDbCircle
 10
34.77550528183531
 20
37.23787958815726
 30
0.0
 40
0.05
100
AcDbArc
 50
0.0
 51
90.00000000000261
  0
LINE
  5
945
330
19
100
AcDbEntity
  8
Part
100
AcDbLine
 10
34.77550528183531
 20
37.28787958815726
 30
0.0
 11
34.7495052818353
 21
37.28787958815726
 31
0.0
  0
LINE
  5
946
330
19
100
AcDbEntity
  8
Part
100
AcDbLine
 10
34.77550528183531
 20
37.06487958815726
 30
0.0
 11
34.74950528183531
 21
37.06487958815726
 31
0.0
  0
LINE
  5
947
330
19
100
AcDbEntity
  8
Part
100
AcDbLine
 10
34.8255052818353
 20
35.56487958815725
 30
0.0
 11
34.8255052818353
 21
35.68787958815724
 31
0.0
  0
ARC
  5
948
330
19
100
AcDbEntity
  8
Part
100
AcDbCircle
 10
34.77550528183531
 20
35.68787958815724
 30
0.0
 40
0.05
100
AcDbArc
 50
0.0
 51
90.00000000000266
  0
ARC
  5
949
330
19
100
AcDbEntity
  8
Part
100
AcDbCircle
 10
34.77550528183531
 20
35.56487958815725
 30
0.0
 40
0.05
100
AcDbArc
 50
269.9999999999973
 51
0.0
  0
LINE
  5
94A
330
19
100
AcDbEntity
  8
Part
100
AcDbLine
 10
34.77550528183531
 20
35.51487958815724
 30
0.0
 11
34.7495052818353
 21
35.51487958815724
 31
0.0
  0
LINE
  5
94B
330
19
100
AcDbEntity
  8
Part
100
AcDbLine
 10
34.77550528183531
 20
35.73787958815724
 30
0.0
 11
34.74950528183531
 21
35.73787958815724
 31
0.0
  0
LINE
  5
968
330
19
100
AcDbEntity
  8
Part
100
AcDbLine
 10
34.33150528183531
 20
35.16080655297756
 30
0.0
 11
34.33150528183532
 21
35.71381490654272
 31
0.0
  0
LINE
  5
969
330
19
100
AcDbEntity
  8
Part
100
AcDbLine
 10
34.35050528183533
 20
35.44214022426729
 30
0.0
 11
34.35050528183533
 21
35.71381490654272
 31
0.0
  0
LINE
  5
96A
330
19
100
AcDbEntity
  8
Part
100
AcDbLine
 10
34.41350528183532
 20
35.45881490654271
 30
0.0
 11
34.41350528183533
 21
35.71381490654272
 31
0.0
  0
LINE
  5
96B
330
19
100
AcDbEntity
  8
Part
100
AcDbLine
 10
34.62050528183532
 20
35.52531490654272
 30
0.0
 11
34.62050528183534
 21
35.64731490654272
 31
0.0
  0
LINE
  5
96C
330
19
100
AcDbEntity
  8
Part
100
AcDbLine
 10
34.42350528183533
 20
35.32323105099348
 30
0.0
 11
34.42350528183533
 21
35.44214022426729
 31
0.0
  0
ARC
  5
96D
330
19
100
AcDbEntity
  8
Part
100
AcDbCircle
 10
34.44650528183532
 20
35.22276327330046
 30
0.0
 40
0.05
100
AcDbArc
 50
180.0000000000049
 51
270.0000000000024
  0
LINE
  5
96E
330
19
100
AcDbEntity
  8
Part
100
AcDbLine
 10
34.48150528183531
 20
35.16080655297756
 30
0.0
 11
34.48150528183531
 21
35.3117075419299
 31
0.0
  0
LINE
  5
96F
330
19
100
AcDbEntity
  8
Part
100
AcDbLine
 10
34.48150528183531
 20
35.31170754192991
 30
0.0
 11
34.40650528183531
 21
35.31170754192991
 31
0.0
  0
ARC
  5
970
330
19
100
AcDbEntity
  8
Part
100
AcDbCircle
 10
34.40650528183531
 20
35.3217075419299
 30
0.0
 40
0.01
100
AcDbArc
 50
180.0
 51
270.0
  0
LINE
  5
971
330
19
100
AcDbEntity
  8
Part
100
AcDbLine
 10
34.48150528183531
 20
35.17276327330047
 30
0.0
 11
34.44650528183532
 21
35.17276327330046
 31
0.0
  0
LINE
  5
972
330
19
100
AcDbEntity
  8
Part
100
AcDbLine
 10
34.48150528183531
 20
35.16080655297756
 30
0.0
 11
34.33150528183531
 21
35.16080655297756
 31
0.0
  0
LINE
  5
973
330
19
100
AcDbEntity
  8
Part
100
AcDbLine
 10
34.39650528183531
 20
35.3217075419299
 30
0.0
 11
34.39650528183531
 21
35.32323105099349
 31
0.0
  0
LINE
  5
974
330
19
100
AcDbEntity
  8
Part
100
AcDbLine
 10
34.42350528183533
 20
35.32323105099348
 30
0.0
 11
34.39650528183531
 21
35.32323105099349
 31
0.0
  0
LINE
  5
975
330
19
100
AcDbEntity
  8
Part
100
AcDbLine
 10
34.42350528183533
 20
35.44214022426729
 30
0.0
 11
34.35050528183533
 21
35.44214022426729
 31
0.0
  0
ARC
  5
976
330
19
100
AcDbEntity
  8
Part
100
AcDbCircle
 10
34.44650528183532
 20
35.22276327330046
 30
0.0
 40
0.05
100
AcDbArc
 50
89.99999999999761
 51
179.9999999999951
  0
LINE
  5
977
330
19
100
AcDbEntity
  8
Part
100
AcDbLine
 10
34.48150528183531
 20
35.27276327330046
 30
0.0
 11
34.44650528183532
 21
35.27276327330046
 31
0.0
  0
LINE
  5
978
330
19
100
AcDbEntity
  8
Part
100
AcDbLine
 10
34.41350528183533
 20
35.45881490654271
 30
0.0
 11
34.35050528183533
 21
35.45881490654271
 31
0.0
  0
LINE
  5
979
330
19
100
AcDbEntity
  8
Part
100
AcDbLine
 10
34.33150528183531
 20
35.45881490654271
 30
0.0
 11
34.20150528183531
 21
35.45881490654271
 31
0.0
  0
LINE
  5
97A
330
19
100
AcDbEntity
  8
Part
100
AcDbLine
 10
34.41350528183534
 20
35.71381490654272
 30
0.0
 11
34.33150528183531
 21
35.71381490654272
 31
0.0
  0
LINE
  5
97B
330
19
100
AcDbEntity
  8
Part
100
AcDbLine
 10
34.41350528183533
 20
35.52256490654272
 30
0.0
 11
34.35050528183533
 21
35.52256490654271
 31
0.0
  0
LINE
  5
97C
330
19
100
AcDbEntity
  8
Part
100
AcDbLine
 10
34.41350528183533
 20
35.65006490654271
 30
0.0
 11
34.35050528183531
 21
35.65006490654273
 31
0.0
  0
LINE
  5
97D
330
19
100
AcDbEntity
  8
Part
100
AcDbLine
 10
34.62050528183532
 20
35.52531490654272
 30
0.0
 11
34.41350528183532
 21
35.52531490654272
 31
0.0
  0
LINE
  5
97E
330
19
100
AcDbEntity
  8
Part
100
AcDbLine
 10
34.62050528183533
 20
35.64731490654272
 30
0.0
 11
34.41350528183533
 21
35.64731490654272
 31
0.0
  0
LINE
  5
97F
330
19
100
AcDbEntity
  8
Part
100
AcDbLine
 10
34.35050528183533
 20
35.71381490654272
 30
0.0
 11
34.33150528183532
 21
35.71381490654272
 31
0.0
  0
LINE
  5
980
330
19
100
AcDbEntity
  8
Part
100
AcDbLine
 10
34.26850528183532
 20
35.45881490654271
 30
0.0
 11
34.33150528183533
 21
35.45881490654271
 31
0.0
  0
LINE
  5
981
330
19
100
AcDbEntity
  8
Part
100
AcDbLine
 10
34.30350528183531
 20
35.71381490654272
 30
0.0
 11
34.35050528183533
 21
35.71381490654272
 31
0.0
  0
LINE
  5
982
330
19
100
AcDbEntity
  8
Part
100
AcDbLine
 10
34.20150528183531
 20
35.52256490654272
 30
0.0
 11
34.33150528183533
 21
35.52256490654271
 31
0.0
  0
LINE
  5
983
330
19
100
AcDbEntity
  8
Part
100
AcDbLine
 10
34.30350528183531
 20
35.65006490654271
 30
0.0
 11
34.33150528183534
 21
35.65006490654273
 31
0.0
  0
LINE
  5
985
330
19
100
AcDbEntity
  8
Part
100
AcDbLine
 10
34.46450528183531
 20
35.93487958815725
 30
0.0
 11
34.46450528183531
 21
36.09487958815724
 31
0.0
  0
LINE
  5
986
330
19
100
AcDbEntity
  8
Part
100
AcDbLine
 10
29.4779924736739
 20
31.52623190760876
 30
0.0
 11
27.65499247367389
 21
31.52623190760876
 31
0.0
  0
LINE
  5
989
330
19
100
AcDbEntity
  8
Part
100
AcDbLine
 10
29.4779924736739
 20
29.12523190760876
 30
0.0
 11
27.65499247367389
 21
29.12523190760876
 31
0.0
  0
ARC
  5
98A
330
19
100
AcDbEntity
  8
Part
100
AcDbCircle
 10
28.51495058999333
 20
30.32573190760877
 30
0.0
 40
1.539041883680565
100
AcDbArc
 50
308.7366087619059
 51
51.26339123809419
  0
ARC
  5
98C
330
19
100
AcDbEntity
  8
Part
100
AcDbCircle
 10
28.61803435735446
 20
30.32573190760877
 30
0.0
 40
1.539041883680565
100
AcDbArc
 50
128.7366087619058
 51
231.2633912380942
  0
CIRCLE
  5
990
330
19
100
AcDbEntity
  8
Part
100
AcDbCircle
 10
29.30899247367389
 20
31.38673190760876
 30
0.0
 40
0.1135
  0
CIRCLE
  5
991
330
19
100
AcDbEntity
  8
Part
100
AcDbCircle
 10
27.82399247367389
 20
31.38673190760876
 30
0.0
 40
0.1135
  0
LWPOLYLINE
  5
992
330
19
100
AcDbEntity
  8
Part
100
AcDbPolyline
 90
        6
 70
     1
 43
0.0
 10
29.23191621273708
 20
31.43123190760876
 10
29.30899247367389
 20
31.47573190760876
 10
29.3860687346107
 20
31.43123190760876
 10
29.3860687346107
 20
31.34223190760876
 10
29.30899247367389
 20
31.29773190760877
 10
29.23191621273708
 20
31.34223190760876
  0
LWPOLYLINE
  5
993
330
19
100
AcDbEntity
  8
Part
100
AcDbPolyline
 90
        6
 70
     1
 43
0.0
 10
27.9010687346107
 20
31.43123190760876
 10
27.82399247367389
 20
31.47573190760876
 10
27.74691621273708
 20
31.43123190760876
 10
27.74691621273708
 20
31.34223190760876
 10
27.82399247367389
 20
31.29773190760877
 10
27.9010687346107
 20
31.34223190760876
  0
LINE
  5
994
330
19
100
AcDbEntity
  8
Part
100
AcDbLine
 10
29.23191621273708
 20
31.40756054657199
 30
0.0
 11
29.3655687346107
 21
31.33039622709038
 31
0.0
  0
LINE
  5
995
330
19
100
AcDbEntity
  8
Part
100
AcDbLine
 10
29.25241621273708
 20
31.44306758812715
 30
0.0
 11
29.3860687346107
 21
31.36590326864554
 31
0.0
  0
LINE
  5
996
330
19
100
AcDbEntity
  8
Part
100
AcDbLine
 10
27.9010687346107
 20
31.40756054657199
 30
0.0
 11
27.76741621273707
 21
31.33039622709038
 31
0.0
  0
LINE
  5
997
330
19
100
AcDbEntity
  8
Part
100
AcDbLine
 10
27.88056873461071
 20
31.44306758812715
 30
0.0
 11
27.74691621273708
 21
31.36590326864554
 31
0.0
  0
CIRCLE
  5
99D
330
19
100
AcDbEntity
  8
Part
100
AcDbCircle
 10
29.30899247367389
 20
29.26473190760875
 30
0.0
 40
0.1135
  0
CIRCLE
  5
99E
330
19
100
AcDbEntity
  8
Part
100
AcDbCircle
 10
27.82399247367389
 20
29.26473190760875
 30
0.0
 40
0.1135
  0
LWPOLYLINE
  5
99F
330
19
100
AcDbEntity
  8
Part
100
AcDbPolyline
 90
        6
 70
     1
 43
0.0
 10
29.23191621273708
 20
29.22023190760875
 10
29.30899247367389
 20
29.17573190760876
 10
29.3860687346107
 20
29.22023190760875
 10
29.3860687346107
 20
29.30923190760875
 10
29.30899247367389
 20
29.35373190760875
 10
29.23191621273708
 20
29.30923190760875
  0
LWPOLYLINE
  5
9A0
330
19
100
AcDbEntity
  8
Part
100
AcDbPolyline
 90
        6
 70
     1
 43
0.0
 10
27.9010687346107
 20
29.22023190760875
 10
27.82399247367389
 20
29.17573190760876
 10
27.74691621273708
 20
29.22023190760875
 10
27.74691621273708
 20
29.30923190760875
 10
27.82399247367389
 20
29.35373190760875
 10
27.9010687346107
 20
29.30923190760875
  0
LINE
  5
9A1
330
19
100
AcDbEntity
  8
Part
100
AcDbLine
 10
29.23191621273708
 20
29.24390326864553
 30
0.0
 11
29.3655687346107
 21
29.32106758812714
 31
0.0
  0
LINE
  5
9A2
330
19
100
AcDbEntity
  8
Part
100
AcDbLine
 10
29.25241621273708
 20
29.20839622709036
 30
0.0
 11
29.3860687346107
 21
29.28556054657197
 31
0.0
  0
LINE
  5
9A3
330
19
100
AcDbEntity
  8
Part
100
AcDbLine
 10
27.9010687346107
 20
29.24390326864553
 30
0.0
 11
27.76741621273707
 21
29.32106758812714
 31
0.0
  0
LINE
  5
9A4
330
19
100
AcDbEntity
  8
Part
100
AcDbLine
 10
27.88056873461071
 20
29.20839622709036
 30
0.0
 11
27.74691621273708
 21
29.28556054657197
 31
0.0
  0
LINE
  5
A6B
330
19
100
AcDbEntity
  8
Part
100
AcDbLine
 10
34.30450528183531
 20
35.93487958815725
 30
0.0
 11
34.30450528183533
 21
36.09487958815724
 31
0.0
  0
LINE
  5
A70
330
19
100
AcDbEntity
  8
Part
100
AcDbLine
 10
34.46450528183531
 20
36.09487958815724
 30
0.0
 11
34.30450528183531
 21
36.09487958815724
 31
0.0
  0
LINE
  5
A71
330
19
100
AcDbEntity
  8
Part
100
AcDbLine
 10
34.46450528183531
 20
35.93487958815725
 30
0.0
 11
34.30450528183531
 21
35.93487958815725
 31
0.0
  0
LINE
  5
A75
330
19
100
AcDbEntity
  8
Part
100
AcDbLine
 10
34.33150528183531
 20
36.06787958815725
 30
0.0
 11
34.43750528183532
 21
36.06787958815725
 31
0.0
  0
LINE
  5
A7A
330
19
100
AcDbEntity
  8
Part
100
AcDbLine
 10
34.33150528183533
 20
35.96187958815725
 30
0.0
 11
34.33150528183532
 21
36.06787958815725
 31
0.0
  0
LINE
  5
A7B
330
19
100
AcDbEntity
  8
Part
100
AcDbLine
 10
34.43750528183533
 20
35.96187958815725
 30
0.0
 11
34.33150528183533
 21
35.96187958815722
 31
0.0
  0
LINE
  5
A7C
330
19
100
AcDbEntity
  8
Part
100
AcDbLine
 10
34.43750528183532
 20
36.06787958815725
 30
0.0
 11
34.43750528183532
 21
35.96187958815725
 31
0.0
  0
LINE
  5
A7D
330
19
100
AcDbEntity
  8
Part
100
AcDbLine
 10
34.43750528183532
 20
36.06787958815725
 30
0.0
 11
34.46450528183531
 21
36.09487958815724
 31
0.0
  0
LINE
  5
A7E
330
19
100
AcDbEntity
  8
Part
100
AcDbLine
 10
34.33150528183532
 20
36.06787958815725
 30
0.0
 11
34.30450528183531
 21
36.09487958815724
 31
0.0
  0
LINE
  5
A7F
330
19
100
AcDbEntity
  8
Part
100
AcDbLine
 10
34.30450528183531
 20
35.93487958815725
 30
0.0
 11
34.33150528183533
 21
35.96187958815725
 31
0.0
  0
LINE
  5
A80
330
19
100
AcDbEntity
  8
Part
100
AcDbLine
 10
34.43750528183532
 20
35.96187958815725
 30
0.0
 11
34.46450528183532
 21
35.93487958815725
 31
0.0
  0
LINE
  5
A81
330
19
100
AcDbEntity
  8
Part
100
AcDbLine
 10
34.46450528183531
 20
36.24287958815724
 30
0.0
 11
34.46450528183531
 21
36.40287958815724
 31
0.0
  0
LINE
  5
A82
330
19
100
AcDbEntity
  8
Part
100
AcDbLine
 10
34.30450528183531
 20
36.24287958815724
 30
0.0
 11
34.30450528183533
 21
36.40287958815724
 31
0.0
  0
LINE
  5
A83
330
19
100
AcDbEntity
  8
Part
100
AcDbLine
 10
34.46450528183531
 20
36.40287958815724
 30
0.0
 11
34.30450528183531
 21
36.40287958815724
 31
0.0
  0
LINE
  5
A84
330
19
100
AcDbEntity
  8
Part
100
AcDbLine
 10
34.46450528183531
 20
36.24287958815724
 30
0.0
 11
34.30450528183531
 21
36.24287958815724
 31
0.0
  0
LINE
  5
A85
330
19
100
AcDbEntity
  8
Part
100
AcDbLine
 10
34.33150528183531
 20
36.37587958815725
 30
0.0
 11
34.43750528183532
 21
36.37587958815725
 31
0.0
  0
LINE
  5
A86
330
19
100
AcDbEntity
  8
Part
100
AcDbLine
 10
34.33150528183533
 20
36.26987958815725
 30
0.0
 11
34.33150528183532
 21
36.37587958815725
 31
0.0
  0
LINE
  5
A87
330
19
100
AcDbEntity
  8
Part
100
AcDbLine
 10
34.43750528183533
 20
36.26987958815725
 30
0.0
 11
34.33150528183533
 21
36.26987958815723
 31
0.0
  0
LINE
  5
A88
330
19
100
AcDbEntity
  8
Part
100
AcDbLine
 10
34.43750528183532
 20
36.37587958815725
 30
0.0
 11
34.43750528183532
 21
36.26987958815725
 31
0.0
  0
LINE
  5
A89
330
19
100
AcDbEntity
  8
Part
100
AcDbLine
 10
34.43750528183532
 20
36.37587958815725
 30
0.0
 11
34.46450528183531
 21
36.40287958815724
 31
0.0
  0
LINE
  5
A8A
330
19
100
AcDbEntity
  8
Part
100
AcDbLine
 10
34.33150528183532
 20
36.37587958815725
 30
0.0
 11
34.30450528183531
 21
36.40287958815724
 31
0.0
  0
LINE
  5
A8B
330
19
100
AcDbEntity
  8
Part
100
AcDbLine
 10
34.30450528183531
 20
36.24287958815724
 30
0.0
 11
34.33150528183533
 21
36.26987958815725
 31
0.0
  0
LINE
  5
A8C
330
19
100
AcDbEntity
  8
Part
100
AcDbLine
 10
34.43750528183532
 20
36.26987958815725
 30
0.0
 11
34.46450528183532
 21
36.24287958815724
 31
0.0
  0
LINE
  5
A8D
330
19
100
AcDbEntity
  8
Part
100
AcDbLine
 10
34.46450528183531
 20
36.55087958815725
 30
0.0
 11
34.46450528183531
 21
36.71087958815724
 31
0.0
  0
LINE
  5
A8E
330
19
100
AcDbEntity
  8
Part
100
AcDbLine
 10
34.30450528183531
 20
36.55087958815725
 30
0.0
 11
34.30450528183533
 21
36.71087958815724
 31
0.0
  0
LINE
  5
A8F
330
19
100
AcDbEntity
  8
Part
100
AcDbLine
 10
34.46450528183531
 20
36.71087958815724
 30
0.0
 11
34.30450528183531
 21
36.71087958815724
 31
0.0
  0
LINE
  5
A90
330
19
100
AcDbEntity
  8
Part
100
AcDbLine
 10
34.46450528183531
 20
36.55087958815725
 30
0.0
 11
34.30450528183531
 21
36.55087958815725
 31
0.0
  0
LINE
  5
A91
330
19
100
AcDbEntity
  8
Part
100
AcDbLine
 10
34.33150528183531
 20
36.68387958815725
 30
0.0
 11
34.43750528183532
 21
36.68387958815725
 31
0.0
  0
LINE
  5
A92
330
19
100
AcDbEntity
  8
Part
100
AcDbLine
 10
34.33150528183533
 20
36.57787958815724
 30
0.0
 11
34.33150528183532
 21
36.68387958815725
 31
0.0
  0
LINE
  5
A93
330
19
100
AcDbEntity
  8
Part
100
AcDbLine
 10
34.43750528183533
 20
36.57787958815724
 30
0.0
 11
34.33150528183533
 21
36.57787958815723
 31
0.0
  0
LINE
  5
A94
330
19
100
AcDbEntity
  8
Part
100
AcDbLine
 10
34.43750528183532
 20
36.68387958815725
 30
0.0
 11
34.43750528183532
 21
36.57787958815724
 31
0.0
  0
LINE
  5
A95
330
19
100
AcDbEntity
  8
Part
100
AcDbLine
 10
34.43750528183532
 20
36.68387958815725
 30
0.0
 11
34.46450528183531
 21
36.71087958815724
 31
0.0
  0
LINE
  5
A96
330
19
100
AcDbEntity
  8
Part
100
AcDbLine
 10
34.33150528183532
 20
36.68387958815725
 30
0.0
 11
34.30450528183531
 21
36.71087958815724
 31
0.0
  0
LINE
  5
A97
330
19
100
AcDbEntity
  8
Part
100
AcDbLine
 10
34.30450528183531
 20
36.55087958815725
 30
0.0
 11
34.33150528183533
 21
36.57787958815724
 31
0.0
  0
LINE
  5
A98
330
19
100
AcDbEntity
  8
Part
100
AcDbLine
 10
34.43750528183532
 20
36.57787958815724
 30
0.0
 11
34.46450528183532
 21
36.55087958815725
 31
0.0
  0
LINE
  5
A99
330
19
100
AcDbEntity
  8
Part
100
AcDbLine
 10
34.20150528183531
 20
25.73158422706028
 30
0.0
 11
32.8635052818353
 21
25.73158422706028
 31
0.0
  0
LINE
  5
A9A
330
19
100
AcDbEntity
  8
Part
100
AcDbLine
 10
34.20150528183531
 20
23.33258422706027
 30
0.0
 11
32.8635052818353
 21
23.33258422706027
 31
0.0
  0
LINE
  5
A9B
330
19
100
AcDbEntity
  8
Part
100
AcDbLine
 10
34.20150528183531
 20
22.75658422706027
 30
0.0
 11
32.8635052818353
 21
22.75658422706027
 31
0.0
  0
LINE
  5
A9C
330
19
100
AcDbEntity
  8
Part
100
AcDbLine
 10
34.20150528183531
 20
25.15558422706027
 30
0.0
 11
32.8635052818353
 21
25.15558422706027
 31
0.0
  0
LINE
  5
A9D
330
19
100
AcDbEntity
  8
Part
100
AcDbLine
 10
34.20150528183531
 20
25.73158422706028
 30
0.0
 11
34.20150528183531
 21
22.75658422706027
 31
0.0
  0
LINE
  5
A9E
330
19
100
AcDbEntity
  8
Part
100
AcDbLine
 10
32.8635052818353
 20
25.73158422706028
 30
0.0
 11
32.8635052818353
 21
22.75658422706027
 31
0.0
  0
LINE
  5
A9F
330
19
100
AcDbEntity
  8
Part
100
AcDbLine
 10
32.90450528183531
 20
25.73158422706028
 30
0.0
 11
32.90450528183531
 21
22.75658422706027
 31
0.0
  0
LINE
  5
AA0
330
19
100
AcDbEntity
  8
Part
100
AcDbLine
 10
34.16050528183532
 20
25.73158422706028
 30
0.0
 11
34.16050528183532
 21
22.75658422706027
 31
0.0
  0
LINE
  5
AA5
330
19
100
AcDbEntity
  8
Part
100
AcDbLine
 10
34.30350528183531
 20
23.42450796612346
 30
0.0
 11
34.30350528183531
 21
23.57866048799708
 31
0.0
  0
LINE
  5
AA6
330
19
100
AcDbEntity
  8
Part
100
AcDbLine
 10
34.30350528183531
 20
23.57866048799708
 30
0.0
 11
34.20150528183531
 21
23.57866048799708
 31
0.0
  0
LINE
  5
AA7
330
19
100
AcDbEntity
  8
Part
100
AcDbLine
 10
34.30350528183531
 20
23.42450796612346
 30
0.0
 11
34.20150528183531
 21
23.42450796612346
 31
0.0
  0
LINE
  5
AA8
330
19
100
AcDbEntity
  8
Part
100
AcDbLine
 10
34.30350528183531
 20
23.50158422706028
 30
0.0
 11
34.20150528183531
 21
23.50158422706027
 31
0.0
  0
LINE
  5
AA9
330
19
100
AcDbEntity
  8
Part
100
AcDbLine
 10
32.7615052818353
 20
25.06366048799709
 30
0.0
 11
32.7615052818353
 21
24.90950796612346
 31
0.0
  0
LINE
  5
AAA
330
19
100
AcDbEntity
  8
Part
100
AcDbLine
 10
32.7615052818353
 20
24.90950796612346
 30
0.0
 11
32.8635052818353
 21
24.90950796612346
 31
0.0
  0
LINE
  5
AAB
330
19
100
AcDbEntity
  8
Part
100
AcDbLine
 10
32.7615052818353
 20
25.06366048799709
 30
0.0
 11
32.8635052818353
 21
25.06366048799709
 31
0.0
  0
LINE
  5
AAC
330
19
100
AcDbEntity
  8
Part
100
AcDbLine
 10
32.7615052818353
 20
24.98658422706026
 30
0.0
 11
32.8635052818353
 21
24.98658422706027
 31
0.0
  0
LINE
  5
AAD
330
19
100
AcDbEntity
  8
Part
100
AcDbLine
 10
32.7615052818353
 20
23.42450796612346
 30
0.0
 11
32.7615052818353
 21
23.57866048799708
 31
0.0
  0
LINE
  5
AAE
330
19
100
AcDbEntity
  8
Part
100
AcDbLine
 10
32.7615052818353
 20
23.57866048799708
 30
0.0
 11
32.8635052818353
 21
23.57866048799708
 31
0.0
  0
LINE
  5
AAF
330
19
100
AcDbEntity
  8
Part
100
AcDbLine
 10
32.7615052818353
 20
23.42450796612346
 30
0.0
 11
32.8635052818353
 21
23.42450796612346
 31
0.0
  0
LINE
  5
AB0
330
19
100
AcDbEntity
  8
Part
100
AcDbLine
 10
32.7615052818353
 20
23.50158422706028
 30
0.0
 11
32.8635052818353
 21
23.50158422706027
 31
0.0
  0
LINE
  5
AB3
330
19
100
AcDbEntity
  8
Part
100
AcDbLine
 10
34.7495052818353
 20
23.35258422706026
 30
0.0
 11
34.20150528183531
 21
23.35258422706026
 31
0.0
  0
LINE
  5
AB4
330
19
100
AcDbEntity
  8
Part
100
AcDbLine
 10
34.7495052818353
 20
25.14758422706029
 30
0.0
 11
34.2015052818353
 21
25.14758422706029
 31
0.0
  0
LINE
  5
AB5
330
19
100
AcDbEntity
  8
Part
100
AcDbLine
 10
34.7495052818353
 20
23.62058422706026
 30
0.0
 11
34.20150528183531
 21
23.62058422706026
 31
0.0
  0
LINE
  5
AB6
330
19
100
AcDbEntity
  8
Part
100
AcDbLine
 10
34.7495052818353
 20
24.87958422706029
 30
0.0
 11
34.20150528183531
 21
24.87958422706029
 31
0.0
  0
LINE
  5
AB7
330
19
100
AcDbEntity
  8
Part
100
AcDbLine
 10
34.7495052818353
 20
25.14758422706028
 30
0.0
 11
34.7495052818353
 21
23.35258422706026
 31
0.0
  0
LINE
  5
AB8
330
19
100
AcDbEntity
  8
Part
100
AcDbLine
 10
34.46450528183531
 20
24.71658422706028
 30
0.0
 11
34.46450528183531
 21
24.55658422706028
 31
0.0
  0
LINE
  5
AB9
330
19
100
AcDbEntity
  8
Part
100
AcDbLine
 10
34.30450528183531
 20
24.71658422706028
 30
0.0
 11
34.30450528183533
 21
24.55658422706028
 31
0.0
  0
LINE
  5
ABA
330
19
100
AcDbEntity
  8
Part
100
AcDbLine
 10
34.8255052818353
 20
23.41358422706026
 30
0.0
 11
34.8255052818353
 21
23.53658422706027
 31
0.0
  0
ARC
  5
ABB
330
19
100
AcDbEntity
  8
Part
100
AcDbCircle
 10
34.77550528183531
 20
23.53658422706027
 30
0.0
 40
0.05
100
AcDbArc
 50
0.0
 51
90.00000000000266
  0
ARC
  5
ABC
330
19
100
AcDbEntity
  8
Part
100
AcDbCircle
 10
34.77550528183531
 20
23.41358422706026
 30
0.0
 40
0.05
100
AcDbArc
 50
269.9999999999973
 51
0.0
  0
LINE
  5
ABD
330
19
100
AcDbEntity
  8
Part
100
AcDbLine
 10
34.77550528183531
 20
23.36358422706027
 30
0.0
 11
34.7495052818353
 21
23.36358422706027
 31
0.0
  0
LINE
  5
ABE
330
19
100
AcDbEntity
  8
Part
100
AcDbLine
 10
34.77550528183531
 20
23.58658422706026
 30
0.0
 11
34.74950528183531
 21
23.58658422706026
 31
0.0
  0
LINE
  5
ABF
330
19
100
AcDbEntity
  8
Part
100
AcDbLine
 10
34.8255052818353
 20
25.08658422706028
 30
0.0
 11
34.8255052818353
 21
24.96358422706027
 31
0.0
  0
ARC
  5
AC0
330
19
100
AcDbEntity
  8
Part
100
AcDbCircle
 10
34.77550528183531
 20
24.96358422706027
 30
0.0
 40
0.05
100
AcDbArc
 50
269.9999999999973
 51
0.0
  0
ARC
  5
AC1
330
19
100
AcDbEntity
  8
Part
100
AcDbCircle
 10
34.77550528183531
 20
25.08658422706028
 30
0.0
 40
0.05
100
AcDbArc
 50
0.0
 51
90.00000000000266
  0
LINE
  5
AC2
330
19
100
AcDbEntity
  8
Part
100
AcDbLine
 10
34.77550528183531
 20
25.13658422706028
 30
0.0
 11
34.7495052818353
 21
25.13658422706028
 31
0.0
  0
LINE
  5
AC3
330
19
100
AcDbEntity
  8
Part
100
AcDbLine
 10
34.77550528183531
 20
24.91358422706028
 30
0.0
 11
34.74950528183531
 21
24.91358422706028
 31
0.0
  0
LINE
  5
AC4
330
19
100
AcDbEntity
  8
Part
100
AcDbLine
 10
34.33150528183531
 20
25.49065726223997
 30
0.0
 11
34.33150528183532
 21
25.14758422706029
 31
0.0
  0
LINE
  5
AC5
330
19
100
AcDbEntity
  8
Part
100
AcDbLine
 10
34.35050528183533
 20
25.20932359095024
 30
0.0
 11
34.35050528183533
 21
25.14758422706029
 31
0.0
  0
LINE
  5
AC6
330
19
100
AcDbEntity
  8
Part
100
AcDbLine
 10
34.41350528183532
 20
25.19264890867481
 30
0.0
 11
34.41350528183533
 21
25.14758422706029
 31
0.0
  0
LINE
  5
AC8
330
19
100
AcDbEntity
  8
Part
100
AcDbLine
 10
34.42350528183533
 20
25.32823276422404
 30
0.0
 11
34.42350528183533
 21
25.20932359095024
 31
0.0
  0
LINE
  5
ACA
330
19
100
AcDbEntity
  8
Part
100
AcDbLine
 10
34.48150528183531
 20
25.49065726223997
 30
0.0
 11
34.48150528183531
 21
25.33975627328762
 31
0.0
  0
LINE
  5
ACB
330
19
100
AcDbEntity
  8
Part
100
AcDbLine
 10
34.48150528183531
 20
25.33975627328761
 30
0.0
 11
34.40650528183531
 21
25.33975627328761
 31
0.0
  0
ARC
  5
ACC
330
19
100
AcDbEntity
  8
Part
100
AcDbCircle
 10
34.40650528183531
 20
25.32975627328762
 30
0.0
 40
0.01
100
AcDbArc
 50
90.00000000000005
 51
180.0
  0
LINE
  5
ACE
330
19
100
AcDbEntity
  8
Part
100
AcDbLine
 10
34.48150528183531
 20
25.49065726223997
 30
0.0
 11
34.33150528183531
 21
25.49065726223997
 31
0.0
  0
LINE
  5
ACF
330
19
100
AcDbEntity
  8
Part
100
AcDbLine
 10
34.39650528183531
 20
25.32975627328762
 30
0.0
 11
34.39650528183531
 21
25.32823276422404
 31
0.0
  0
LINE
  5
AD0
330
19
100
AcDbEntity
  8
Part
100
AcDbLine
 10
34.42350528183533
 20
25.32823276422404
 30
0.0
 11
34.39650528183531
 21
25.32823276422404
 31
0.0
  0
LINE
  5
AD1
330
19
100
AcDbEntity
  8
Part
100
AcDbLine
 10
34.42350528183533
 20
25.20932359095024
 30
0.0
 11
34.35050528183533
 21
25.20932359095024
 31
0.0
  0
LINE
  5
AD4
330
19
100
AcDbEntity
  8
Part
100
AcDbLine
 10
34.41350528183533
 20
25.19264890867481
 30
0.0
 11
34.35050528183533
 21
25.19264890867481
 31
0.0
  0
LINE
  5
AD5
330
19
100
AcDbEntity
  8
Part
100
AcDbLine
 10
34.33150528183531
 20
25.19264890867481
 30
0.0
 11
34.20150528183531
 21
25.19264890867481
 31
0.0
  0
LINE
  5
ADC
330
19
100
AcDbEntity
  8
Part
100
AcDbLine
 10
34.26850528183532
 20
25.19264890867481
 30
0.0
 11
34.33150528183533
 21
25.19264890867481
 31
0.0
  0
LINE
  5
AE0
330
19
100
AcDbEntity
  8
Part
100
AcDbLine
 10
34.46450528183531
 20
24.55658422706028
 30
0.0
 11
34.30450528183531
 21
24.55658422706028
 31
0.0
  0
LINE
  5
AE1
330
19
100
AcDbEntity
  8
Part
100
AcDbLine
 10
34.46450528183531
 20
24.71658422706028
 30
0.0
 11
34.30450528183531
 21
24.71658422706028
 31
0.0
  0
LINE
  5
AE2
330
19
100
AcDbEntity
  8
Part
100
AcDbLine
 10
34.33150528183531
 20
24.58358422706028
 30
0.0
 11
34.43750528183532
 21
24.58358422706027
 31
0.0
  0
LINE
  5
AE3
330
19
100
AcDbEntity
  8
Part
100
AcDbLine
 10
34.33150528183533
 20
24.68958422706028
 30
0.0
 11
34.33150528183532
 21
24.58358422706028
 31
0.0
  0
LINE
  5
AE4
330
19
100
AcDbEntity
  8
Part
100
AcDbLine
 10
34.43750528183533
 20
24.68958422706028
 30
0.0
 11
34.33150528183533
 21
24.68958422706029
 31
0.0
  0
LINE
  5
AE5
330
19
100
AcDbEntity
  8
Part
100
AcDbLine
 10
34.43750528183532
 20
24.58358422706028
 30
0.0
 11
34.43750528183532
 21
24.68958422706028
 31
0.0
  0
LINE
  5
AE6
330
19
100
AcDbEntity
  8
Part
100
AcDbLine
 10
34.43750528183532
 20
24.58358422706028
 30
0.0
 11
34.46450528183531
 21
24.55658422706028
 31
0.0
  0
LINE
  5
AE7
330
19
100
AcDbEntity
  8
Part
100
AcDbLine
 10
34.33150528183532
 20
24.58358422706028
 30
0.0
 11
34.30450528183531
 21
24.55658422706028
 31
0.0
  0
LINE
  5
AE8
330
19
100
AcDbEntity
  8
Part
100
AcDbLine
 10
34.30450528183531
 20
24.71658422706028
 30
0.0
 11
34.33150528183533
 21
24.68958422706028
 31
0.0
  0
LINE
  5
AE9
330
19
100
AcDbEntity
  8
Part
100
AcDbLine
 10
34.43750528183532
 20
24.68958422706028
 30
0.0
 11
34.46450528183532
 21
24.71658422706028
 31
0.0
  0
LINE
  5
AEA
330
19
100
AcDbEntity
  8
Part
100
AcDbLine
 10
34.46450528183531
 20
24.40858422706027
 30
0.0
 11
34.46450528183531
 21
24.24858422706028
 31
0.0
  0
LINE
  5
AEB
330
19
100
AcDbEntity
  8
Part
100
AcDbLine
 10
34.30450528183531
 20
24.40858422706027
 30
0.0
 11
34.30450528183533
 21
24.24858422706028
 31
0.0
  0
LINE
  5
AEC
330
19
100
AcDbEntity
  8
Part
100
AcDbLine
 10
34.46450528183531
 20
24.24858422706028
 30
0.0
 11
34.30450528183531
 21
24.24858422706028
 31
0.0
  0
LINE
  5
AED
330
19
100
AcDbEntity
  8
Part
100
AcDbLine
 10
34.46450528183531
 20
24.40858422706027
 30
0.0
 11
34.30450528183531
 21
24.40858422706027
 31
0.0
  0
LINE
  5
AEE
330
19
100
AcDbEntity
  8
Part
100
AcDbLine
 10
34.33150528183531
 20
24.27558422706028
 30
0.0
 11
34.43750528183532
 21
24.27558422706027
 31
0.0
  0
LINE
  5
AEF
330
19
100
AcDbEntity
  8
Part
100
AcDbLine
 10
34.33150528183533
 20
24.38158422706028
 30
0.0
 11
34.33150528183532
 21
24.27558422706028
 31
0.0
  0
LINE
  5
AF0
330
19
100
AcDbEntity
  8
Part
100
AcDbLine
 10
34.43750528183533
 20
24.38158422706028
 30
0.0
 11
34.33150528183533
 21
24.38158422706029
 31
0.0
  0
LINE
  5
AF1
330
19
100
AcDbEntity
  8
Part
100
AcDbLine
 10
34.43750528183532
 20
24.27558422706028
 30
0.0
 11
34.43750528183532
 21
24.38158422706028
 31
0.0
  0
LINE
  5
AF2
330
19
100
AcDbEntity
  8
Part
100
AcDbLine
 10
34.43750528183532
 20
24.27558422706028
 30
0.0
 11
34.46450528183531
 21
24.24858422706028
 31
0.0
  0
LINE
  5
AF3
330
19
100
AcDbEntity
  8
Part
100
AcDbLine
 10
34.33150528183532
 20
24.27558422706028
 30
0.0
 11
34.30450528183531
 21
24.24858422706028
 31
0.0
  0
LINE
  5
AF4
330
19
100
AcDbEntity
  8
Part
100
AcDbLine
 10
34.30450528183531
 20
24.40858422706027
 30
0.0
 11
34.33150528183533
 21
24.38158422706028
 31
0.0
  0
LINE
  5
AF5
330
19
100
AcDbEntity
  8
Part
100
AcDbLine
 10
34.43750528183532
 20
24.38158422706028
 30
0.0
 11
34.46450528183532
 21
24.40858422706027
 31
0.0
  0
LINE
  5
AF6
330
19
100
AcDbEntity
  8
Part
100
AcDbLine
 10
34.46450528183531
 20
24.10058422706028
 30
0.0
 11
34.46450528183531
 21
23.94058422706028
 31
0.0
  0
LINE
  5
AF7
330
19
100
AcDbEntity
  8
Part
100
AcDbLine
 10
34.30450528183531
 20
24.10058422706028
 30
0.0
 11
34.30450528183533
 21
23.94058422706028
 31
0.0
  0
LINE
  5
AF8
330
19
100
AcDbEntity
  8
Part
100
AcDbLine
 10
34.46450528183531
 20
23.94058422706028
 30
0.0
 11
34.30450528183531
 21
23.94058422706028
 31
0.0
  0
LINE
  5
AF9
330
19
100
AcDbEntity
  8
Part
100
AcDbLine
 10
34.46450528183531
 20
24.10058422706028
 30
0.0
 11
34.30450528183531
 21
24.10058422706028
 31
0.0
  0
LINE
  5
AFA
330
19
100
AcDbEntity
  8
Part
100
AcDbLine
 10
34.33150528183531
 20
23.96758422706028
 30
0.0
 11
34.43750528183532
 21
23.96758422706027
 31
0.0
  0
LINE
  5
AFB
330
19
100
AcDbEntity
  8
Part
100
AcDbLine
 10
34.33150528183533
 20
24.07358422706028
 30
0.0
 11
34.33150528183532
 21
23.96758422706028
 31
0.0
  0
LINE
  5
AFC
330
19
100
AcDbEntity
  8
Part
100
AcDbLine
 10
34.43750528183533
 20
24.07358422706028
 30
0.0
 11
34.33150528183533
 21
24.07358422706029
 31
0.0
  0
LINE
  5
AFD
330
19
100
AcDbEntity
  8
Part
100
AcDbLine
 10
34.43750528183532
 20
23.96758422706028
 30
0.0
 11
34.43750528183532
 21
24.07358422706028
 31
0.0
  0
LINE
  5
AFE
330
19
100
AcDbEntity
  8
Part
100
AcDbLine
 10
34.43750528183532
 20
23.96758422706028
 30
0.0
 11
34.46450528183531
 21
23.94058422706028
 31
0.0
  0
LINE
  5
AFF
330
19
100
AcDbEntity
  8
Part
100
AcDbLine
 10
34.33150528183532
 20
23.96758422706028
 30
0.0
 11
34.30450528183531
 21
23.94058422706028
 31
0.0
  0
LINE
  5
B00
330
19
100
AcDbEntity
  8
Part
100
AcDbLine
 10
34.30450528183531
 20
24.10058422706028
 30
0.0
 11
34.33150528183533
 21
24.07358422706028
 31
0.0
  0
LINE
  5
B01
330
19
100
AcDbEntity
  8
Part
100
AcDbLine
 10
34.43750528183532
 20
24.07358422706028
 30
0.0
 11
34.46450528183532
 21
24.10058422706028
 31
0.0
  0
LINE
  5
BE8
330
19
100
AcDbEntity
  8
Part
100
AcDbLine
 10
34.16050528183532
 20
24.39958422706027
 30
0.0
 11
32.90450528183531
 21
24.39958422706027
 31
0.0
  0
LINE
  5
BE9
330
19
100
AcDbEntity
  8
Part
100
AcDbLine
 10
34.16050528183532
 20
24.08858422706027
 30
0.0
 11
32.90450528183531
 21
24.08858422706027
 31
0.0
  0
MTEXT
  5
C89
330
19
100
AcDbEntity
  8
Notes
370
     0
100
AcDbMText
 10
27.80162796364209
 20
28.87853584606252
 30
0.0
 40
0.2
 41
3.019983788495805
 71
     1
 72
     5
  1
BACK VIEW
 73
     1
 44
1.0
1001
ACAD
1000
MTEXTBEGIN
1070
    73
1070
     1
1070
    44
1040
1.0
1070
    74
1070
     0
1000
MTEXTEND
  0
MTEXT
  5
C93
330
19
100
AcDbEntity
  8
Notes
370
     0
100
AcDbMText
 10
32.86244116694799
 20
28.81591267749714
 30
0.0
 40
0.2
 41
3.019983788495805
 71
     1
 72
     5
  1
SIDE{\fArial Baltic|b0|i0|c186|p34; VIEW}
 73
     1
 44
1.0
1001
ACAD
1000
MTEXTBEGIN
1070
    73
1070
     1
1070
    44
1040
1.0
1070
    74
1070
     0
1000
MTEXTEND
  0
MTEXT
  5
C95
330
19
100
AcDbEntity
  8
Notes
370
     0
100
AcDbMText
 10
37.67562335161303
 20
28.84732486196356
 30
0.0
 40
0.2
 41
3.019983788495805
 71
     1
 72
     5
  1
FRONT{\fArial Baltic|b0|i0|c186|p34; VIEW}
 73
     1
 44
1.0
1001
ACAD
1000
MTEXTBEGIN
1070
    73
1070
     1
1070
    44
1040
1.0
1070
    74
1070
     0
1000
MTEXTEND
  0
MTEXT
  5
C97
330
19
100
AcDbEntity
  8
Notes
370
     0
100
AcDbMText
 10
32.6907499690258
 20
22.45230602309955
 30
0.0
 40
0.2
 41
3.019983788495805
 71
     1
 72
     5
  1
BOTTOM{\fArial Baltic|b0|i0|c186|p34; VIEW}
 73
     1
 44
1.0
1001
ACAD
1000
MTEXTBEGIN
1070
    73
1070
     1
1070
    44
1040
1.0
1070
    74
1070
     0
1000
MTEXTEND
  0
MTEXT
  5
C99
330
19
100
AcDbEntity
  8
Notes
370
     0
100
AcDbMText
 10
32.90201881722342
 20
38.41652857345215
 30
0.0
 40
0.2
 41
3.019983788495805
 71
     1
 72
     5
  1
TOP{\fArial Baltic|b0|i0|c186|p34; VIEW}
 73
     1
 44
1.0
1001
ACAD
1000
MTEXTBEGIN
1070
    73
1070
     1
1070
    44
1040
1.0
1070
    74
1070
     0
1000
MTEXTEND
  0
MTEXT
  5
CA4
330
19
100
AcDbEntity
  8
Notes
100
AcDbMText
 10
27.1978455525573
 20
39.61472069979052
 30
0.0
 40
0.354463385711929
 41
34.35601123036423
 71
     1
 72
     5
  1
{\fArial|b0|i0|c0|p34;Hockey - Puck Housing }
  7
ADESK1
 73
     1
 44
1.0
1001
ACAD
1000
MTEXTBEGIN
1070
    73
1070
     1
1070
    44
1040
1.0
1070
    74
1070
     0
1000
MTEXTEND
  0
LINE
  5
CA5
330
19
100
AcDbEntity
  8
Notes
100
AcDbLine
 10
27.11442752794154
 20
38.97000848883227
 30
0.0
 11
39.60030787457393
 21
38.97000848883227
 31
0.0
  0
LINE
  5
E69
330
19
100
AcDbEntity
  8
Part
100
AcDbLine
 10
59.837423843437
 20
32.0872392086064
 30
0.0
 11
61.23742384343702
 21
32.0872392086064
 31
0.0
  0
LINE
  5
E72
330
19
100
AcDbEntity
  8
Part
100
AcDbLine
 10
59.83742384343702
 20
28.96223920860639
 30
0.0
 11
61.23742384343702
 21
28.9622392086064
 31
0.0
  0
LINE
  5
E73
102
{ACAD_REACTORS
330
116F
102
}
330
19
100
AcDbEntity
  8
Part
100
AcDbLine
 10
59.88742384343701
 20
29.0042392086064
 30
0.0
 11
61.18742384343702
 21
29.00423920860639
 31
0.0
  0
LINE
  5
E74
330
19
100
AcDbEntity
  8
Part
100
AcDbLine
 10
59.88742384343701
 20
29.36023920860639
 30
0.0
 11
61.18742384343702
 21
29.36023920860639
 31
0.0
  0
LINE
  5
E75
102
{ACAD_REACTORS
330
116F
102
}
330
19
100
AcDbEntity
  8
Part
100
AcDbLine
 10
59.88742384343701
 20
29.31823920860641
 30
0.0
 11
61.18742384343702
 21
29.31823920860639
 31
0.0
  0
MTEXT
  5
E7E
330
19
100
AcDbEntity
  8
Labels
100
AcDbMText
 10
60.141705165052
 20
31.072641856516
 30
0.0
 40
0.15
 41
0.3621891498354843
 71
     1
 72
     5
  1
{\fArial Narrow|b1|i0|c0|p34;\W0.7;ACX}
 73
     1
 44
1.0
1001
ACAD
1000
MTEXTBEGIN
1070
    73
1070
     1
1070
    44
1040
1.0
1070
    74
1070
     0
1000
MTEXTEND
  0
CIRCLE
  5
E84
330
19
100
AcDbEntity
  8
Part
100
AcDbCircle
 10
60.58492384343701
 20
30.4152392086064
 30
0.0
 40
0.0533124684197297
  0
LINE
  5
E85
330
19
100
AcDbEntity
  8
Part
100
AcDbLine
 10
60.62430917138078
 20
30.379308508199
 30
0.0
 11
60.55710638251895
 21
30.46071896407053
 31
0.0
  0
LINE
  5
E86
330
19
100
AcDbEntity
  8
Part
100
AcDbLine
 10
60.6127413043551
 20
30.36975945314229
 30
0.0
 11
60.54553851549325
 21
30.45116990901382
 31
0.0
  0
MTEXT
  5
E87
330
19
100
AcDbEntity
  8
Labels
100
AcDbMText
 10
60.47660202883803
 20
30.63675993159649
 30
0.0
 40
0.0690961935097737
 41
0.5052025935589743
 71
     1
 72
     5
  1
{\fArial Narrow|b0|i0|c0|p34;ZERO}
  7
ADESK1
 73
     1
 44
1.0
1001
ACAD
1000
MTEXTBEGIN
1070
    73
1070
     1
1070
    44
1040
1.0
1070
    74
1070
     0
1000
MTEXTEND
  0
MTEXT
  5
E89
330
19
100
AcDbEntity
  8
Labels
100
AcDbMText
 10
60.42026329352212
 20
31.07687704769789
 30
0.0
 40
0.0616679681558104
 41
0.6517405924961733
 71
     1
 72
     5
  1
{\fArial Narrow|b0|i0|c0|p34;\W0.8;AC CURRENT\PTRANSMITTER}
 73
     1
 44
1.0
1001
ACAD
1000
MTEXTBEGIN
1070
    73
1070
     1
1070
    44
1040
1.0
1070
    74
1070
     0
1000
MTEXTEND
  0
CIRCLE
  5
E8B
330
19
100
AcDbEntity
  8
Part
100
AcDbCircle
 10
60.46721889661458
 20
30.08917845739599
 30
0.0
 40
0.0465727010665098
  0
CIRCLE
  5
E8C
330
19
100
AcDbEntity
  8
Part
100
AcDbCircle
 10
60.46721889661458
 20
30.08917845739599
 30
0.0
 40
0.0573842209569495
  0
CIRCLE
  5
E8E
330
19
100
AcDbEntity
  8
Part
100
AcDbCircle
 10
61.02775462016507
 20
30.08917845739599
 30
0.0
 40
0.0465727010665098
  0
CIRCLE
  5
E8F
330
19
100
AcDbEntity
  8
Part
100
AcDbCircle
 10
61.02775462016507
 20
30.08917845739599
 30
0.0
 40
0.0573842209569495
  0
MTEXT
  5
E90
330
19
100
AcDbEntity
  8
Labels
100
AcDbMText
 10
60.45589092198595
 20
30.00773757085446
 30
0.0
 40
0.0582158763331372
 41
0.3243455967131932
 71
     2
 72
     5
  1
{\fArial Narrow|b0|i0|c0|p34;\W0.8;+T}
 73
     1
 44
1.0
1001
ACAD
1000
MTEXTBEGIN
1070
    73
1070
     1
1070
    44
1040
1.0
1070
    74
1070
     0
1000
MTEXTEND
  0
MTEXT
  5
E91
330
19
100
AcDbEntity
  8
Labels
100
AcDbMText
 10
61.02770263057322
 20
30.00773757085446
 30
0.0
 40
0.0582158763331372
 41
0.3243455967131932
 71
     2
 72
     5
  1
{\fArial Narrow|b0|i0|c0|p34;\W0.8;-T}
 73
     1
 44
1.0
1001
ACAD
1000
MTEXTBEGIN
1070
    73
1070
     1
1070
    44
1040
1.0
1070
    74
1070
     0
1000
MTEXTEND
  0
LINE
  5
E92
330
19
100
AcDbEntity
  8
Part
100
AcDbLine
 10
53.40049123714681
 20
28.9622392086064
 30
0.0
 11
56.71049123714682
 21
28.9622392086064
 31
0.0
  0
LINE
  5
E93
330
19
100
AcDbEntity
  8
Part
100
AcDbLine
 10
56.71049123714682
 20
32.0872392086064
 30
0.0
 11
56.71049123714682
 21
28.9622392086064
 31
0.0
  0
LINE
  5
E94
330
19
100
AcDbEntity
  8
Part
100
AcDbLine
 10
53.40049123714681
 20
28.9622392086064
 30
0.0
 11
53.40049123714681
 21
31.3722392086064
 31
0.0
  0
LINE
  5
E95
330
19
100
AcDbEntity
  8
Part
100
AcDbLine
 10
56.71049123714682
 20
32.0872392086064
 30
0.0
 11
52.9004912371468
 21
32.0872392086064
 31
0.0
  0
LINE
  5
E96
330
19
100
AcDbEntity
  8
Part
100
AcDbLine
 10
53.40049123714681
 20
31.3722392086064
 30
0.0
 11
52.9004912371468
 21
31.3722392086064
 31
0.0
  0
LINE
  5
E97
330
19
100
AcDbEntity
  8
Part
100
AcDbLine
 10
52.9004912371468
 20
32.0872392086064
 30
0.0
 11
52.9004912371468
 21
31.3722392086064
 31
0.0
  0
LINE
  5
E98
330
19
100
AcDbEntity
  8
Part
100
AcDbLine
 10
56.71049123714682
 20
29.1362392086064
 30
0.0
 11
56.93849123714681
 21
29.1362392086064
 31
0.0
  0
LINE
  5
E99
330
19
100
AcDbEntity
  8
Part
100
AcDbLine
 10
56.71049123714682
 20
29.2282392086064
 30
0.0
 11
56.93849123714681
 21
29.2282392086064
 31
0.0
  0
LINE
  5
E9A
330
19
100
AcDbEntity
  8
Part
100
AcDbLine
 10
56.93849123714681
 20
29.0327392086064
 30
0.0
 11
56.93849123714681
 21
29.1362392086064
 31
0.0
  0
LINE
  5
E9B
330
19
100
AcDbEntity
  8
Part
100
AcDbLine
 10
56.93849123714681
 20
29.2282392086064
 30
0.0
 11
56.93849123714681
 21
29.3317392086064
 31
0.0
  0
ARC
  5
E9C
330
19
100
AcDbEntity
  8
Part
100
AcDbCircle
 10
56.98849123714682
 20
29.3317392086064
 30
0.0
 40
0.05
100
AcDbArc
 50
90.0
 51
180.0
  0
ARC
  5
E9D
330
19
100
AcDbEntity
  8
Part
100
AcDbCircle
 10
56.98849123714682
 20
29.0327392086064
 30
0.0
 40
0.05
100
AcDbArc
 50
180.0
 51
270.0
  0
HATCH
  5
E9E
330
19
100
AcDbEntity
  8
Part
100
AcDbHatch
 10
0.0
 20
0.0
 30
0.0
210
0.0
220
0.0
230
1.0
  2
SOLID
 70
     1
 71
     0
 91
        1
 92
        7
 72
     1
 73
     1
 93
        6
 10
57.0324912371468
 20
29.0617392086064
 42
0.4142135623730798
 10
57.05749123714682
 20
29.0367392086064
 42
0.0
 10
57.08452323752513
 20
29.0367392086064
 42
0.0
 10
57.08452323752513
 20
29.3277392086064
 42
0.0
 10
57.05749123714682
 20
29.3277392086064
 42
0.4142135623731005
 10
57.0324912371468
 20
29.3027392086064
 42
0.0
 97
        0
 75
     0
 76
     1
 47
0.0022198402391061
 98
        1
 10
57.05560692402364
 20
29.19374112022202
1001
ACAD
1010
0.0
1020
0.0
1030
0.0
  0
LINE
  5
E9F
330
19
100
AcDbEntity
  8
Part
100
AcDbLine
 10
57.0324912371468
 20
29.0617392086064
 30
0.0
 11
57.0324912371468
 21
29.3027392086064
 31
0.0
  0
ARC
  5
EA0
330
19
100
AcDbEntity
  8
Part
100
AcDbCircle
 10
57.05749123714682
 20
29.3027392086064
 30
0.0
 40
0.025
100
AcDbArc
 50
90.0
 51
180.0
  0
ARC
  5
EA1
330
19
100
AcDbEntity
  8
Part
100
AcDbCircle
 10
57.05749123714682
 20
29.0617392086064
 30
0.0
 40
0.025
100
AcDbArc
 50
180.0
 51
270.0
  0
LINE
  5
EA2
330
19
100
AcDbEntity
  8
Part
100
AcDbLine
 10
56.98849123714682
 20
29.3817392086064
 30
0.0
 11
57.09449123714682
 21
29.3817392086064
 31
0.0
  0
LINE
  5
EA3
330
19
100
AcDbEntity
  8
Part
100
AcDbLine
 10
57.05749123714682
 20
29.3277392086064
 30
0.0
 11
57.09449123714682
 21
29.3277392086064
 31
0.0
  0
LINE
  5
EA4
330
19
100
AcDbEntity
  8
Part
100
AcDbLine
 10
56.98849123714682
 20
28.9827392086064
 30
0.0
 11
57.09449123714682
 21
28.9827392086064
 31
0.0
  0
LINE
  5
EA5
330
19
100
AcDbEntity
  8
Part
100
AcDbLine
 10
57.05749123714682
 20
29.0367392086064
 30
0.0
 11
57.09449123714682
 21
29.0367392086064
 31
0.0
  0
LINE
  5
EA6
330
19
100
AcDbEntity
  8
Part
100
AcDbLine
 10
57.09449123714682
 20
28.9827392086064
 30
0.0
 11
57.09449123714682
 21
29.0367392086064
 31
0.0
  0
LINE
  5
EA7
330
19
100
AcDbEntity
  8
Part
100
AcDbLine
 10
57.09449123714682
 20
29.3277392086064
 30
0.0
 11
57.09449123714682
 21
29.3817392086064
 31
0.0
  0
LINE
  5
EA8
330
19
100
AcDbEntity
  8
Part
100
AcDbLine
 10
57.08452323752512
 20
29.3277392086064
 30
0.0
 11
57.08452323752513
 21
29.0367392086064
 31
0.0
  0
LINE
  5
EA9
330
19
100
AcDbEntity
  8
Part
  6
Continuous
100
AcDbLine
 10
54.31399123714678
 20
29.3914892086064
 30
0.0
 11
54.31399123714678
 21
29.3507392086064
 31
0.0
  0
LINE
  5
EAA
330
19
100
AcDbEntity
  8
Part
  6
Continuous
100
AcDbLine
 10
54.31399123714678
 20
29.3197392086064
 30
0.0
 11
54.31399123714678
 21
29.2789892086064
 31
0.0
  0
LINE
  5
EAB
330
19
100
AcDbEntity
  8
Part
  6
Continuous
100
AcDbLine
 10
54.34499123714679
 20
29.2789892086064
 30
0.0
 11
54.34499123714679
 21
29.3197392086064
 31
0.0
  0
LINE
  5
EAC
330
19
100
AcDbEntity
  8
Part
  6
Continuous
100
AcDbLine
 10
54.34499123714679
 20
29.3507392086064
 30
0.0
 11
54.34499123714679
 21
29.3914892086064
 31
0.0
  0
LINE
  5
EAD
330
19
100
AcDbEntity
  8
Part
  6
Continuous
100
AcDbLine
 10
54.38574123714679
 20
29.3197392086064
 30
0.0
 11
54.38574123714679
 21
29.3507392086064
 31
0.0
  0
LINE
  5
EAE
330
19
100
AcDbEntity
  8
Part
  6
Continuous
100
AcDbLine
 10
54.31399123714678
 20
29.2789892086064
 30
0.0
 11
54.34499123714679
 21
29.2789892086064
 31
0.0
  0
LINE
  5
EAF
330
19
100
AcDbEntity
  8
Part
  6
Continuous
100
AcDbLine
 10
54.27324123714678
 20
29.3197392086064
 30
0.0
 11
54.31399123714678
 21
29.3197392086064
 31
0.0
  0
LINE
  5
EB0
330
19
100
AcDbEntity
  8
Part
  6
Continuous
100
AcDbLine
 10
54.34499123714679
 20
29.3197392086064
 30
0.0
 11
54.38574123714679
 21
29.3197392086064
 31
0.0
  0
LINE
  5
EB1
330
19
100
AcDbEntity
  8
Part
  6
Continuous
100
AcDbLine
 10
54.38574123714679
 20
29.3507392086064
 30
0.0
 11
54.34499123714679
 21
29.3507392086064
 31
0.0
  0
LINE
  5
EB2
330
19
100
AcDbEntity
  8
Part
  6
Continuous
100
AcDbLine
 10
54.31399123714678
 20
29.3507392086064
 30
0.0
 11
54.27324123714678
 21
29.3507392086064
 31
0.0
  0
LINE
  5
EB3
330
19
100
AcDbEntity
  8
Part
  6
Continuous
100
AcDbLine
 10
54.34499123714679
 20
29.3914892086064
 30
0.0
 11
54.31399123714678
 21
29.3914892086064
 31
0.0
  0
CIRCLE
  5
EB4
330
19
100
AcDbEntity
  8
Part
  6
Continuous
100
AcDbCircle
 10
54.32949123714681
 20
29.3352392086064
 30
0.0
 40
0.1075
  0
LINE
  5
EB5
330
19
100
AcDbEntity
  8
Part
100
AcDbLine
 10
54.27324123714678
 20
29.3507392086064
 30
0.0
 11
54.27324123714678
 21
29.3197392086064
 31
0.0
  0
LINE
  5
EB6
330
19
100
AcDbEntity
  8
Part
  6
Continuous
100
AcDbLine
 10
56.50980419120227
 20
29.2308264479426
 30
0.0
 11
56.50980419120227
 21
29.19007644794259
 31
0.0
  0
LINE
  5
EB7
330
19
100
AcDbEntity
  8
Part
  6
Continuous
100
AcDbLine
 10
56.50980419120227
 20
29.15907644794259
 30
0.0
 11
56.50980419120227
 21
29.11832644794259
 31
0.0
  0
LINE
  5
EB8
330
19
100
AcDbEntity
  8
Part
  6
Continuous
100
AcDbLine
 10
56.54080419120229
 20
29.11832644794259
 30
0.0
 11
56.54080419120229
 21
29.15907644794259
 31
0.0
  0
LINE
  5
EB9
330
19
100
AcDbEntity
  8
Part
  6
Continuous
100
AcDbLine
 10
56.54080419120229
 20
29.19007644794259
 30
0.0
 11
56.54080419120229
 21
29.2308264479426
 31
0.0
  0
LINE
  5
EBA
330
19
100
AcDbEntity
  8
Part
  6
Continuous
100
AcDbLine
 10
56.58155419120229
 20
29.15907644794259
 30
0.0
 11
56.58155419120229
 21
29.19007644794259
 31
0.0
  0
LINE
  5
EBB
330
19
100
AcDbEntity
  8
Part
  6
Continuous
100
AcDbLine
 10
56.50980419120227
 20
29.11832644794259
 30
0.0
 11
56.54080419120229
 21
29.11832644794259
 31
0.0
  0
LINE
  5
EBC
330
19
100
AcDbEntity
  8
Part
  6
Continuous
100
AcDbLine
 10
56.46905419120227
 20
29.15907644794259
 30
0.0
 11
56.50980419120227
 21
29.15907644794259
 31
0.0
  0
LINE
  5
EBD
330
19
100
AcDbEntity
  8
Part
  6
Continuous
100
AcDbLine
 10
56.54080419120229
 20
29.15907644794259
 30
0.0
 11
56.58155419120229
 21
29.15907644794259
 31
0.0
  0
LINE
  5
EBE
330
19
100
AcDbEntity
  8
Part
  6
Continuous
100
AcDbLine
 10
56.58155419120229
 20
29.19007644794259
 30
0.0
 11
56.54080419120229
 21
29.19007644794259
 31
0.0
  0
LINE
  5
EBF
330
19
100
AcDbEntity
  8
Part
  6
Continuous
100
AcDbLine
 10
56.50980419120227
 20
29.19007644794259
 30
0.0
 11
56.46905419120227
 21
29.19007644794259
 31
0.0
  0
LINE
  5
EC0
330
19
100
AcDbEntity
  8
Part
  6
Continuous
100
AcDbLine
 10
56.54080419120229
 20
29.2308264479426
 30
0.0
 11
56.50980419120227
 21
29.2308264479426
 31
0.0
  0
CIRCLE
  5
EC1
330
19
100
AcDbEntity
  8
Part
  6
Continuous
100
AcDbCircle
 10
56.52530419120232
 20
29.17457644794259
 30
0.0
 40
0.1075
  0
LINE
  5
EC2
330
19
100
AcDbEntity
  8
Part
100
AcDbLine
 10
56.46905419120227
 20
29.19007644794259
 30
0.0
 11
56.46905419120227
 21
29.15907644794259
 31
0.0
  0
LINE
  5
EC3
330
19
100
AcDbEntity
  8
Part
  6
Continuous
100
AcDbLine
 10
53.98499123714678
 20
31.9544892086064
 30
0.0
 11
53.98499123714678
 21
31.9137392086064
 31
0.0
  0
LINE
  5
EC4
330
19
100
AcDbEntity
  8
Part
  6
Continuous
100
AcDbLine
 10
53.98499123714678
 20
31.8827392086064
 30
0.0
 11
53.98499123714678
 21
31.8419892086064
 31
0.0
  0
LINE
  5
EC5
330
19
100
AcDbEntity
  8
Part
  6
Continuous
100
AcDbLine
 10
54.01599123714678
 20
31.8419892086064
 30
0.0
 11
54.01599123714678
 21
31.8827392086064
 31
0.0
  0
LINE
  5
EC6
330
19
100
AcDbEntity
  8
Part
  6
Continuous
100
AcDbLine
 10
54.01599123714678
 20
31.9137392086064
 30
0.0
 11
54.01599123714678
 21
31.9544892086064
 31
0.0
  0
LINE
  5
EC7
330
19
100
AcDbEntity
  8
Part
  6
Continuous
100
AcDbLine
 10
54.05674123714678
 20
31.8827392086064
 30
0.0
 11
54.05674123714678
 21
31.9137392086064
 31
0.0
  0
LINE
  5
EC8
330
19
100
AcDbEntity
  8
Part
  6
Continuous
100
AcDbLine
 10
53.98499123714678
 20
31.8419892086064
 30
0.0
 11
54.01599123714678
 21
31.8419892086064
 31
0.0
  0
LINE
  5
EC9
330
19
100
AcDbEntity
  8
Part
  6
Continuous
100
AcDbLine
 10
53.94424123714678
 20
31.8827392086064
 30
0.0
 11
53.98499123714678
 21
31.8827392086064
 31
0.0
  0
LINE
  5
ECA
330
19
100
AcDbEntity
  8
Part
  6
Continuous
100
AcDbLine
 10
54.01599123714678
 20
31.8827392086064
 30
0.0
 11
54.05674123714678
 21
31.8827392086064
 31
0.0
  0
LINE
  5
ECB
330
19
100
AcDbEntity
  8
Part
  6
Continuous
100
AcDbLine
 10
54.05674123714678
 20
31.9137392086064
 30
0.0
 11
54.01599123714678
 21
31.9137392086064
 31
0.0
  0
LINE
  5
ECC
330
19
100
AcDbEntity
  8
Part
  6
Continuous
100
AcDbLine
 10
53.98499123714678
 20
31.9137392086064
 30
0.0
 11
53.94424123714678
 21
31.9137392086064
 31
0.0
  0
LINE
  5
ECD
330
19
100
AcDbEntity
  8
Part
  6
Continuous
100
AcDbLine
 10
54.01599123714678
 20
31.9544892086064
 30
0.0
 11
53.98499123714678
 21
31.9544892086064
 31
0.0
  0
CIRCLE
  5
ECE
330
19
100
AcDbEntity
  8
Part
  6
Continuous
100
AcDbCircle
 10
54.00049123714682
 20
31.8982392086064
 30
0.0
 40
0.1075
  0
LINE
  5
ECF
330
19
100
AcDbEntity
  8
Part
100
AcDbLine
 10
53.94424123714678
 20
31.9137392086064
 30
0.0
 11
53.94424123714678
 21
31.8827392086064
 31
0.0
  0
ARC
  5
ED9
330
19
100
AcDbEntity
  8
Part
100
AcDbCircle
 10
53.40049123714681
 20
31.2607392086064
 30
0.0
 40
0.028
100
AcDbArc
 50
180.0
 51
259.5951400858611
  0
LINE
  5
EDA
330
19
100
AcDbEntity
  8
Part
100
AcDbLine
 10
53.37249123714681
 20
31.2607392086064
 30
0.0
 11
53.37249123714681
 21
31.3722392086064
 31
0.0
  0
ARC
  5
EDB
330
19
100
AcDbEntity
  8
Part
100
AcDbCircle
 10
53.40049124229079
 20
31.1577392086064
 30
0.0
 40
0.028
100
AcDbArc
 50
100.4048706161491
 51
259.5951293838504
  0
ARC
  5
EDC
330
19
100
AcDbEntity
  8
Part
100
AcDbCircle
 10
53.40049124743479
 20
31.0547392086064
 30
0.0
 40
0.028
100
AcDbArc
 50
100.404881318159
 51
259.595118681841
  0
ARC
  5
EDD
330
19
100
AcDbEntity
  8
Part
100
AcDbCircle
 10
53.40049125257877
 20
30.9517392086064
 30
0.0
 40
0.028
100
AcDbArc
 50
100.4048920201716
 51
259.59510797983
  0
ARC
  5
EDE
330
19
100
AcDbEntity
  8
Part
100
AcDbCircle
 10
53.40049125772274
 20
30.8487392086064
 30
0.0
 40
0.028
100
AcDbArc
 50
100.4049027221826
 51
259.5950972778175
  0
ARC
  5
EDF
330
19
100
AcDbEntity
  8
Part
100
AcDbCircle
 10
53.40049126286674
 20
30.7457392086064
 30
0.0
 40
0.028
100
AcDbArc
 50
100.4049134241939
 51
259.595086575806
  0
LINE
  5
EE0
330
19
100
AcDbEntity
  8
Part
100
AcDbLine
 10
53.39543436511369
 20
31.23319963625604
 30
0.0
 11
53.39543436511369
 21
31.1852787800122
 31
0.0
  0
LINE
  5
EE1
330
19
100
AcDbEntity
  8
Part
100
AcDbLine
 10
53.39543436511369
 20
31.13019963720059
 30
0.0
 11
53.39543436511369
 21
31.08227877906766
 31
0.0
  0
LINE
  5
EE2
330
19
100
AcDbEntity
  8
Part
100
AcDbLine
 10
53.39543436511369
 20
31.02719963814514
 30
0.0
 11
53.39543436511369
 21
30.9792787781231
 31
0.0
  0
LINE
  5
EE3
330
19
100
AcDbEntity
  8
Part
100
AcDbLine
 10
53.39543436511369
 20
30.9241996390897
 30
0.0
 11
53.39543436511369
 21
30.87627877717855
 31
0.0
  0
LINE
  5
EE4
330
19
100
AcDbEntity
  8
Part
100
AcDbLine
 10
53.39543436511369
 20
30.82119964003425
 30
0.0
 11
53.39543436511369
 21
30.773278776234
 31
0.0
  0
LINE
  5
EE5
330
19
100
AcDbEntity
  8
Part
100
AcDbLine
 10
53.40049123714681
 20
30.61473920860642
 30
0.0
 11
53.40049123714681
 21
29.9892392086064
 31
0.0
  0
LINE
  5
EE6
330
19
100
AcDbEntity
  8
Part
100
AcDbLine
 10
56.71049123714682
 20
34.24089305682513
 30
0.0
 11
56.71049123714682
 21
35.79189305682512
 31
0.0
  0
LINE
  5
EE7
330
19
100
AcDbEntity
  8
Part
100
AcDbLine
 10
55.26049123714681
 20
34.28389305682511
 30
0.0
 11
55.26049123714681
 21
35.74889305682511
 31
0.0
  0
LINE
  5
EE8
330
19
100
AcDbEntity
  8
Part
100
AcDbLine
 10
56.49349123714682
 20
34.28389305682511
 30
0.0
 11
56.49349123714682
 21
35.74889305682511
 31
0.0
  0
LINE
  5
EE9
330
19
100
AcDbEntity
  8
Part
100
AcDbLine
 10
56.27849123714682
 20
34.28389305682511
 30
0.0
 11
56.27849123714682
 21
35.74889305682511
 31
0.0
  0
LINE
  5
EEA
330
19
100
AcDbEntity
  8
Part
100
AcDbLine
 10
52.9004912371468
 20
34.24089305682513
 30
0.0
 11
52.9004912371468
 21
35.79189305682512
 31
0.0
  0
LINE
  5
EEB
330
19
100
AcDbEntity
  8
Part
100
AcDbLine
 10
53.41449123714681
 20
34.28389305682511
 30
0.0
 11
53.41449123714681
 21
35.74889305682511
 31
0.0
  0
LINE
  5
EEC
330
19
100
AcDbEntity
  8
Part
100
AcDbLine
 10
56.71049123714682
 20
35.79189305682512
 30
0.0
 11
52.9004912371468
 21
35.79189305682512
 31
0.0
  0
LINE
  5
EED
330
19
100
AcDbEntity
  8
Part
100
AcDbLine
 10
56.71049123714682
 20
35.74889305682511
 30
0.0
 11
52.9004912371468
 21
35.74889305682511
 31
0.0
  0
LINE
  5
EEE
330
19
100
AcDbEntity
  8
Part
100
AcDbLine
 10
56.71049123714682
 20
34.24089305682513
 30
0.0
 11
52.9004912371468
 21
34.24089305682513
 31
0.0
  0
LINE
  5
EEF
330
19
100
AcDbEntity
  8
Part
100
AcDbLine
 10
56.71049123714682
 20
34.28389305682511
 30
0.0
 11
52.9004912371468
 21
34.28389305682511
 31
0.0
  0
LINE
  5
EF0
330
19
100
AcDbEntity
  8
Part
100
AcDbLine
 10
48.82846785496898
 20
32.0872392086064
 30
0.0
 11
50.37946785496899
 21
32.0872392086064
 31
0.0
  0
LINE
  5
EF1
330
19
100
AcDbEntity
  8
Part
100
AcDbLine
 10
48.87546785496899
 20
32.0272392086064
 30
0.0
 11
50.33246785496896
 21
32.0272392086064
 31
0.0
  0
LINE
  5
EF2
330
19
100
AcDbEntity
  8
Part
100
AcDbLine
 10
48.82846785496898
 20
32.0872392086064
 30
0.0
 11
48.82846785496898
 21
28.9622392086064
 31
0.0
  0
LINE
  5
EF3
330
19
100
AcDbEntity
  8
Part
100
AcDbLine
 10
48.87546785496899
 20
32.0872392086064
 30
0.0
 11
48.87546785496899
 21
28.9622392086064
 31
0.0
  0
LINE
  5
EF4
330
19
100
AcDbEntity
  8
Part
100
AcDbLine
 10
48.82846785496898
 20
28.9622392086064
 30
0.0
 11
50.37946785496899
 21
28.9622392086064
 31
0.0
  0
LINE
  5
EF5
330
19
100
AcDbEntity
  8
Part
100
AcDbLine
 10
50.37946785496899
 20
32.0872392086064
 30
0.0
 11
50.37946785496899
 21
28.9622392086064
 31
0.0
  0
LINE
  5
EF6
330
19
100
AcDbEntity
  8
Part
100
AcDbLine
 10
50.33246785496896
 20
32.0872392086064
 30
0.0
 11
50.33246785496896
 21
28.9622392086064
 31
0.0
  0
LINE
  5
EF7
330
19
100
AcDbEntity
  8
Part
100
AcDbLine
 10
50.33246785496896
 20
31.3722392086064
 30
0.0
 11
48.87546785496899
 21
31.3722392086064
 31
0.0
  0
LINE
  5
EF8
330
19
100
AcDbEntity
  8
Part
100
AcDbLine
 10
50.33246785496896
 20
31.85925388254493
 30
0.0
 11
48.87546785496899
 21
31.85925388254493
 31
0.0
  0
LINE
  5
F0C
330
19
100
AcDbEntity
  8
Part
100
AcDbLine
 10
56.71049123714682
 20
25.25804315881215
 30
0.0
 11
56.71049123714682
 21
26.80904315881214
 31
0.0
  0
LINE
  5
F0D
330
19
100
AcDbEntity
  8
Part
100
AcDbLine
 10
55.26049123714681
 20
25.30104315881215
 30
0.0
 11
55.26049123714681
 21
26.76604315881216
 31
0.0
  0
LINE
  5
F0E
330
19
100
AcDbEntity
  8
Part
100
AcDbLine
 10
56.49349123714682
 20
25.30104315881215
 30
0.0
 11
56.49349123714682
 21
26.76604315881216
 31
0.0
  0
LINE
  5
F0F
330
19
100
AcDbEntity
  8
Part
100
AcDbLine
 10
56.27849123714682
 20
25.30104315881215
 30
0.0
 11
56.27849123714682
 21
26.76604315881216
 31
0.0
  0
LINE
  5
F12
330
19
100
AcDbEntity
  8
Part
100
AcDbLine
 10
52.9004912371468
 20
25.25804315881215
 30
0.0
 11
52.9004912371468
 21
26.80904315881214
 31
0.0
  0
LINE
  5
F13
330
19
100
AcDbEntity
  8
Part
100
AcDbLine
 10
53.41449123714681
 20
25.30104315881215
 30
0.0
 11
53.41449123714681
 21
26.76604315881216
 31
0.0
  0
LINE
  5
F14
330
19
100
AcDbEntity
  8
Part
100
AcDbLine
 10
56.71049123714682
 20
26.80904315881214
 30
0.0
 11
52.9004912371468
 21
26.80904315881214
 31
0.0
  0
LINE
  5
F15
330
19
100
AcDbEntity
  8
Part
100
AcDbLine
 10
56.71049123714682
 20
26.76604315881216
 30
0.0
 11
52.9004912371468
 21
26.76604315881216
 31
0.0
  0
LINE
  5
F16
330
19
100
AcDbEntity
  8
Part
100
AcDbLine
 10
56.71049123714682
 20
25.25804315881215
 30
0.0
 11
52.9004912371468
 21
25.25804315881215
 31
0.0
  0
LINE
  5
F17
330
19
100
AcDbEntity
  8
Part
100
AcDbLine
 10
56.71049123714682
 20
25.30104315881215
 30
0.0
 11
52.9004912371468
 21
25.30104315881215
 31
0.0
  0
LINE
  5
F18
330
19
100
AcDbEntity
  8
Part
100
AcDbLine
 10
57.09449123714682
 20
25.30104315881215
 30
0.0
 11
57.09449123714682
 21
26.33930180539016
 31
0.0
  0
LINE
  5
F19
330
19
100
AcDbEntity
  8
Part
100
AcDbLine
 10
57.09449123714682
 20
26.33930180539016
 30
0.0
 11
57.09449123714682
 21
26.76604315881216
 31
0.0
  0
LINE
  5
F1C
330
19
100
AcDbEntity
  8
Part
100
AcDbLine
 10
56.93849123714681
 20
25.30104315881215
 30
0.0
 11
56.93849123714681
 21
26.76604315881216
 31
0.0
  0
LINE
  5
F1D
330
19
100
AcDbEntity
  8
Part
100
AcDbLine
 10
56.71049123714682
 20
25.30104315881215
 30
0.0
 11
57.09449123714682
 21
25.30104315881215
 31
0.0
  0
LINE
  5
F1E
330
19
100
AcDbEntity
  8
Part
100
AcDbLine
 10
56.71049123714682
 20
26.76604315881216
 30
0.0
 11
57.09449123714682
 21
26.76604315881216
 31
0.0
  0
MTEXT
  5
F34
330
19
100
AcDbEntity
  8
Notes
370
     0
100
AcDbMText
 10
54.25882545103692
 20
34.10623110193809
 30
0.0
 40
0.2
 41
3.019983788495805
 71
     1
 72
     5
  1
TOP VIEW
 73
     1
 44
1.0
1001
ACAD
1000
MTEXTBEGIN
1070
    73
1070
     1
1070
    44
1040
1.0
1070
    74
1070
     0
1000
MTEXTEND
  0
MTEXT
  5
F35
330
19
100
AcDbEntity
  8
Notes
370
     0
100
AcDbMText
 10
54.25882545103692
 20
28.74117742344538
 30
0.0
 40
0.2
 41
3.019983788495805
 71
     1
 72
     5
  1
SIDE VIEW
 73
     1
 44
1.0
1001
ACAD
1000
MTEXTBEGIN
1070
    73
1070
     1
1070
    44
1040
1.0
1070
    74
1070
     0
1000
MTEXTEND
  0
MTEXT
  5
F36
330
19
100
AcDbEntity
  8
Notes
370
     0
100
AcDbMText
 10
48.87306864458373
 20
28.74117742344538
 30
0.0
 40
0.2
 41
3.019983788495805
 71
     1
 72
     5
  1
BACK VIEW
 73
     1
 44
1.0
1001
ACAD
1000
MTEXTBEGIN
1070
    73
1070
     1
1070
    44
1040
1.0
1070
    74
1070
     0
1000
MTEXTEND
  0
MTEXT
  5
F37
330
19
100
AcDbEntity
  8
Notes
370
     0
100
AcDbMText
 10
59.73822178681746
 20
28.74117742344538
 30
0.0
 40
0.2
 41
3.019983788495805
 71
     1
 72
     5
  1
FRONT VIEW
 73
     1
 44
1.0
1001
ACAD
1000
MTEXTBEGIN
1070
    73
1070
     1
1070
    44
1040
1.0
1070
    74
1070
     0
1000
MTEXTEND
  0
MTEXT
  5
F38
330
19
100
AcDbEntity
  8
Notes
370
     0
100
AcDbMText
 10
53.91472016665725
 20
25.01543918592533
 30
0.0
 40
0.2
 41
3.019983788495805
 71
     1
 72
     5
  1
BOTTOM VIEW
 73
     1
 44
1.0
1001
ACAD
1000
MTEXTBEGIN
1070
    73
1070
     1
1070
    44
1040
1.0
1070
    74
1070
     0
1000
MTEXTEND
  0
MTEXT
  5
F3B
102
{ACAD_XDICTIONARY
360
16A1
102
}
330
19
100
AcDbEntity
  8
Labels
100
AcDbMText
 10
60.56073294575597
 20
29.7441983240426
 30
0.0
 40
0.07
 41
1.236557522921714
 71
     5
 72
     5
  1
{\fArial Narrow|b0|i0|c0|p34;\W0.8;WARNING: THIS DEVICE \PCONTAINS NO INTERNAL \PINPUT TRANSFORMER}
 73
     1
 44
1.0
1001
ACAD
1000
MTEXTBEGIN
1070
    73
1070
     1
1070
    44
1040
1.0
1070
    74
1070
     0
1000
MTEXTEND
  0
LINE
  5
F68
330
19
100
AcDbEntity
  8
Part
  6
Continuous
100
AcDbLine
 10
55.57699123714678
 20
31.9544892086064
 30
0.0
 11
55.57699123714678
 21
31.9137392086064
 31
0.0
  0
LINE
  5
F69
330
19
100
AcDbEntity
  8
Part
  6
Continuous
100
AcDbLine
 10
55.57699123714678
 20
31.8827392086064
 30
0.0
 11
55.57699123714678
 21
31.8419892086064
 31
0.0
  0
LINE
  5
F6A
330
19
100
AcDbEntity
  8
Part
  6
Continuous
100
AcDbLine
 10
55.60799123714677
 20
31.8419892086064
 30
0.0
 11
55.60799123714677
 21
31.8827392086064
 31
0.0
  0
LINE
  5
F6B
330
19
100
AcDbEntity
  8
Part
  6
Continuous
100
AcDbLine
 10
55.60799123714677
 20
31.9137392086064
 30
0.0
 11
55.60799123714677
 21
31.9544892086064
 31
0.0
  0
LINE
  5
F6C
330
19
100
AcDbEntity
  8
Part
  6
Continuous
100
AcDbLine
 10
55.64874123714679
 20
31.8827392086064
 30
0.0
 11
55.64874123714679
 21
31.9137392086064
 31
0.0
  0
LINE
  5
F6D
330
19
100
AcDbEntity
  8
Part
  6
Continuous
100
AcDbLine
 10
55.57699123714678
 20
31.8419892086064
 30
0.0
 11
55.60799123714677
 21
31.8419892086064
 31
0.0
  0
LINE
  5
F6E
330
19
100
AcDbEntity
  8
Part
  6
Continuous
100
AcDbLine
 10
55.53624123714677
 20
31.8827392086064
 30
0.0
 11
55.57699123714678
 21
31.8827392086064
 31
0.0
  0
LINE
  5
F6F
330
19
100
AcDbEntity
  8
Part
  6
Continuous
100
AcDbLine
 10
55.60799123714677
 20
31.8827392086064
 30
0.0
 11
55.64874123714679
 21
31.8827392086064
 31
0.0
  0
LINE
  5
F70
330
19
100
AcDbEntity
  8
Part
  6
Continuous
100
AcDbLine
 10
55.64874123714679
 20
31.9137392086064
 30
0.0
 11
55.60799123714677
 21
31.9137392086064
 31
0.0
  0
LINE
  5
F71
330
19
100
AcDbEntity
  8
Part
  6
Continuous
100
AcDbLine
 10
55.57699123714678
 20
31.9137392086064
 30
0.0
 11
55.53624123714677
 21
31.9137392086064
 31
0.0
  0
LINE
  5
F72
330
19
100
AcDbEntity
  8
Part
  6
Continuous
100
AcDbLine
 10
55.60799123714677
 20
31.9544892086064
 30
0.0
 11
55.57699123714678
 21
31.9544892086064
 31
0.0
  0
CIRCLE
  5
F73
330
19
100
AcDbEntity
  8
Part
  6
Continuous
100
AcDbCircle
 10
55.59249123714682
 20
31.8982392086064
 30
0.0
 40
0.1075
  0
LINE
  5
F74
330
19
100
AcDbEntity
  8
Part
100
AcDbLine
 10
55.53624123714677
 20
31.9137392086064
 30
0.0
 11
55.53624123714677
 21
31.8827392086064
 31
0.0
  0
LINE
  5
F75
330
19
100
AcDbEntity
  8
Part
  6
Continuous
100
AcDbLine
 10
53.98499123714678
 20
31.34798920860639
 30
0.0
 11
53.98499123714678
 21
31.38873920860639
 31
0.0
  0
LINE
  5
F76
330
19
100
AcDbEntity
  8
Part
  6
Continuous
100
AcDbLine
 10
53.98499123714678
 20
31.41973920860639
 30
0.0
 11
53.98499123714678
 21
31.4604892086064
 31
0.0
  0
LINE
  5
F77
330
19
100
AcDbEntity
  8
Part
  6
Continuous
100
AcDbLine
 10
54.01599123714678
 20
31.4604892086064
 30
0.0
 11
54.01599123714678
 21
31.41973920860639
 31
0.0
  0
LINE
  5
F78
330
19
100
AcDbEntity
  8
Part
  6
Continuous
100
AcDbLine
 10
54.01599123714678
 20
31.38873920860639
 30
0.0
 11
54.01599123714678
 21
31.34798920860639
 31
0.0
  0
LINE
  5
F79
330
19
100
AcDbEntity
  8
Part
  6
Continuous
100
AcDbLine
 10
54.05674123714678
 20
31.41973920860639
 30
0.0
 11
54.05674123714678
 21
31.38873920860639
 31
0.0
  0
LINE
  5
F7A
330
19
100
AcDbEntity
  8
Part
  6
Continuous
100
AcDbLine
 10
53.98499123714678
 20
31.4604892086064
 30
0.0
 11
54.01599123714678
 21
31.4604892086064
 31
0.0
  0
LINE
  5
F7B
330
19
100
AcDbEntity
  8
Part
  6
Continuous
100
AcDbLine
 10
53.94424123714678
 20
31.41973920860639
 30
0.0
 11
53.98499123714678
 21
31.41973920860639
 31
0.0
  0
LINE
  5
F7C
330
19
100
AcDbEntity
  8
Part
  6
Continuous
100
AcDbLine
 10
54.01599123714678
 20
31.41973920860639
 30
0.0
 11
54.05674123714678
 21
31.41973920860639
 31
0.0
  0
LINE
  5
F7D
330
19
100
AcDbEntity
  8
Part
  6
Continuous
100
AcDbLine
 10
54.05674123714678
 20
31.38873920860639
 30
0.0
 11
54.01599123714678
 21
31.38873920860639
 31
0.0
  0
LINE
  5
F7E
330
19
100
AcDbEntity
  8
Part
  6
Continuous
100
AcDbLine
 10
53.98499123714678
 20
31.38873920860639
 30
0.0
 11
53.94424123714678
 21
31.38873920860639
 31
0.0
  0
LINE
  5
F7F
330
19
100
AcDbEntity
  8
Part
  6
Continuous
100
AcDbLine
 10
54.01599123714678
 20
31.34798920860639
 30
0.0
 11
53.98499123714678
 21
31.34798920860639
 31
0.0
  0
CIRCLE
  5
F80
330
19
100
AcDbEntity
  8
Part
  6
Continuous
100
AcDbCircle
 10
54.00049123714682
 20
31.4042392086064
 30
0.0
 40
0.1075
  0
LINE
  5
F81
330
19
100
AcDbEntity
  8
Part
100
AcDbLine
 10
53.94424123714678
 20
31.38873920860639
 30
0.0
 11
53.94424123714678
 21
31.41973920860639
 31
0.0
  0
LINE
  5
F82
330
19
100
AcDbEntity
  8
Part
  6
Continuous
100
AcDbLine
 10
55.57699123714678
 20
31.34798920860639
 30
0.0
 11
55.57699123714678
 21
31.38873920860639
 31
0.0
  0
LINE
  5
F83
330
19
100
AcDbEntity
  8
Part
  6
Continuous
100
AcDbLine
 10
55.57699123714678
 20
31.41973920860639
 30
0.0
 11
55.57699123714678
 21
31.4604892086064
 31
0.0
  0
LINE
  5
F84
330
19
100
AcDbEntity
  8
Part
  6
Continuous
100
AcDbLine
 10
55.60799123714677
 20
31.4604892086064
 30
0.0
 11
55.60799123714677
 21
31.41973920860639
 31
0.0
  0
LINE
  5
F85
330
19
100
AcDbEntity
  8
Part
  6
Continuous
100
AcDbLine
 10
55.60799123714677
 20
31.38873920860639
 30
0.0
 11
55.60799123714677
 21
31.34798920860639
 31
0.0
  0
LINE
  5
F86
330
19
100
AcDbEntity
  8
Part
  6
Continuous
100
AcDbLine
 10
55.64874123714679
 20
31.41973920860639
 30
0.0
 11
55.64874123714679
 21
31.38873920860639
 31
0.0
  0
LINE
  5
F87
330
19
100
AcDbEntity
  8
Part
  6
Continuous
100
AcDbLine
 10
55.57699123714678
 20
31.4604892086064
 30
0.0
 11
55.60799123714677
 21
31.4604892086064
 31
0.0
  0
LINE
  5
F88
330
19
100
AcDbEntity
  8
Part
  6
Continuous
100
AcDbLine
 10
55.53624123714677
 20
31.41973920860639
 30
0.0
 11
55.57699123714678
 21
31.41973920860639
 31
0.0
  0
LINE
  5
F89
330
19
100
AcDbEntity
  8
Part
  6
Continuous
100
AcDbLine
 10
55.60799123714677
 20
31.41973920860639
 30
0.0
 11
55.64874123714679
 21
31.41973920860639
 31
0.0
  0
LINE
  5
F8A
330
19
100
AcDbEntity
  8
Part
  6
Continuous
100
AcDbLine
 10
55.64874123714679
 20
31.38873920860639
 30
0.0
 11
55.60799123714677
 21
31.38873920860639
 31
0.0
  0
LINE
  5
F8B
330
19
100
AcDbEntity
  8
Part
  6
Continuous
100
AcDbLine
 10
55.57699123714678
 20
31.38873920860639
 30
0.0
 11
55.53624123714677
 21
31.38873920860639
 31
0.0
  0
LINE
  5
F8C
330
19
100
AcDbEntity
  8
Part
  6
Continuous
100
AcDbLine
 10
55.60799123714677
 20
31.34798920860639
 30
0.0
 11
55.57699123714678
 21
31.34798920860639
 31
0.0
  0
CIRCLE
  5
F8D
330
19
100
AcDbEntity
  8
Part
  6
Continuous
100
AcDbCircle
 10
55.59249123714682
 20
31.4042392086064
 30
0.0
 40
0.1075
  0
LINE
  5
F8E
330
19
100
AcDbEntity
  8
Part
100
AcDbLine
 10
55.53624123714677
 20
31.38873920860639
 30
0.0
 11
55.53624123714677
 21
31.41973920860639
 31
0.0
  0
LINE
  5
F8F
330
19
100
AcDbEntity
  8
Part
100
AcDbLine
 10
53.40049123714681
 20
28.9622392086064
 30
0.0
 11
53.40049123714681
 21
31.26923920955095
 31
0.0
  0
ARC
  5
F90
330
19
100
AcDbEntity
  8
Part
100
AcDbCircle
 10
53.40049126286674
 20
30.64273920955095
 30
0.0
 40
0.028
100
AcDbArc
 50
100.4049134241939
 51
259.595086575806
  0
LINE
  5
F91
330
19
100
AcDbEntity
  8
Part
100
AcDbLine
 10
53.39543436511369
 20
30.7181996409788
 30
0.0
 11
53.39543436511369
 21
30.67027877717855
 31
0.0
  0
LINE
  5
F92
330
19
100
AcDbEntity
  8
Part
100
AcDbLine
 10
53.40049123714681
 20
28.9622392086064
 30
0.0
 11
53.40049123714681
 21
31.1662392104955
 31
0.0
  0
ARC
  5
F93
330
19
100
AcDbEntity
  8
Part
100
AcDbCircle
 10
53.40049126286674
 20
30.5397392104955
 30
0.0
 40
0.028
100
AcDbArc
 50
100.4049134241939
 51
259.595086575806
  0
LINE
  5
F94
330
19
100
AcDbEntity
  8
Part
100
AcDbLine
 10
53.39543436511369
 20
30.61519964192335
 30
0.0
 11
53.39543436511369
 21
30.5672787781231
 31
0.0
  0
LINE
  5
F95
330
19
100
AcDbEntity
  8
Part
100
AcDbLine
 10
53.40049123714681
 20
28.9622392086064
 30
0.0
 11
53.40049123714681
 21
31.06323921144006
 31
0.0
  0
ARC
  5
F96
330
19
100
AcDbEntity
  8
Part
100
AcDbCircle
 10
53.40049126286674
 20
30.43673921144006
 30
0.0
 40
0.028
100
AcDbArc
 50
100.4049134241939
 51
259.595086575806
  0
LINE
  5
F97
330
19
100
AcDbEntity
  8
Part
100
AcDbLine
 10
53.39543436511369
 20
30.5121996428679
 30
0.0
 11
53.39543436511369
 21
30.46427877906766
 31
0.0
  0
LINE
  5
F98
330
19
100
AcDbEntity
  8
Part
100
AcDbLine
 10
53.40049123714681
 20
28.9622392086064
 30
0.0
 11
53.40049123714681
 21
30.96023921238461
 31
0.0
  0
ARC
  5
F99
330
19
100
AcDbEntity
  8
Part
100
AcDbCircle
 10
53.40049126286674
 20
30.33373921238461
 30
0.0
 40
0.028
100
AcDbArc
 50
100.4049134241939
 51
259.595086575806
  0
LINE
  5
F9A
330
19
100
AcDbEntity
  8
Part
100
AcDbLine
 10
53.39543436511369
 20
30.40919964381246
 30
0.0
 11
53.39543436511369
 21
30.36127878001221
 31
0.0
  0
LINE
  5
F9B
330
19
100
AcDbEntity
  8
Part
100
AcDbLine
 10
53.40049123714681
 20
28.9622392086064
 30
0.0
 11
53.40049123714681
 21
30.85723921332916
 31
0.0
  0
ARC
  5
F9C
330
19
100
AcDbEntity
  8
Part
100
AcDbCircle
 10
53.40049126286674
 20
30.23073921332918
 30
0.0
 40
0.028
100
AcDbArc
 50
100.4049134241939
 51
259.595086575806
  0
LINE
  5
F9D
330
19
100
AcDbEntity
  8
Part
100
AcDbLine
 10
53.39543436511369
 20
30.30619964475701
 30
0.0
 11
53.39543436511369
 21
30.25827878095677
 31
0.0
  0
LINE
  5
F9E
330
19
100
AcDbEntity
  8
Part
100
AcDbLine
 10
53.40049123714681
 20
28.9622392086064
 30
0.0
 11
53.40049123714681
 21
30.75423921427372
 31
0.0
  0
ARC
  5
F9F
330
19
100
AcDbEntity
  8
Part
100
AcDbCircle
 10
53.40049126286674
 20
30.12773921427372
 30
0.0
 40
0.028
100
AcDbArc
 50
100.4049134241939
 51
259.595086575806
  0
LINE
  5
FA0
330
19
100
AcDbEntity
  8
Part
100
AcDbLine
 10
53.39543436511369
 20
30.20319964570157
 30
0.0
 11
53.39543436511369
 21
30.15527878190132
 31
0.0
  0
LINE
  5
FA1
330
19
100
AcDbEntity
  8
Part
100
AcDbLine
 10
53.40049123714681
 20
28.9622392086064
 30
0.0
 11
53.40049123714681
 21
30.65123921521827
 31
0.0
  0
ARC
  5
FA2
330
19
100
AcDbEntity
  8
Part
100
AcDbCircle
 10
53.40049126286674
 20
30.02473921521827
 30
0.0
 40
0.028
100
AcDbArc
 50
100.4049134241939
 51
259.595086575806
  0
LINE
  5
FA3
330
19
100
AcDbEntity
  8
Part
100
AcDbLine
 10
53.39543436511369
 20
30.10019964664612
 30
0.0
 11
53.39543436511369
 21
30.05227878284587
 31
0.0
  0
LINE
  5
FA4
330
19
100
AcDbEntity
  8
Part
100
AcDbLine
 10
53.40049123714681
 20
28.9622392086064
 30
0.0
 11
53.40049123714681
 21
30.54823921616283
 31
0.0
  0
LINE
  5
FA5
330
19
100
AcDbEntity
  8
Part
100
AcDbLine
 10
53.39543436511369
 20
29.99719964759067
 30
0.0
 11
53.39543436511369
 21
29.98877878095676
 31
0.0
  0
LINE
  5
FA6
330
19
100
AcDbEntity
  8
Part
100
AcDbLine
 10
53.40049123714681
 20
28.9622392086064
 30
0.0
 11
53.40049123714681
 21
30.44523921710738
 31
0.0
  0
ARC
  5
FA7
330
19
100
AcDbEntity
  8
Part
100
AcDbCircle
 10
53.40049123714681
 20
29.9612392086064
 30
0.0
 40
0.028
100
AcDbArc
 50
100.4048599141405
 51
180.0
  0
LINE
  5
FA8
330
19
100
AcDbEntity
  8
Part
100
AcDbLine
 10
53.40049123714681
 20
28.9622392086064
 30
0.0
 11
53.40049123714681
 21
30.34223921805193
 31
0.0
  0
ARC
  5
FA9
330
19
100
AcDbEntity
  8
Part
100
AcDbCircle
 10
53.40049123714681
 20
29.7722392086064
 30
0.0
 40
0.028
100
AcDbArc
 50
180.0
 51
269.9999473698605
  0
LINE
  5
FAA
330
19
100
AcDbEntity
  8
Part
100
AcDbLine
 10
53.37249123714681
 20
29.7722392086064
 30
0.0
 11
53.37249123714681
 21
29.9612392086064
 31
0.0
  0
ARC
  5
FAB
330
19
100
AcDbEntity
  8
Part
100
AcDbCircle
 10
53.40049123714681
 20
29.2372392086064
 30
0.0
 40
0.028
100
AcDbArc
 50
90.00005263013951
 51
180.0
  0
ARC
  5
FAC
330
19
100
AcDbEntity
  8
Part
100
AcDbCircle
 10
53.40049126286675
 20
29.11523920860639
 30
0.0
 40
0.028
100
AcDbArc
 50
180.0
 51
269.9999473698605
  0
LINE
  5
FAD
330
19
100
AcDbEntity
  8
Part
100
AcDbLine
 10
53.37249126286675
 20
29.11523920860639
 30
0.0
 11
53.37249126286675
 21
29.23727716010076
 31
0.0
  0
LINE
  5
FB5
330
19
100
AcDbEntity
  8
Part
100
AcDbLine
 10
50.33246785496896
 20
29.74423920860641
 30
0.0
 11
48.87546785496899
 21
29.74423920860641
 31
0.0
  0
LINE
  5
FB6
330
19
100
AcDbEntity
  8
Part
100
AcDbLine
 10
50.33246785496896
 20
29.26523920860639
 30
0.0
 11
48.87546785496899
 21
29.26523920860639
 31
0.0
  0
LINE
  5
FB7
330
19
100
AcDbEntity
  8
Part
100
AcDbLine
 10
50.33246785496896
 20
29.98877878095676
 30
0.0
 11
48.87546785496899
 21
29.98877878095676
 31
0.0
  0
LINE
  5
FB8
330
19
100
AcDbEntity
  8
Part
100
AcDbLine
 10
50.33246785496896
 20
29.08723920860639
 30
0.0
 11
48.87546785496898
 21
29.08723920860639
 31
0.0
  0
MTEXT
  5
10EB
330
19
100
AcDbEntity
  8
Labels
100
AcDbMText
 10
59.94170106751663
 20
31.20947112211104
 30
0.0
 40
0.07
 41
0.3900000000000006
 71
     1
 72
     5
  1
{\fArial Narrow|b0|i0|c0|p34;\W0.8;CT/PT}
 73
     1
 44
1.0
1001
ACAD
1000
MTEXTBEGIN
1070
    73
1070
     1
1070
    44
1040
1.0
1070
    74
1070
     0
1000
MTEXTEND
  0
LINE
  5
10EC
102
{ACAD_REACTORS
330
11BF
102
}
330
19
100
AcDbEntity
  8
Part
100
AcDbLine
 10
61.15942384343703
 20
31.7542392086064
 30
0.0
 11
61.15942384343703
 21
31.5112392086064
 31
0.0
  0
LINE
  5
10ED
102
{ACAD_REACTORS
330
11BF
102
}
330
19
100
AcDbEntity
  8
Part
100
AcDbLine
 10
60.78942384343704
 20
31.7542392086064
 30
0.0
 11
60.78942384343704
 21
31.5112392086064
 31
0.0
  0
LINE
  5
10EE
102
{ACAD_REACTORS
330
11A6
330
11BF
102
}
330
19
100
AcDbEntity
  8
Part
100
AcDbLine
 10
60.75942384343703
 20
31.9792392086064
 30
0.0
 11
60.75942384343703
 21
31.2402392086064
 31
0.0
  0
LINE
  5
10EF
102
{ACAD_REACTORS
330
11BF
102
}
330
19
100
AcDbEntity
  8
Part
100
AcDbLine
 10
60.96642384343702
 20
31.7542392086064
 30
0.0
 11
60.96642384343702
 21
31.5112392086064
 31
0.0
  0
LINE
  5
10F0
102
{ACAD_REACTORS
330
11BF
102
}
330
19
100
AcDbEntity
  8
Part
100
AcDbLine
 10
60.99142384343704
 20
31.7542392086064
 30
0.0
 11
60.99142384343704
 21
31.5112392086064
 31
0.0
  0
LINE
  5
10F1
102
{ACAD_REACTORS
330
11BF
102
}
330
19
100
AcDbEntity
  8
Part
100
AcDbLine
 10
61.15942384343703
 20
31.7542392086064
 30
0.0
 11
60.99142384343704
 21
31.7542392086064
 31
0.0
  0
LINE
  5
10F2
102
{ACAD_REACTORS
330
11BF
102
}
330
19
100
AcDbEntity
  8
Part
100
AcDbLine
 10
60.96642384343702
 20
31.7542392086064
 30
0.0
 11
60.78942384343704
 21
31.7542392086064
 31
0.0
  0
LINE
  5
10F3
102
{ACAD_REACTORS
330
11BF
102
}
330
19
100
AcDbEntity
  8
Part
100
AcDbLine
 10
61.15942384343703
 20
31.5112392086064
 30
0.0
 11
60.99142384343704
 21
31.5112392086064
 31
0.0
  0
LINE
  5
10F4
102
{ACAD_REACTORS
330
11BF
102
}
330
19
100
AcDbEntity
  8
Part
100
AcDbLine
 10
60.96642384343702
 20
31.5112392086064
 30
0.0
 11
60.78942384343704
 21
31.5112392086064
 31
0.0
  0
LINE
  5
10F5
102
{ACAD_REACTORS
330
11BF
102
}
330
19
100
AcDbEntity
  8
Part
100
AcDbLine
 10
60.82878463315323
 20
31.64242074761597
 30
0.0
 11
60.93132574272779
 21
31.64242074761597
 31
0.0
  0
LINE
  5
10F6
102
{ACAD_REACTORS
330
11BF
102
}
330
19
100
AcDbEntity
  8
Part
100
AcDbLine
 10
60.93132574272779
 20
31.64242074761597
 30
0.0
 11
60.93132574272779
 21
31.54435907602824
 31
0.0
  0
LINE
  5
10F7
102
{ACAD_REACTORS
330
11BF
102
}
330
19
100
AcDbEntity
  8
Part
100
AcDbLine
 10
60.93132574272779
 20
31.54435907602824
 30
0.0
 11
60.82878463315323
 21
31.54435907602824
 31
0.0
  0
LINE
  5
10F8
102
{ACAD_REACTORS
330
11BF
102
}
330
19
100
AcDbEntity
  8
Part
100
AcDbLine
 10
60.82878463315323
 20
31.54435907602824
 30
0.0
 11
60.82878463315323
 21
31.64242074761597
 31
0.0
  0
LINE
  5
10F9
102
{ACAD_REACTORS
330
11BF
102
}
330
19
100
AcDbEntity
  8
Part
100
AcDbLine
 10
61.03078463315322
 20
31.64242074761597
 30
0.0
 11
61.13332574272778
 21
31.64242074761597
 31
0.0
  0
LINE
  5
10FA
102
{ACAD_REACTORS
330
11BF
102
}
330
19
100
AcDbEntity
  8
Part
100
AcDbLine
 10
61.13332574272778
 20
31.64242074761597
 30
0.0
 11
61.13332574272778
 21
31.54435907602824
 31
0.0
  0
LINE
  5
10FB
102
{ACAD_REACTORS
330
11BF
102
}
330
19
100
AcDbEntity
  8
Part
100
AcDbLine
 10
61.13332574272778
 20
31.54435907602824
 30
0.0
 11
61.03078463315322
 21
31.54435907602824
 31
0.0
  0
LINE
  5
10FC
102
{ACAD_REACTORS
330
11BF
102
}
330
19
100
AcDbEntity
  8
Part
100
AcDbLine
 10
61.03078463315322
 20
31.54435907602824
 30
0.0
 11
61.03078463315322
 21
31.64242074761597
 31
0.0
  0
LINE
  5
10FD
330
19
100
AcDbEntity
  8
Part
100
AcDbLine
 10
60.93132574272779
 20
31.64242074761597
 30
0.0
 11
60.96642384343702
 21
31.7542392086064
 31
0.0
  0
LINE
  5
10FE
330
19
100
AcDbEntity
  8
Part
100
AcDbLine
 10
60.82878463315323
 20
31.64242074761597
 30
0.0
 11
60.78942384343704
 21
31.7542392086064
 31
0.0
  0
LINE
  5
10FF
330
19
100
AcDbEntity
  8
Part
100
AcDbLine
 10
60.78942384343704
 20
31.5112392086064
 30
0.0
 11
60.82878463315323
 21
31.54435907602824
 31
0.0
  0
LINE
  5
1100
330
19
100
AcDbEntity
  8
Part
100
AcDbLine
 10
60.93132574272779
 20
31.54435907602824
 30
0.0
 11
60.96642384343702
 21
31.5112392086064
 31
0.0
  0
LINE
  5
1101
330
19
100
AcDbEntity
  8
Part
100
AcDbLine
 10
61.03078463315322
 20
31.54435907602824
 30
0.0
 11
60.99142384343704
 21
31.5112392086064
 31
0.0
  0
LINE
  5
1102
330
19
100
AcDbEntity
  8
Part
100
AcDbLine
 10
61.13332574272778
 20
31.54435907602824
 30
0.0
 11
61.15942384343703
 21
31.5112392086064
 31
0.0
  0
LINE
  5
1103
330
19
100
AcDbEntity
  8
Part
100
AcDbLine
 10
61.13332574272778
 20
31.64242074761597
 30
0.0
 11
61.15942384343703
 21
31.7542392086064
 31
0.0
  0
LINE
  5
1104
330
19
100
AcDbEntity
  8
Part
100
AcDbLine
 10
61.03078463315322
 20
31.64242074761597
 30
0.0
 11
60.99142384343704
 21
31.7542392086064
 31
0.0
  0
CIRCLE
  5
1105
102
{ACAD_REACTORS
330
11BF
102
}
330
19
100
AcDbEntity
  8
Part
100
AcDbCircle
 10
60.87876365851734
 20
31.37067209330342
 30
0.0
 40
0.079
  0
CIRCLE
  5
1106
102
{ACAD_REACTORS
330
11BF
102
}
330
19
100
AcDbEntity
  8
Part
100
AcDbCircle
 10
61.08076365851733
 20
31.37067209330342
 30
0.0
 40
0.079
  0
LINE
  5
1107
330
19
100
AcDbEntity
  8
Part
100
AcDbLine
 10
60.93097756407047
 20
31.42995706666842
 30
0.0
 11
60.81947868515234
 21
31.31845818775029
 31
0.0
  0
LINE
  5
1108
330
19
100
AcDbEntity
  8
Part
100
AcDbLine
 10
60.93804863188235
 20
31.42288599885656
 30
0.0
 11
60.82654975296421
 21
31.31138711993842
 31
0.0
  0
LINE
  5
1109
330
19
100
AcDbEntity
  8
Part
100
AcDbLine
 10
61.13297756407047
 20
31.42995706666841
 30
0.0
 11
61.02147868515234
 21
31.31845818775028
 31
0.0
  0
LINE
  5
110A
330
19
100
AcDbEntity
  8
Part
100
AcDbLine
 10
61.14004863188235
 20
31.42288599885655
 30
0.0
 11
61.0285497529642
 21
31.31138711993842
 31
0.0
  0
LINE
  5
110B
102
{ACAD_REACTORS
330
11BF
102
}
330
19
100
AcDbEntity
  8
Part
100
AcDbLine
 10
60.75942384343703
 20
31.2402392086064
 30
0.0
 11
61.18742384343702
 21
31.2402392086064
 31
0.0
  0
LINE
  5
110C
102
{ACAD_REACTORS
330
11BF
102
}
330
19
100
AcDbEntity
  8
Part
100
AcDbLine
 10
60.75942384343703
 20
31.9792392086064
 30
0.0
 11
61.18742384343702
 21
31.9792392086064
 31
0.0
  0
LINE
  5
110D
102
{ACAD_REACTORS
330
11A6
102
}
330
19
100
AcDbEntity
  8
Part
100
AcDbLine
 10
60.73142384343702
 20
31.7542392086064
 30
0.0
 11
60.73142384343702
 21
31.5112392086064
 31
0.0
  0
LINE
  5
110E
102
{ACAD_REACTORS
330
11A6
102
}
330
19
100
AcDbEntity
  8
Part
100
AcDbLine
 10
60.36142384343702
 20
31.7542392086064
 30
0.0
 11
60.36142384343702
 21
31.5112392086064
 31
0.0
  0
LINE
  5
110F
102
{ACAD_REACTORS
330
118D
330
11A6
102
}
330
19
100
AcDbEntity
  8
Part
100
AcDbLine
 10
60.33142384343702
 20
31.9792392086064
 30
0.0
 11
60.33142384343702
 21
31.2402392086064
 31
0.0
  0
LINE
  5
1110
102
{ACAD_REACTORS
330
11A6
102
}
330
19
100
AcDbEntity
  8
Part
100
AcDbLine
 10
60.53842384343703
 20
31.7542392086064
 30
0.0
 11
60.53842384343703
 21
31.5112392086064
 31
0.0
  0
LINE
  5
1111
102
{ACAD_REACTORS
330
11A6
102
}
330
19
100
AcDbEntity
  8
Part
100
AcDbLine
 10
60.56342384343704
 20
31.7542392086064
 30
0.0
 11
60.56342384343704
 21
31.5112392086064
 31
0.0
  0
LINE
  5
1112
102
{ACAD_REACTORS
330
11A6
102
}
330
19
100
AcDbEntity
  8
Part
100
AcDbLine
 10
60.73142384343702
 20
31.7542392086064
 30
0.0
 11
60.56342384343704
 21
31.7542392086064
 31
0.0
  0
LINE
  5
1113
102
{ACAD_REACTORS
330
11A6
102
}
330
19
100
AcDbEntity
  8
Part
100
AcDbLine
 10
60.53842384343703
 20
31.7542392086064
 30
0.0
 11
60.36142384343702
 21
31.7542392086064
 31
0.0
  0
LINE
  5
1114
102
{ACAD_REACTORS
330
11A6
102
}
330
19
100
AcDbEntity
  8
Part
100
AcDbLine
 10
60.73142384343702
 20
31.5112392086064
 30
0.0
 11
60.56342384343704
 21
31.5112392086064
 31
0.0
  0
LINE
  5
1115
102
{ACAD_REACTORS
330
11A6
102
}
330
19
100
AcDbEntity
  8
Part
100
AcDbLine
 10
60.53842384343703
 20
31.5112392086064
 30
0.0
 11
60.36142384343702
 21
31.5112392086064
 31
0.0
  0
LINE
  5
1116
102
{ACAD_REACTORS
330
11A6
102
}
330
19
100
AcDbEntity
  8
Part
100
AcDbLine
 10
60.40078463315322
 20
31.64242074761597
 30
0.0
 11
60.50332574272776
 21
31.64242074761597
 31
0.0
  0
LINE
  5
1117
102
{ACAD_REACTORS
330
11A6
102
}
330
19
100
AcDbEntity
  8
Part
100
AcDbLine
 10
60.50332574272776
 20
31.64242074761597
 30
0.0
 11
60.50332574272776
 21
31.54435907602824
 31
0.0
  0
LINE
  5
1118
102
{ACAD_REACTORS
330
11A6
102
}
330
19
100
AcDbEntity
  8
Part
100
AcDbLine
 10
60.50332574272776
 20
31.54435907602824
 30
0.0
 11
60.40078463315322
 21
31.54435907602824
 31
0.0
  0
LINE
  5
1119
102
{ACAD_REACTORS
330
11A6
102
}
330
19
100
AcDbEntity
  8
Part
100
AcDbLine
 10
60.40078463315322
 20
31.54435907602824
 30
0.0
 11
60.40078463315322
 21
31.64242074761597
 31
0.0
  0
LINE
  5
111A
102
{ACAD_REACTORS
330
11A6
102
}
330
19
100
AcDbEntity
  8
Part
100
AcDbLine
 10
60.60278463315323
 20
31.64242074761597
 30
0.0
 11
60.70532574272776
 21
31.64242074761597
 31
0.0
  0
LINE
  5
111B
102
{ACAD_REACTORS
330
11A6
102
}
330
19
100
AcDbEntity
  8
Part
100
AcDbLine
 10
60.70532574272776
 20
31.64242074761597
 30
0.0
 11
60.70532574272776
 21
31.54435907602824
 31
0.0
  0
LINE
  5
111C
102
{ACAD_REACTORS
330
11A6
102
}
330
19
100
AcDbEntity
  8
Part
100
AcDbLine
 10
60.70532574272776
 20
31.54435907602824
 30
0.0
 11
60.60278463315323
 21
31.54435907602824
 31
0.0
  0
LINE
  5
111D
102
{ACAD_REACTORS
330
11A6
102
}
330
19
100
AcDbEntity
  8
Part
100
AcDbLine
 10
60.60278463315323
 20
31.54435907602824
 30
0.0
 11
60.60278463315323
 21
31.64242074761597
 31
0.0
  0
LINE
  5
111E
330
19
100
AcDbEntity
  8
Part
100
AcDbLine
 10
60.50332574272776
 20
31.64242074761597
 30
0.0
 11
60.53842384343703
 21
31.7542392086064
 31
0.0
  0
LINE
  5
111F
330
19
100
AcDbEntity
  8
Part
100
AcDbLine
 10
60.40078463315322
 20
31.64242074761597
 30
0.0
 11
60.36142384343702
 21
31.7542392086064
 31
0.0
  0
LINE
  5
1120
330
19
100
AcDbEntity
  8
Part
100
AcDbLine
 10
60.36142384343702
 20
31.5112392086064
 30
0.0
 11
60.40078463315322
 21
31.54435907602824
 31
0.0
  0
LINE
  5
1121
330
19
100
AcDbEntity
  8
Part
100
AcDbLine
 10
60.50332574272776
 20
31.54435907602824
 30
0.0
 11
60.53842384343703
 21
31.5112392086064
 31
0.0
  0
LINE
  5
1122
330
19
100
AcDbEntity
  8
Part
100
AcDbLine
 10
60.60278463315323
 20
31.54435907602824
 30
0.0
 11
60.56342384343704
 21
31.5112392086064
 31
0.0
  0
LINE
  5
1123
330
19
100
AcDbEntity
  8
Part
100
AcDbLine
 10
60.70532574272776
 20
31.54435907602824
 30
0.0
 11
60.73142384343702
 21
31.5112392086064
 31
0.0
  0
LINE
  5
1124
330
19
100
AcDbEntity
  8
Part
100
AcDbLine
 10
60.70532574272776
 20
31.64242074761597
 30
0.0
 11
60.73142384343702
 21
31.7542392086064
 31
0.0
  0
LINE
  5
1125
330
19
100
AcDbEntity
  8
Part
100
AcDbLine
 10
60.60278463315323
 20
31.64242074761597
 30
0.0
 11
60.56342384343704
 21
31.7542392086064
 31
0.0
  0
CIRCLE
  5
1126
102
{ACAD_REACTORS
330
11A6
102
}
330
19
100
AcDbEntity
  8
Part
100
AcDbCircle
 10
60.45076365851734
 20
31.37067209330342
 30
0.0
 40
0.079
  0
CIRCLE
  5
1127
102
{ACAD_REACTORS
330
11A6
102
}
330
19
100
AcDbEntity
  8
Part
100
AcDbCircle
 10
60.65276365851733
 20
31.37067209330342
 30
0.0
 40
0.079
  0
LINE
  5
1128
330
19
100
AcDbEntity
  8
Part
100
AcDbLine
 10
60.50297756407045
 20
31.42995706666842
 30
0.0
 11
60.39147868515232
 21
31.31845818775029
 31
0.0
  0
LINE
  5
1129
330
19
100
AcDbEntity
  8
Part
100
AcDbLine
 10
60.51004863188232
 20
31.42288599885656
 30
0.0
 11
60.3985497529642
 21
31.31138711993842
 31
0.0
  0
LINE
  5
112C
102
{ACAD_REACTORS
330
11A6
102
}
330
19
100
AcDbEntity
  8
Part
100
AcDbLine
 10
60.331423843437
 20
31.2402392086064
 30
0.0
 11
60.75942384343703
 21
31.2402392086064
 31
0.0
  0
LINE
  5
112D
102
{ACAD_REACTORS
330
11A6
102
}
330
19
100
AcDbEntity
  8
Part
100
AcDbLine
 10
60.331423843437
 20
31.9792392086064
 30
0.0
 11
60.75942384343703
 21
31.9792392086064
 31
0.0
  0
LINE
  5
112E
102
{ACAD_REACTORS
330
118D
102
}
330
19
100
AcDbEntity
  8
Part
100
AcDbLine
 10
60.303423843437
 20
31.7542392086064
 30
0.0
 11
60.303423843437
 21
31.5112392086064
 31
0.0
  0
LINE
  5
112F
102
{ACAD_REACTORS
330
118D
102
}
330
19
100
AcDbEntity
  8
Part
100
AcDbLine
 10
59.93342384343701
 20
31.7542392086064
 30
0.0
 11
59.93342384343701
 21
31.5112392086064
 31
0.0
  0
LINE
  5
1131
102
{ACAD_REACTORS
330
118D
102
}
330
19
100
AcDbEntity
  8
Part
100
AcDbLine
 10
60.11042384343703
 20
31.7542392086064
 30
0.0
 11
60.11042384343703
 21
31.5112392086064
 31
0.0
  0
LINE
  5
1132
102
{ACAD_REACTORS
330
118D
102
}
330
19
100
AcDbEntity
  8
Part
100
AcDbLine
 10
60.13542384343701
 20
31.7542392086064
 30
0.0
 11
60.13542384343701
 21
31.5112392086064
 31
0.0
  0
LINE
  5
1133
102
{ACAD_REACTORS
330
118D
102
}
330
19
100
AcDbEntity
  8
Part
100
AcDbLine
 10
60.303423843437
 20
31.7542392086064
 30
0.0
 11
60.13542384343701
 21
31.7542392086064
 31
0.0
  0
LINE
  5
1134
102
{ACAD_REACTORS
330
118D
102
}
330
19
100
AcDbEntity
  8
Part
100
AcDbLine
 10
60.11042384343703
 20
31.7542392086064
 30
0.0
 11
59.93342384343701
 21
31.7542392086064
 31
0.0
  0
LINE
  5
1135
102
{ACAD_REACTORS
330
118D
102
}
330
19
100
AcDbEntity
  8
Part
100
AcDbLine
 10
60.303423843437
 20
31.5112392086064
 30
0.0
 11
60.13542384343701
 21
31.5112392086064
 31
0.0
  0
LINE
  5
1136
102
{ACAD_REACTORS
330
118D
102
}
330
19
100
AcDbEntity
  8
Part
100
AcDbLine
 10
60.11042384343703
 20
31.5112392086064
 30
0.0
 11
59.93342384343701
 21
31.5112392086064
 31
0.0
  0
LINE
  5
1137
102
{ACAD_REACTORS
330
118D
102
}
330
19
100
AcDbEntity
  8
Part
100
AcDbLine
 10
59.97278463315321
 20
31.64242074761597
 30
0.0
 11
60.07532574272776
 21
31.64242074761597
 31
0.0
  0
LINE
  5
1138
102
{ACAD_REACTORS
330
118D
102
}
330
19
100
AcDbEntity
  8
Part
100
AcDbLine
 10
60.07532574272776
 20
31.64242074761597
 30
0.0
 11
60.07532574272776
 21
31.54435907602824
 31
0.0
  0
LINE
  5
1139
102
{ACAD_REACTORS
330
118D
102
}
330
19
100
AcDbEntity
  8
Part
100
AcDbLine
 10
60.07532574272776
 20
31.54435907602824
 30
0.0
 11
59.97278463315321
 21
31.54435907602824
 31
0.0
  0
LINE
  5
113A
102
{ACAD_REACTORS
330
118D
102
}
330
19
100
AcDbEntity
  8
Part
100
AcDbLine
 10
59.97278463315321
 20
31.54435907602824
 30
0.0
 11
59.97278463315321
 21
31.64242074761597
 31
0.0
  0
LINE
  5
113B
102
{ACAD_REACTORS
330
118D
102
}
330
19
100
AcDbEntity
  8
Part
100
AcDbLine
 10
60.1747846331532
 20
31.64242074761597
 30
0.0
 11
60.27732574272775
 21
31.64242074761597
 31
0.0
  0
LINE
  5
113C
102
{ACAD_REACTORS
330
118D
102
}
330
19
100
AcDbEntity
  8
Part
100
AcDbLine
 10
60.27732574272775
 20
31.64242074761597
 30
0.0
 11
60.27732574272775
 21
31.54435907602824
 31
0.0
  0
LINE
  5
113D
102
{ACAD_REACTORS
330
118D
102
}
330
19
100
AcDbEntity
  8
Part
100
AcDbLine
 10
60.27732574272775
 20
31.54435907602824
 30
0.0
 11
60.1747846331532
 21
31.54435907602824
 31
0.0
  0
LINE
  5
113E
102
{ACAD_REACTORS
330
118D
102
}
330
19
100
AcDbEntity
  8
Part
100
AcDbLine
 10
60.1747846331532
 20
31.54435907602824
 30
0.0
 11
60.1747846331532
 21
31.64242074761597
 31
0.0
  0
LINE
  5
113F
330
19
100
AcDbEntity
  8
Part
100
AcDbLine
 10
60.07532574272776
 20
31.64242074761597
 30
0.0
 11
60.11042384343703
 21
31.7542392086064
 31
0.0
  0
LINE
  5
1140
330
19
100
AcDbEntity
  8
Part
100
AcDbLine
 10
59.97278463315321
 20
31.64242074761597
 30
0.0
 11
59.93342384343701
 21
31.7542392086064
 31
0.0
  0
LINE
  5
1141
330
19
100
AcDbEntity
  8
Part
100
AcDbLine
 10
59.93342384343701
 20
31.5112392086064
 30
0.0
 11
59.97278463315321
 21
31.54435907602824
 31
0.0
  0
LINE
  5
1142
330
19
100
AcDbEntity
  8
Part
100
AcDbLine
 10
60.07532574272776
 20
31.54435907602824
 30
0.0
 11
60.11042384343703
 21
31.5112392086064
 31
0.0
  0
LINE
  5
1143
330
19
100
AcDbEntity
  8
Part
100
AcDbLine
 10
60.1747846331532
 20
31.54435907602824
 30
0.0
 11
60.13542384343701
 21
31.5112392086064
 31
0.0
  0
LINE
  5
1144
330
19
100
AcDbEntity
  8
Part
100
AcDbLine
 10
60.27732574272775
 20
31.54435907602824
 30
0.0
 11
60.303423843437
 21
31.5112392086064
 31
0.0
  0
LINE
  5
1145
330
19
100
AcDbEntity
  8
Part
100
AcDbLine
 10
60.27732574272775
 20
31.64242074761597
 30
0.0
 11
60.303423843437
 21
31.7542392086064
 31
0.0
  0
LINE
  5
1146
330
19
100
AcDbEntity
  8
Part
100
AcDbLine
 10
60.1747846331532
 20
31.64242074761597
 30
0.0
 11
60.13542384343701
 21
31.7542392086064
 31
0.0
  0
CIRCLE
  5
1147
102
{ACAD_REACTORS
330
118D
102
}
330
19
100
AcDbEntity
  8
Part
100
AcDbCircle
 10
60.02276365851733
 20
31.37067209330342
 30
0.0
 40
0.079
  0
CIRCLE
  5
1148
102
{ACAD_REACTORS
330
118D
102
}
330
19
100
AcDbEntity
  8
Part
100
AcDbCircle
 10
60.22476365851733
 20
31.37067209330342
 30
0.0
 40
0.079
  0
LINE
  5
1149
330
19
100
AcDbEntity
  8
Part
100
AcDbLine
 10
60.07497756407047
 20
31.42995706666842
 30
0.0
 11
59.96347868515233
 21
31.31845818775029
 31
0.0
  0
LINE
  5
114A
330
19
100
AcDbEntity
  8
Part
100
AcDbLine
 10
60.08204863188232
 20
31.42288599885656
 30
0.0
 11
59.97054975296419
 21
31.31138711993842
 31
0.0
  0
LINE
  5
114D
102
{ACAD_REACTORS
330
118D
102
}
330
19
100
AcDbEntity
  8
Part
100
AcDbLine
 10
59.88742384343701
 20
31.2402392086064
 30
0.0
 11
60.331423843437
 21
31.2402392086064
 31
0.0
  0
LINE
  5
114E
102
{ACAD_REACTORS
330
118D
102
}
330
19
100
AcDbEntity
  8
Part
100
AcDbLine
 10
59.903423843437
 20
31.9792392086064
 30
0.0
 11
60.331423843437
 21
31.9792392086064
 31
0.0
  0
LINE
  5
114F
330
19
100
AcDbEntity
  8
Part
100
AcDbLine
 10
61.18742384343702
 20
31.2402392086064
 30
0.0
 11
61.18742384343702
 21
31.9792392086064
 31
0.0
  0
LINE
  5
1157
330
19
100
AcDbEntity
  8
Part
100
AcDbLine
 10
59.83742384343702
 20
32.0872392086064
 30
0.0
 11
59.83742384343702
 21
28.9622392086064
 31
0.0
  0
LINE
  5
1158
330
19
100
AcDbEntity
  8
Part
100
AcDbLine
 10
61.23742384343702
 20
32.0872392086064
 30
0.0
 11
61.23742384343702
 21
28.9622392086064
 31
0.0
  0
LINE
  5
1168
102
{ACAD_REACTORS
330
116F
330
11BF
102
}
330
19
100
AcDbEntity
  8
Part
100
AcDbLine
 10
61.18742384343702
 20
32.0872392086064
 30
0.0
 11
61.18742384343702
 21
28.9622392086064
 31
0.0
  0
LINE
  5
1169
102
{ACAD_REACTORS
330
116F
330
118D
102
}
330
19
100
AcDbEntity
  8
Part
100
AcDbLine
 10
59.88742384343701
 20
32.0872392086064
 30
0.0
 11
59.88742384343701
 21
28.9622392086064
 31
0.0
  0
LINE
  5
116A
102
{ACAD_REACTORS
330
118D
102
}
330
19
100
AcDbEntity
  8
Part
100
AcDbLine
 10
59.88742384343701
 20
31.9792392086064
 30
0.0
 11
61.18742384343702
 21
31.9792392086064
 31
0.0
  0
HATCH
  5
116F
330
19
100
AcDbEntity
  8
Part
100
AcDbHatch
 10
0.0
 20
0.0
 30
0.0
210
0.0
220
0.0
230
1.0
  2
SOLID
 70
     1
 71
     1
 91
        1
 92
        7
 72
     0
 73
     1
 93
        4
 10
61.18742384343703
 20
29.31823920860639
 10
59.88742384343701
 20
29.31823920860641
 10
59.88742384343701
 20
29.00423920860641
 10
61.18742384343702
 20
29.0042392086064
 97
        4
330
E75
330
1169
330
E73
330
1168
 75
     0
 76
     1
 47
0.0103711929798364
 98
        1
 10
60.45283562381878
 20
29.13544933114541
1001
ACAD
1010
0.0
1020
0.0
1030
0.0
  0
MTEXT
  5
1171
330
19
100
AcDbEntity
  8
Labels
100
AcDbMText
 10
60.36970106751665
 20
31.20947112211104
 30
0.0
 40
0.07
 41
0.3900000000000006
 71
     1
 72
     5
  1
{\fArial Narrow|b0|i0|c0|p34;\W0.8;CT/PT}
 73
     1
 44
1.0
1001
ACAD
1000
MTEXTBEGIN
1070
    73
1070
     1
1070
    44
1040
1.0
1070
    74
1070
     0
1000
MTEXTEND
  0
MTEXT
  5
1172
330
19
100
AcDbEntity
  8
Labels
100
AcDbMText
 10
60.81120079604691
 20
31.20947112211104
 30
0.0
 40
0.07
 41
0.3900000000000006
 71
     1
 72
     5
  1
{\fArial Narrow|b0|i0|c0|p34;\W0.8;+PS}
 73
     1
 44
1.0
1001
ACAD
1000
MTEXTBEGIN
1070
    73
1070
     1
1070
    44
1040
1.0
1070
    74
1070
     0
1000
MTEXTEND
  0
MTEXT
  5
1173
330
19
100
AcDbEntity
  8
Labels
100
AcDbMText
 10
61.0132007960469
 20
31.20947112211104
 30
0.0
 40
0.07
 41
0.3900000000000006
 71
     1
 72
     5
  1
{\fArial Narrow|b0|i0|c0|p34;\W0.8;-PS}
 73
     1
 44
1.0
1001
ACAD
1000
MTEXTBEGIN
1070
    73
1070
     1
1070
    44
1040
1.0
1070
    74
1070
     0
1000
MTEXTEND
  0
HATCH
  5
118D
330
19
100
AcDbEntity
  8
Part
100
AcDbHatch
 10
0.0
 20
0.0
 30
0.0
210
0.0
220
0.0
230
1.0
  2
SOLID
 70
     1
 71
     1
 91
        7
 92
        7
 72
     0
 73
     1
 93
        5
 10
60.33142384343703
 20
31.9792392086064
 10
59.903423843437
 20
31.9792392086064
 10
59.88742384343701
 20
31.97923920860639
 10
59.88742384343701
 20
31.2402392086064
 10
60.33142384343703
 20
31.2402392086064
 97
        5
330
114E
330
116A
330
1169
330
114D
330
110F
 92
       22
 72
     0
 73
     1
 93
        4
 10
60.11042384343703
 20
31.7542392086064
 10
60.11042384343703
 20
31.5112392086064
 10
59.93342384343701
 20
31.5112392086064
 10
59.93342384343701
 20
31.7542392086064
 97
        4
330
1131
330
1136
330
112F
330
1134
 92
        6
 72
     0
 73
     1
 93
        4
 10
60.07532574272776
 20
31.64242074761598
 10
60.07532574272776
 20
31.54435907602824
 10
59.9727846331532
 20
31.54435907602824
 10
59.9727846331532
 20
31.64242074761596
 97
        4
330
1138
330
1139
330
113A
330
1137
 92
       22
 72
     0
 73
     1
 93
        4
 10
60.13542384343701
 20
31.7542392086064
 10
60.30342384343702
 20
31.7542392086064
 10
60.303423843437
 20
31.5112392086064
 10
60.13542384343701
 20
31.5112392086064
 97
        4
330
1133
330
112E
330
1135
330
1132
 92
        6
 72
     0
 73
     1
 93
        4
 10
60.1747846331532
 20
31.64242074761597
 10
60.27732574272778
 20
31.64242074761596
 10
60.27732574272775
 20
31.54435907602824
 10
60.1747846331532
 20
31.54435907602824
 97
        4
330
113B
330
113C
330
113D
330
113E
 92
       22
 72
     1
 73
     1
 93
        2
 10
60.10176365851734
 20
31.37067209330342
 42
-1.0
 10
59.94376365851731
 20
31.37067209330342
 42
-1.0
 97
        1
330
1147
 92
       22
 72
     1
 73
     1
 93
        2
 10
60.30376365851733
 20
31.37067209330342
 42
-1.0
 10
60.14576365851732
 20
31.37067209330342
 42
-1.0
 97
        1
330
1148
 75
     0
 76
     1
 47
0.003126144637616
 98
        7
 10
60.07835578672309
 20
31.94148869742257
 10
60.07835578672309
 20
31.94148869742257
 10
60.07835578672309
 20
31.94148869742257
 10
60.07835578672309
 20
31.94148869742257
 10
60.07835578672309
 20
31.94148869742257
 10
60.07835578672309
 20
31.94148869742257
 10
60.07835578672309
 20
31.94148869742257
1001
ACAD
1010
0.0
1020
0.0
1030
0.0
  0
HATCH
  5
11A6
330
19
100
AcDbEntity
  8
Part
100
AcDbHatch
 10
0.0
 20
0.0
 30
0.0
210
0.0
220
0.0
230
1.0
  2
SOLID
 70
     1
 71
     1
 91
        7
 92
        7
 72
     0
 73
     1
 93
        4
 10
60.75942384343703
 20
31.9792392086064
 10
60.33142384343702
 20
31.9792392086064
 10
60.33142384343705
 20
31.2402392086064
 10
60.75942384343703
 20
31.2402392086064
 97
        4
330
112D
330
110F
330
112C
330
10EE
 92
       22
 72
     0
 73
     1
 93
        4
 10
60.53842384343703
 20
31.7542392086064
 10
60.53842384343703
 20
31.5112392086064
 10
60.36142384343702
 20
31.5112392086064
 10
60.36142384343702
 20
31.7542392086064
 97
        4
330
1110
330
1115
330
110E
330
1113
 92
        6
 72
     0
 73
     1
 93
        4
 10
60.50332574272776
 20
31.64242074761598
 10
60.50332574272776
 20
31.54435907602824
 10
60.40078463315323
 20
31.54435907602824
 10
60.40078463315321
 20
31.64242074761597
 97
        4
330
1117
330
1118
330
1119
330
1116
 92
       22
 72
     0
 73
     1
 93
        4
 10
60.56342384343704
 20
31.7542392086064
 10
60.73142384343704
 20
31.7542392086064
 10
60.73142384343704
 20
31.5112392086064
 10
60.56342384343704
 20
31.5112392086064
 97
        4
330
1112
330
110D
330
1114
330
1111
 92
        6
 72
     0
 73
     1
 93
        4
 10
60.60278463315323
 20
31.64242074761597
 10
60.70532574272776
 20
31.64242074761598
 10
60.70532574272776
 20
31.54435907602824
 10
60.60278463315323
 20
31.54435907602824
 97
        4
330
111A
330
111B
330
111C
330
111D
 92
       22
 72
     1
 73
     1
 93
        2
 10
60.52976365851733
 20
31.37067209330342
 42
-1.0
 10
60.37176365851735
 20
31.37067209330342
 42
-1.0
 97
        1
330
1126
 92
       22
 72
     1
 73
     1
 93
        2
 10
60.73176365851733
 20
31.37067209330342
 42
-1.0
 10
60.57376365851734
 20
31.37067209330342
 42
-1.0
 97
        1
330
1127
 75
     0
 76
     1
 47
0.003126144637616
 98
        7
 10
60.5258868866727
 20
31.90084883002834
 10
60.5258868866727
 20
31.90084883002834
 10
60.5258868866727
 20
31.90084883002834
 10
60.5258868866727
 20
31.90084883002834
 10
60.5258868866727
 20
31.90084883002834
 10
60.5258868866727
 20
31.90084883002834
 10
60.5258868866727
 20
31.90084883002834
1001
ACAD
1010
0.0
1020
0.0
1030
0.0
  0
HATCH
  5
11BF
330
19
100
AcDbEntity
  8
Part
100
AcDbHatch
 10
0.0
 20
0.0
 30
0.0
210
0.0
220
0.0
230
1.0
  2
SOLID
 70
     1
 71
     1
 91
        7
 92
        7
 72
     0
 73
     1
 93
        4
 10
61.18742384343702
 20
31.9792392086064
 10
60.75942384343702
 20
31.97923920860639
 10
60.75942384343703
 20
31.2402392086064
 10
61.18742384343702
 20
31.24023920860639
 97
        4
330
110C
330
10EE
330
110B
330
1168
 92
       22
 72
     0
 73
     1
 93
        4
 10
60.96642384343702
 20
31.7542392086064
 10
60.966423843437
 20
31.51123920860639
 10
60.78942384343704
 20
31.5112392086064
 10
60.78942384343704
 20
31.7542392086064
 97
        4
330
10EF
330
10F4
330
10ED
330
10F2
 92
        6
 72
     0
 73
     1
 93
        4
 10
60.93132574272779
 20
31.64242074761599
 10
60.93132574272774
 20
31.54435907602824
 10
60.82878463315323
 20
31.54435907602824
 10
60.82878463315321
 20
31.64242074761596
 97
        4
330
10F6
330
10F7
330
10F8
330
10F5
 92
       22
 72
     0
 73
     1
 93
        4
 10
60.991423843437
 20
31.7542392086064
 10
61.15942384343703
 20
31.7542392086064
 10
61.15942384343703
 20
31.5112392086064
 10
60.99142384343704
 20
31.5112392086064
 97
        4
330
10F1
330
10EC
330
10F3
330
10F0
 92
        6
 72
     0
 73
     1
 93
        4
 10
61.03078463315322
 20
31.64242074761596
 10
61.13332574272778
 20
31.64242074761597
 10
61.13332574272774
 20
31.54435907602824
 10
61.03078463315322
 20
31.54435907602824
 97
        4
330
10F9
330
10FA
330
10FB
330
10FC
 92
       22
 72
     1
 73
     1
 93
        2
 10
60.95776365851733
 20
31.37067209330342
 42
-1.0
 10
60.79976365851734
 20
31.37067209330342
 42
-1.0
 97
        1
330
1105
 92
       22
 72
     1
 73
     1
 93
        2
 10
61.15976365851733
 20
31.37067209330342
 42
-1.0
 10
61.00176365851734
 20
31.37067209330342
 42
-1.0
 97
        1
330
1106
 75
     0
 76
     1
 47
0.003126144637616
 98
        7
 10
60.94212203016994
 20
31.88521810552446
 10
60.94212203016994
 20
31.88521810552446
 10
60.94212203016994
 20
31.88521810552446
 10
60.94212203016994
 20
31.88521810552446
 10
60.94212203016994
 20
31.88521810552446
 10
60.94212203016994
 20
31.88521810552446
 10
60.94212203016994
 20
31.88521810552446
1001
ACAD
1010
0.0
1020
0.0
1030
0.0
  0
CIRCLE
  5
11C0
102
{ACAD_REACTORS
330
11D5
330
11DD
102
}
330
19
100
AcDbEntity
  8
Part
100
AcDbCircle
 10
60.58492384343701
 20
30.4152392086064
 30
0.0
 40
0.058
  0
LINE
  5
11C2
102
{ACAD_REACTORS
330
11DD
102
}
330
19
100
AcDbEntity
  8
Part
100
AcDbLine
 10
60.59742384343702
 20
30.5542392086064
 30
0.0
 11
60.59742384343702
 21
30.4718762106457
 31
0.0
  0
LINE
  5
11C5
102
{ACAD_REACTORS
330
11DD
102
}
330
19
100
AcDbEntity
  8
Part
100
AcDbLine
 10
60.59742384343702
 20
30.5542392086064
 30
0.0
 11
60.72642384343702
 21
30.5542392086064
 31
0.0
  0
LINE
  5
11C6
102
{ACAD_REACTORS
330
11DD
102
}
330
19
100
AcDbEntity
  8
Part
100
AcDbLine
 10
60.72642384343702
 20
30.5542392086064
 30
0.0
 11
60.72642384343702
 21
30.2762392086064
 31
0.0
  0
LINE
  5
11C7
102
{ACAD_REACTORS
330
11DD
102
}
330
19
100
AcDbEntity
  8
Part
100
AcDbLine
 10
60.59742384343702
 20
30.2762392086064
 30
0.0
 11
60.72642384343702
 21
30.2762392086064
 31
0.0
  0
LINE
  5
11C8
102
{ACAD_REACTORS
330
11DD
102
}
330
19
100
AcDbEntity
  8
Part
100
AcDbLine
 10
60.59742384343702
 20
30.3586022065671
 30
0.0
 11
60.59742384343702
 21
30.2762392086064
 31
0.0
  0
LINE
  5
11C9
102
{ACAD_REACTORS
330
11D5
102
}
330
19
100
AcDbEntity
  8
Part
100
AcDbLine
 10
60.57242384343702
 20
30.5542392086064
 30
0.0
 11
60.57242384343702
 21
30.4718762106457
 31
0.0
  0
LINE
  5
11CA
102
{ACAD_REACTORS
330
11D5
102
}
330
19
100
AcDbEntity
  8
Part
100
AcDbLine
 10
60.57242384343702
 20
30.3586022065671
 30
0.0
 11
60.57242384343702
 21
30.2762392086064
 31
0.0
  0
LINE
  5
11CB
102
{ACAD_REACTORS
330
11D5
102
}
330
19
100
AcDbEntity
  8
Part
100
AcDbLine
 10
60.57242384343702
 20
30.5542392086064
 30
0.0
 11
60.443423843437
 21
30.5542392086064
 31
0.0
  0
LINE
  5
11CC
102
{ACAD_REACTORS
330
11D5
102
}
330
19
100
AcDbEntity
  8
Part
100
AcDbLine
 10
60.443423843437
 20
30.5542392086064
 30
0.0
 11
60.443423843437
 21
30.2762392086064
 31
0.0
  0
LINE
  5
11CD
102
{ACAD_REACTORS
330
11D5
102
}
330
19
100
AcDbEntity
  8
Part
100
AcDbLine
 10
60.57242384343702
 20
30.2762392086064
 30
0.0
 11
60.443423843437
 21
30.2762392086064
 31
0.0
  0
HATCH
  5
11D5
330
19
100
AcDbEntity
  8
Part
100
AcDbHatch
 10
0.0
 20
0.0
 30
0.0
210
0.0
220
0.0
230
1.0
  2
SOLID
 70
     1
 71
     1
 91
        1
 92
        7
 72
     1
 73
     1
 93
        7
 10
60.52692384343703
 20
30.4152392086064
 42
-0.3519306177692558
 10
60.57242384343702
 20
30.4718762106457
 42
0.0
 10
60.57242384343702
 20
30.55423920860641
 42
0.0
 10
60.443423843437
 20
30.5542392086064
 42
0.0
 10
60.443423843437
 20
30.2762392086064
 42
0.0
 10
60.57242384343702
 20
30.2762392086064
 42
0.0
 10
60.57242384343702
 20
30.3586022065671
 42
-0.3519306177692558
 97
        6
330
11C0
330
11C9
330
11CB
330
11CC
330
11CD
330
11CA
 75
     0
 76
     1
 47
0.0020444170165327
 98
        1
 10
60.49415858865359
 20
30.40270503825675
1001
ACAD
1010
0.0
1020
0.0
1030
0.0
  0
HATCH
  5
11DD
330
19
100
AcDbEntity
  8
Part
100
AcDbHatch
 10
0.0
 20
0.0
 30
0.0
210
0.0
220
0.0
230
1.0
  2
SOLID
 70
     1
 71
     1
 91
        1
 92
        7
 72
     1
 73
     1
 93
        7
 10
60.642923843437
 20
30.4152392086064
 42
-0.3519306177692558
 10
60.59742384343702
 20
30.3586022065671
 42
0.0
 10
60.597423843437
 20
30.2762392086064
 42
0.0
 10
60.726423843437
 20
30.27623920860639
 42
0.0
 10
60.726423843437
 20
30.5542392086064
 42
0.0
 10
60.59742384343702
 20
30.5542392086064
 42
0.0
 10
60.59742384343702
 20
30.4718762106457
 42
-0.3519306177692558
 97
        6
330
11C5
330
11C2
330
11C0
330
11C8
330
11C7
330
11C6
 75
     0
 76
     1
 47
0.0020444170165327
 98
        1
 10
60.66812544163289
 20
30.45381545663893
1001
ACAD
1010
0.0
1020
0.0
1030
0.0
  0
CIRCLE
  5
11DF
330
19
100
AcDbEntity
  8
Part
100
AcDbCircle
 10
60.91192384343703
 20
30.4152392086064
 30
0.0
 40
0.0533124684197297
  0
LINE
  5
11E0
330
19
100
AcDbEntity
  8
Part
100
AcDbLine
 10
60.95130917138078
 20
30.379308508199
 30
0.0
 11
60.88410638251893
 21
30.46071896407053
 31
0.0
  0
LINE
  5
11E1
330
19
100
AcDbEntity
  8
Part
100
AcDbLine
 10
60.93974130435507
 20
30.36975945314229
 30
0.0
 11
60.87253851549323
 21
30.45116990901382
 31
0.0
  0
MTEXT
  5
11E2
330
19
100
AcDbEntity
  8
Labels
100
AcDbMText
 10
60.7923831574372
 20
30.63531083951697
 30
0.0
 40
0.0690961935097737
 41
0.5052025935589743
 71
     1
 72
     5
  1
{\fArial Narrow|b0|i0|c0|p34;SPAN}
  7
ADESK1
 73
     1
 44
1.0
1001
ACAD
1000
MTEXTBEGIN
1070
    73
1070
     1
1070
    44
1040
1.0
1070
    74
1070
     0
1000
MTEXTEND
  0
HATCH
  5
11E3
330
19
100
AcDbEntity
  8
Part
100
AcDbHatch
 10
0.0
 20
0.0
 30
0.0
210
0.0
220
0.0
230
1.0
  2
SOLID
 70
     1
 71
     1
 91
        1
 92
        7
 72
     1
 73
     1
 93
        7
 10
60.85392384343702
 20
30.4152392086064
 42
-0.3519306177692558
 10
60.899423843437
 20
30.4718762106457
 42
0.0
 10
60.89942384343702
 20
30.55423920860641
 42
0.0
 10
60.770423843437
 20
30.5542392086064
 42
0.0
 10
60.770423843437
 20
30.2762392086064
 42
0.0
 10
60.899423843437
 20
30.2762392086064
 42
0.0
 10
60.899423843437
 20
30.3586022065671
 42
-0.3519306177692558
 97
        6
330
11E5
330
11EB
330
11ED
330
11EE
330
11EF
330
11EC
 75
     0
 76
     1
 47
0.0020444170165327
 98
        1
 10
60.82115858865357
 20
30.40270503825675
1001
ACAD
1010
0.0
1020
0.0
1030
0.0
  0
HATCH
  5
11E4
330
19
100
AcDbEntity
  8
Part
100
AcDbHatch
 10
0.0
 20
0.0
 30
0.0
210
0.0
220
0.0
230
1.0
  2
SOLID
 70
     1
 71
     1
 91
        1
 92
        7
 72
     1
 73
     1
 93
        7
 10
60.969923843437
 20
30.4152392086064
 42
-0.3519306177692558
 10
60.92442384343701
 20
30.3586022065671
 42
0.0
 10
60.92442384343701
 20
30.2762392086064
 42
0.0
 10
61.05342384343702
 20
30.27623920860639
 42
0.0
 10
61.05342384343702
 20
30.5542392086064
 42
0.0
 10
60.92442384343701
 20
30.55423920860641
 42
0.0
 10
60.92442384343701
 20
30.4718762106457
 42
-0.3519306177692558
 97
        6
330
11E8
330
11E6
330
11E5
330
11E7
330
11EA
330
11E9
 75
     0
 76
     1
 47
0.0020444170165327
 98
        1
 10
60.99512544163289
 20
30.45381545663893
1001
ACAD
1010
0.0
1020
0.0
1030
0.0
  0
CIRCLE
  5
11E5
102
{ACAD_REACTORS
330
11E3
330
11E4
102
}
330
19
100
AcDbEntity
  8
Part
100
AcDbCircle
 10
60.91192384343703
 20
30.4152392086064
 30
0.0
 40
0.058
  0
LINE
  5
11E6
102
{ACAD_REACTORS
330
11E4
102
}
330
19
100
AcDbEntity
  8
Part
100
AcDbLine
 10
60.92442384343701
 20
30.5542392086064
 30
0.0
 11
60.92442384343701
 21
30.4718762106457
 31
0.0
  0
LINE
  5
11E7
102
{ACAD_REACTORS
330
11E4
102
}
330
19
100
AcDbEntity
  8
Part
100
AcDbLine
 10
60.92442384343701
 20
30.3586022065671
 30
0.0
 11
60.92442384343701
 21
30.2762392086064
 31
0.0
  0
LINE
  5
11E8
102
{ACAD_REACTORS
330
11E4
102
}
330
19
100
AcDbEntity
  8
Part
100
AcDbLine
 10
60.92442384343701
 20
30.5542392086064
 30
0.0
 11
61.05342384343702
 21
30.5542392086064
 31
0.0
  0
LINE
  5
11E9
102
{ACAD_REACTORS
330
11E4
102
}
330
19
100
AcDbEntity
  8
Part
100
AcDbLine
 10
61.05342384343702
 20
30.5542392086064
 30
0.0
 11
61.05342384343702
 21
30.2762392086064
 31
0.0
  0
LINE
  5
11EA
102
{ACAD_REACTORS
330
11E4
102
}
330
19
100
AcDbEntity
  8
Part
100
AcDbLine
 10
60.92442384343701
 20
30.2762392086064
 30
0.0
 11
61.05342384343702
 21
30.2762392086064
 31
0.0
  0
LINE
  5
11EB
102
{ACAD_REACTORS
330
11E3
102
}
330
19
100
AcDbEntity
  8
Part
100
AcDbLine
 10
60.899423843437
 20
30.5542392086064
 30
0.0
 11
60.899423843437
 21
30.4718762106457
 31
0.0
  0
LINE
  5
11EC
102
{ACAD_REACTORS
330
11E3
102
}
330
19
100
AcDbEntity
  8
Part
100
AcDbLine
 10
60.899423843437
 20
30.3586022065671
 30
0.0
 11
60.899423843437
 21
30.2762392086064
 31
0.0
  0
LINE
  5
11ED
102
{ACAD_REACTORS
330
11E3
102
}
330
19
100
AcDbEntity
  8
Part
100
AcDbLine
 10
60.899423843437
 20
30.5542392086064
 30
0.0
 11
60.770423843437
 21
30.5542392086064
 31
0.0
  0
LINE
  5
11EE
102
{ACAD_REACTORS
330
11E3
102
}
330
19
100
AcDbEntity
  8
Part
100
AcDbLine
 10
60.770423843437
 20
30.5542392086064
 30
0.0
 11
60.770423843437
 21
30.2762392086064
 31
0.0
  0
LINE
  5
11EF
102
{ACAD_REACTORS
330
11E3
102
}
330
19
100
AcDbEntity
  8
Part
100
AcDbLine
 10
60.899423843437
 20
30.2762392086064
 30
0.0
 11
60.770423843437
 21
30.2762392086064
 31
0.0
  0
MTEXT
  5
11F2
330
19
100
AcDbEntity
  8
Labels
100
AcDbMText
 10
59.98731849650548
 20
29.63059712333453
 30
0.0
 40
0.0401215302260477
 41
0.3060072343295854
 71
     1
 72
     5
  1
{\fLogosplus|b0|i0|c0|p2;\H6x;/}
  7
ADESK1
 73
     1
 44
1.0
1001
ACAD
1000
MTEXTBEGIN
1070
    73
1070
     1
1070
    44
1040
1.0
1070
    74
1070
     0
1000
MTEXTEND
  0
MTEXT
  5
1255
330
19
100
AcDbEntity
  8
Notes
100
AcDbMText
 10
48.42752665728967
 20
39.61472069979052
 30
0.0
 40
0.354463385711929
 41
34.35601123036423
 71
     1
 72
     5
  1
{\fArial|b0|i0|c0|p34;DIN HOUSING}
  7
ADESK1
 73
     1
 44
1.0
1001
ACAD
1000
MTEXTBEGIN
1070
    73
1070
     1
1070
    44
1040
1.0
1070
    74
1070
     0
1000
MTEXTEND
  0
LINE
  5
1256
330
19
100
AcDbEntity
  8
Notes
100
AcDbLine
 10
48.3441086326739
 20
38.97000848883227
 30
0.0
 11
60.82998897930631
 21
38.97000848883227
 31
0.0
  0
MTEXT
  5
1473
330
19
100
AcDbEntity
  8
0
100
AcDbMText
 10
44.04251360271754
 20
36.04722604199765
 30
0.0
 40
0.12
 41
14.44173728261603
 71
     5
 72
     5
  3
{\fArial|b0|i0|c0|p34;THIS DRAWING IS A CONTROLLED DOCUMENT PROVIDED \PBY MOORE INDUSTRIES-INTERNATIONAL, INC.\C176;\c8388608; \C256;AND IS \PSUBJECT TO CHANGE WITHOUT NOTICE. FOR LATEST \PREVISION OF DRAWING PLEASE CONTACT MOORE \PINDUSTRIES-INTERNA
  1
TIONAL, INC. THE INFORMATION \PPROVIDED IN THIS DRAWING IS PROPRIETARY TO \PMOORE INDUSTRIES-INTERNATIONAL, INC.\C176;\c8388608; }
 73
     1
 44
1.0
1001
ACAD
1000
MTEXTBEGIN
1070
    73
1070
     1
1070
    44
1040
1.0
1070
    74
1070
     0
1000
MTEXTEND
1000
ACAD_MTEXT_DEFINED_HEIGHT_BEGIN
1070
    46
1040
1.781648968217054
1000
ACAD_MTEXT_DEFINED_HEIGHT_END
  0
LINE
  5
1474
330
19
100
AcDbEntity
  8
0
100
AcDbLine
 10
41.27983757608585
 20
36.88888662945178
 30
0.0
 11
41.27983757608585
 21
35.29100853368172
 31
0.0
  0
LINE
  5
1475
330
19
100
AcDbEntity
  8
0
100
AcDbLine
 10
41.17837287686499
 20
36.99035132867261
 30
0.0
 11
41.178372876865
 21
35.19035132867261
 31
0.0
  0
LINE
  5
1476
330
19
100
AcDbEntity
  8
0
100
AcDbLine
 10
46.928372876865
 20
36.99035132867263
 30
0.0
 11
46.928372876865
 21
35.19035132867263
 31
0.0
  0
LINE
  5
1477
330
19
100
AcDbEntity
  8
0
100
AcDbLine
 10
46.82690817764413
 20
36.88888662945176
 30
0.0
 11
46.82690817764416
 21
35.29100853368172
 31
0.0
  0
LINE
  5
1478
330
19
100
AcDbEntity
  8
0
100
AcDbLine
 10
41.27983757608585
 20
35.29100853368172
 30
0.0
 11
46.82690817764416
 21
35.29100853368172
 31
0.0
  0
LINE
  5
1479
330
19
100
AcDbEntity
  8
0
100
AcDbLine
 10
41.27983757608585
 20
36.88888662945176
 30
0.0
 11
46.82690817764413
 21
36.88888662945176
 31
0.0
  0
LINE
  5
147A
330
19
100
AcDbEntity
  8
0
100
AcDbLine
 10
41.27983757608586
 20
36.99035132867261
 30
0.0
 11
46.82690817764413
 21
36.99035132867262
 31
0.0
  0
LINE
  5
147B
330
19
100
AcDbEntity
  8
0
100
AcDbLine
 10
41.17837287686499
 20
37.74035132867261
 30
0.0
 11
46.928372876865
 21
37.74035132867262
 31
0.0
  0
LINE
  5
147C
330
19
100
AcDbEntity
  8
0
100
AcDbLine
 10
41.27983757608585
 20
37.63888662945176
 30
0.0
 11
46.82690817764413
 21
37.63888662945176
 31
0.0
  0
LINE
  5
147D
330
19
100
AcDbEntity
  8
0
100
AcDbLine
 10
41.17837287686499
 20
35.19035132867261
 30
0.0
 11
46.928372876865
 21
35.19035132867262
 31
0.0
  0
LINE
  5
147E
330
19
100
AcDbEntity
  8
0
100
AcDbLine
 10
41.17837287686499
 20
35.19035132867261
 30
0.0
 11
46.928372876865
 21
35.19035132867262
 31
0.0
  0
LINE
  5
147F
330
19
100
AcDbEntity
  8
0
100
AcDbLine
 10
41.17837287686499
 20
34.19035132867261
 30
0.0
 11
41.17837287686499
 21
35.19035132867261
 31
0.0
  0
LINE
  5
1480
330
19
100
AcDbEntity
  8
0
100
AcDbLine
 10
41.17837287686499
 20
35.19035132867261
 30
0.0
 11
46.928372876865
 21
35.19035132867261
 31
0.0
  0
LINE
  5
1481
330
19
100
AcDbEntity
  8
0
100
AcDbLine
 10
41.17837287686499
 20
34.94035132867262
 30
0.0
 11
46.928372876865
 21
34.94035132867262
 31
0.0
  0
LINE
  5
1482
330
19
100
AcDbEntity
  8
0
100
AcDbLine
 10
41.17837287686499
 20
34.69035132867262
 30
0.0
 11
46.928372876865
 21
34.69035132867262
 31
0.0
  0
LINE
  5
1483
330
19
100
AcDbEntity
  8
0
100
AcDbLine
 10
46.928372876865
 20
34.19035132867261
 30
0.0
 11
46.928372876865
 21
35.19035132867261
 31
0.0
  0
LINE
  5
1484
330
19
100
AcDbEntity
  8
0
100
AcDbLine
 10
46.17167492516206
 20
34.19035132867261
 30
0.0
 11
46.17167492516206
 21
35.19035132867261
 31
0.0
  0
MTEXT
  5
1485
330
19
100
AcDbEntity
  8
0
100
AcDbMText
 10
41.49551621773743
 20
35.06535132867262
 30
0.0
 40
0.125
 41
0.6342866817448467
 71
     5
 72
     5
  1
{\fArial|b0|i0|c0|p34;REV}
 73
     1
 44
1.0
1001
ACAD
1000
MTEXTBEGIN
1070
    73
1070
     1
1070
    44
1040
1.0
1070
    74
1070
     0
1000
MTEXTEND
1000
ACAD_MTEXT_DEFINED_HEIGHT_BEGIN
1070
    46
1040
0.25
1000
ACAD_MTEXT_DEFINED_HEIGHT_END
  0
LINE
  5
1486
330
19
100
AcDbEntity
  8
0
100
AcDbLine
 10
41.81265955860984
 20
34.19035132867261
 30
0.0
 11
41.81265955860985
 21
35.19035132867261
 31
0.0
  0
MTEXT
  5
1487
330
19
100
AcDbEntity
  8
0
100
AcDbMText
 10
43.99216724188597
 20
35.06535132867262
 30
0.0
 40
0.125
 41
4.359015366552219
 71
     5
 72
     5
  1
{\fArial|b0|i0|c0|p34;DESCRIPTION}
 73
     1
 44
1.0
1001
ACAD
1000
MTEXTBEGIN
1070
    73
1070
     1
1070
    44
1040
1.0
1070
    74
1070
     0
1000
MTEXTEND
1000
ACAD_MTEXT_DEFINED_HEIGHT_BEGIN
1070
    46
1040
0.2499999999999975
1000
ACAD_MTEXT_DEFINED_HEIGHT_END
  0
MTEXT
  5
1488
330
19
100
AcDbEntity
  8
0
100
AcDbMText
 10
46.55002390101352
 20
35.06535132867262
 30
0.0
 40
0.125
 41
0.7566979517029253
 71
     5
 72
     5
  1
{\fArial|b0|i0|c0|p34;DATE}
 73
     1
 44
1.0
1001
ACAD
1000
MTEXTBEGIN
1070
    73
1070
     1
1070
    44
1040
1.0
1070
    74
1070
     0
1000
MTEXTEND
1000
ACAD_MTEXT_DEFINED_HEIGHT_BEGIN
1070
    46
1040
0.25
1000
ACAD_MTEXT_DEFINED_HEIGHT_END
  0
LINE
  5
1489
330
19
100
AcDbEntity
  8
0
100
AcDbLine
 10
41.17837287686499
 20
37.74035132867261
 30
0.0
 11
41.17837287686499
 21
36.99035132867261
 31
0.0
  0
LINE
  5
148A
330
19
100
AcDbEntity
  8
0
100
AcDbLine
 10
41.27983757608585
 20
37.63888662945176
 30
0.0
 11
41.27983757608585
 21
36.99035132867261
 31
0.0
  0
LINE
  5
148B
330
19
100
AcDbEntity
  8
0
100
AcDbLine
 10
46.928372876865
 20
37.74035132867262
 30
0.0
 11
46.928372876865
 21
36.99035132867263
 31
0.0
  0
LINE
  5
148C
330
19
100
AcDbEntity
  8
0
100
AcDbLine
 10
46.82690817764413
 20
37.63888662945176
 30
0.0
 11
46.82690817764413
 21
36.99035132867262
 31
0.0
  0
MTEXT
  5
148D
330
19
100
AcDbEntity
  8
0
100
AcDbMText
 10
44.05337287686499
 20
37.31461897906218
 30
0.0
 40
0.25
 41
5.547070601558278
 71
     5
 72
     5
  1
{\fArial Baltic|b0|i0|c186|p34;AC}X
 73
     1
 44
1.0
1001
ACAD
1000
MTEXTBEGIN
1070
    73
1070
     1
1070
    44
1040
1.0
1070
    74
1070
     0
1000
MTEXTEND
1000
ACAD_MTEXT_DEFINED_HEIGHT_BEGIN
1070
    46
1040
0.6485353007791446
1000
ACAD_MTEXT_DEFINED_HEIGHT_END
  0
MTEXT
  5
148E
330
19
100
AcDbEntity
  8
0
100
AcDbMText
 10
41.49551621773743
 20
34.81535132867261
 30
0.0
 40
0.125
 41
0.6342866817448503
 71
     5
 72
     5
  1
{\fArial|b0|i0|c0|p34;1}
 73
     1
 44
1.0
1001
ACAD
1000
MTEXTBEGIN
1070
    73
1070
     1
1070
    44
1040
1.0
1070
    74
1070
     0
1000
MTEXTEND
1000
ACAD_MTEXT_DEFINED_HEIGHT_BEGIN
1070
    46
1040
0.2499999999999993
1000
ACAD_MTEXT_DEFINED_HEIGHT_END
  0
MTEXT
  5
148F
330
19
100
AcDbEntity
  8
0
100
AcDbMText
 10
43.99216724188597
 20
34.81827882876663
 30
0.0
 40
0.125
 41
4.359015366552219
 71
     5
 72
     5
  1
{\fArial|b0|i0|c0|p34;INITIAL RELEASE}
 73
     1
 44
1.0
1001
ACAD
1000
MTEXTBEGIN
1070
    73
1070
     1
1070
    44
1040
1.0
1070
    74
1070
     0
1000
MTEXTEND
1000
ACAD_MTEXT_DEFINED_HEIGHT_BEGIN
1070
    46
1040
0.1292633015006892
1000
ACAD_MTEXT_DEFINED_HEIGHT_END
  0
MTEXT
  5
1490
330
19
100
AcDbEntity
  8
0
100
AcDbMText
 10
46.55002390101352
 20
34.81535132867261
 30
0.0
 40
0.125
 41
0.7566979517029218
 71
     5
 72
     5
  1
{\fArial|b0|i0|c0|p34;04/08}
 73
     1
 44
1.0
1001
ACAD
1000
MTEXTBEGIN
1070
    73
1070
     1
1070
    44
1040
1.0
1070
    74
1070
     0
1000
MTEXTEND
1000
ACAD_MTEXT_DEFINED_HEIGHT_BEGIN
1070
    46
1040
0.25
1000
ACAD_MTEXT_DEFINED_HEIGHT_END
  0
INSERT
  5
166E
330
19
100
AcDbEntity
  8
0
100
AcDbBlockReference
  2
A$C46157330
 10
41.17837287686499
 20
35.19035132867261
 30
0.0
  0
VIEWPORT
  5
BA
102
{ACAD_XDICTIONARY
360
169A
102
}
330
16
100
AcDbEntity
 67
     1
  8
0
100
AcDbViewport
 10
5.249999639556164
 20
6.140308632623732
 30
0.0
 40
11.99666166085311
 41
13.27361724380106
 68
     1
 69
     1
 12
5.249999639556164
 22
6.140308632623732
 13
0.0
 23
0.0
 14
0.5
 24
0.5
 15
0.5
 25
0.5
 16
0.0
 26
0.0
 36
1.0
 17
0.0
 27
0.0
 37
0.0
 42
50.0
 43
0.0
 44
0.0
 45
13.27361724380106
 50
0.0
 51
0.0
 72
   100
 90
    32800
  1

281
     0
 71
     1
 74
     0
110
0.0
120
0.0
130
0.0
111
1.0
121
0.0
131
0.0
112
0.0
122
1.0
132
0.0
 79
     0
146
0.0
1001
GENIUS_GENOBJ-N-SDF_13
1002
{
1000
OWNER
1000
GEN
1002
}
1001
GENIUS_GENODEF_13
1002
{
1000
HIER
1070
     0
1002
}
1002
{
1000
MANEDIT
1070
     0
1002
}
1002
{
1000
NOSEL
1070
     0
1002
}
1002
{
1000
BEHIND
1070
     0
1002
}
1002
{
1000
OTHER
1070
     0
1002
}
1002
{
1000
REACTOR
1002
}
1001
GENIUS_GENSCREG_15
1000
PF
1040
1.0
1000
DF
1040
1.0
1000
MIN
1011
-0.7483311908703901
1021
-0.4964999892767974
1031
0.0
1000
MAX
1011
11.24833046998272
1021
12.77711725452426
1031
0.0
1000
FLAGS
1070
     2
  0
ENDSEC
  0
SECTION
  2
OBJECTS
  0
DICTIONARY
  5
C
330
0
100
AcDbDictionary
281
     1
  3
ACAD_2007HEADERVARS_RT
350
1698
  3
ACAD_COLOR
350
3F8
  3
ACAD_GROUP
350
D
  3
ACAD_LAYOUT
350
150
  3
ACAD_MATERIAL
350
3F7
  3
ACAD_MLINESTYLE
350
E
  3
ACAD_PLOTSETTINGS
350
151
  3
ACAD_PLOTSTYLENAME
350
14E
  3
ACAD_TABLESTYLE
350
3F9
  3
ACAD_VISUALSTYLE
350
582
  3
ACDBVARIABLEDICTIONARY
350
FA
  3
AcmDictionary
350
189
  3
AMG
350
158
  3
AMGSNAPSETTINGS
350
1BA
  3
DWGPROPS
350
1697
  3
MAPISURF_MODULE
350
15DD
  0
DICTIONARY
  5
44C
330
2
100
AcDbDictionary
280
     1
281
     1
  3
ACAD_LAYERFILTERS
360
1155
  3
ACAD_LAYERSTATES
360
44D
  3
ACLYDICTIONARY
360
1154
  0
DICTIONARY
  5
11F
330
19
100
AcDbDictionary
280
     1
281
     1
  3
ACAD_INDEX
360
120
  3
ACAD_SORTENTS
360
601
  0
DICTIONARY
  5
C8D
330
C8B
100
AcDbDictionary
280
     1
281
     1
  3
ACAD_SORTENTS
360
C8E
  0
DICTIONARY
  5
165E
330
165D
100
AcDbDictionary
280
     1
281
     1
  3
ACAD_SORTENTS
360
165F
  0
DICTIONARY
  5
1669
330
1667
100
AcDbDictionary
280
     1
281
     1
  3
ACAD_SORTENTS
360
166A
  0
DICTIONARY
  5
16A1
330
F3B
100
AcDbDictionary
280
     1
281
     1
  3
ACAD_MTEXT_RT
360
16A2
  0
DICTIONARY
  5
169A
330
BA
100
AcDbDictionary
280
     1
281
     1
  3
ACAD_XREC_ROUNDTRIP
360
169B
  0
DICTIONARY
  5
1698
102
{ACAD_REACTORS
330
C
102
}
330
C
100
AcDbDictionary
281
     1
  3
DIMARCSYM
350
1699
  0
DICTIONARY
  5
3F8
102
{ACAD_REACTORS
330
C
102
}
330
C
100
AcDbDictionary
281
     1
  0
DICTIONARY
  5
D
102
{ACAD_REACTORS
330
C
102
}
330
C
100
AcDbDictionary
281
     1
  0
DICTIONARY
  5
150
102
{ACAD_REACTORS
330
C
102
}
330
C
100
AcDbDictionary
281
     1
  3
Layout1
350
153
  3
Model
350
152
  0
DICTIONARY
  5
3F7
102
{ACAD_REACTORS
330
C
102
}
330
C
100
AcDbDictionary
281
     1
  3
ByBlock
350
580
  3
ByLayer
350
57F
  3
Global
350
581
  0
DICTIONARY
  5
E
102
{ACAD_REACTORS
330
C
102
}
330
C
100
AcDbDictionary
281
     1
  3
STANDARD
350
1C
  0
DICTIONARY
  5
151
102
{ACAD_REACTORS
330
C
102
}
330
C
100
AcDbDictionary
281
     1
  0
ACDBDICTIONARYWDFLT
  5
14E
102
{ACAD_REACTORS
330
C
102
}
330
C
100
AcDbDictionary
281
     1
  3
Normal
350
14F
100
AcDbDictionaryWithDefault
340
14F
  0
DICTIONARY
  5
3F9
102
{ACAD_REACTORS
330
C
102
}
330
C
100
AcDbDictionary
281
     1
  3
Standard
350
3FA
  0
DICTIONARY
  5
582
102
{ACAD_REACTORS
330
C
102
}
330
C
100
AcDbDictionary
281
     1
  3
2dWireframe
350
588
  3
3D Hidden
350
58A
  3
3dWireframe
350
589
  3
Basic
350
587
  3
Brighten
350
58E
  3
ColorChange
350
592
  3
Conceptual
350
58B
  3
Dim
350
58D
  3
Facepattern
350
591
  3
Flat
350
583
  3
FlatWithEdges
350
584
  3
Gouraud
350
585
  3
GouraudWithEdges
350
586
  3
Linepattern
350
590
  3
Realistic
350
58C
  3
Thicken
350
58F
  0
DICTIONARY
  5
FA
102
{ACAD_REACTORS
330
C
102
}
330
C
100
AcDbDictionary
281
     1
  3
CTABLESTYLE
350
429
  3
DIMASSOC
350
3F5
  3
INDEXCTL
350
FB
  3
SORTENTS
350
1696
  0
DICTIONARY
  5
189
102
{ACAD_REACTORS
330
C
102
}
330
C
100
AcDbDictionary
281
     1
  3
AcmStdDictionary
350
2C1
  3
AMDTSECTSYM_ARROWCOLOR
350
402
  0
DICTIONARY
  5
158
102
{ACAD_REACTORS
330
C
102
}
330
C
100
AcDbDictionary
281
     1
  3
AcMgSettings
350
159
  0
DICTIONARY
  5
1BA
102
{ACAD_REACTORS
330
C
102
}
330
C
100
AcDbDictionary
281
     1
  3
DIMENSION
350
1BE
  3
FEA
350
1BD
  3
HATCH
350
1BB
  3
SYMBOLS
350
1BC
  0
XRECORD
  5
1697
102
{ACAD_REACTORS
330
C
102
}
330
C
100
AcDbXrecord
280
     1
  1
DWGPROPS COOKIE
  2

  3

  4

  6

  7

  8
amartinez
  9

300
AmdtFileType=84
301
=
302
=
303
=
304
=
305
=
306
=
307
=
308
=
309
=
 40
0.4534371064814815
 41
2454683.317750057
 42
2454784.449666088
  1

 90
        1
  0
DICTIONARY
  5
1155
102
{ACAD_REACTORS
330
44C
102
}
330
44C
100
AcDbDictionary
281
     1
  0
DICTIONARY
  5
44D
102
{ACAD_REACTORS
330
44C
102
}
330
44C
100
AcDbDictionary
281
     1
  0
DICTIONARY
  5
1154
102
{ACAD_REACTORS
330
44C
102
}
330
44C
100
AcDbDictionary
281
     1
1001
ACAD
1000
<All
  0
DICTIONARY
  5
120
102
{ACAD_REACTORS
330
11F
102
}
330
11F
100
AcDbDictionary
281
     1
  3
*A1
350
121
  0
SORTENTSTABLE
  5
601
102
{ACAD_REACTORS
330
11F
102
}
330
11F
100
AcDbSortentsTable
330
19
331
6B0
  5
6C4
331
62A
  5
635
331
669
  5
683
331
6FF
  5
702
331
94B
  5
969
331
A99
  5
A99
331
AD0
  5
AD0
331
10F8
  5
10FE
331
EE3
  5
EE8
331
E9C
  5
EA1
331
F99
  5
F9E
331
96B
  5
96D
331
776
  5
7BC
331
6C8
  5
6D2
331
707
  5
72E
331
7FD
  5
80B
331
834
  5
834
331
9A2
  5
9A3
331
681
  5
68D
331
CA5
  5
CA5
331
11ED
  5
11EF
331
113F
  5
1145
331
1100
  5
1106
331
EA4
  5
EA9
331
EEB
  5
EF0
331
FA1
  5
FA6
331
AA9
  5
AA9
331
973
  5
975
331
805
  5
814
331
AE0
  5
AE0
331
642
  5
653
331
11A6
  5
10F3
331
1147
  5
114F
331
1108
  5
110E
331
E75
  5
E82
331
EAC
  5
EB1
331
EF3
  5
EF8
331
F6A
  5
F6F
331
FA9
  5
FAE
331
924
  5
924
331
7AE
  5
7BD
331
AE8
  5
AE8
331
114F
  5
116B
331
1110
  5
1116
331
EB4
  5
EB9
331
F72
  5
F77
331
11C6
  5
11CB
331
6D8
  5
6E0
331
689
  5
691
331
60B
  5
619
331
64A
  5
656
331
A7A
  5
A7A
331
80D
  5
81E
331
691
  5
699
331
6E0
  5
6F4
331
7B6
  5
7C5
331
92C
  5
92C
331
97B
  5
97D
331
652
  5
65D
331
AF0
  5
AF0
331
1118
  5
111E
331
EBC
  5
EC1
331
F7A
  5
F7F
331
AF8
  5
AF8
331
983
  5
986
331
699
  5
6AD
331
7BE
  5
7F7
331
934
  5
934
331
A82
  5
A82
331
61B
  5
623
331
AB9
  5
AB9
331
1120
  5
1126
331
1157
  5
1171
331
EC4
  5
EC9
331
E85
  5
E8A
331
F82
  5
F87
331
93C
  5
93C
331
737
  5
73A
331
6F0
  5
6FC
331
7C6
  5
7FF
331
81D
  5
826
331
A8A
  5
A8A
331
AC1
  5
AC1
331
662
  5
66B
331
B00
  5
B00
331
1128
  5
1130
331
F8A
  5
F8F
331
ECC
  5
EDA
331
F13
  5
F18
331
A92
  5
A92
331
944
  5
946
331
73F
  5
749
331
825
  5
7B0
331
993
  5
994
331
BE8
  5
BE8
331
116F
  5
E76
331
10F1
  5
10F7
331
E95
  5
E9A
331
EDC
  5
EE1
331
F92
  5
F97
331
11E6
  5
11E8
331
6B1
  5
6C5
331
6F8
  5
705
331
62B
  5
63C
331
66A
  5
685
331
82D
  5
82F
331
7F6
  5
805
331
700
  5
70B
331
A9A
  5
A9A
331
633
  5
642
331
AD1
  5
AD1
331
1138
  5
113E
331
10F9
  5
10FF
331
E9D
  5
EA2
331
EE4
  5
EE9
331
F9A
  5
F9F
331
9A3
  5
9A4
331
7FE
  5
80C
331
777
  5
7B9
331
6C9
  5
6D3
331
708
  5
72F
331
96C
  5
96E
331
682
  5
68E
331
63B
  5
64C
331
11EE
  5
11F0
331
1140
  5
1146
331
1101
  5
1107
331
EEC
  5
EF1
331
EA5
  5
EAA
331
F3B
  5
F6C
331
FA2
  5
FA7
331
974
  5
976
331
6D1
  5
6D9
331
806
  5
815
331
A6B
  5
943
331
AAA
  5
AAA
331
AE1
  5
AE1
331
1148
  5
1157
331
1109
  5
110F
331
FAA
  5
FB6
331
EF4
  5
EF9
331
EAD
  5
EB2
331
F6B
  5
F70
331
7AF
  5
7BE
331
925
  5
925
331
AE9
  5
AE9
331
11BF
  5
10F0
331
1111
  5
1117
331
EB5
  5
EBA
331
F73
  5
F78
331
11C7
  5
11CC
331
68A
  5
692
331
6D9
  5
6E1
331
92D
  5
92D
331
692
  5
69A
331
6E1
  5
6F5
331
7B7
  5
7C6
331
80E
  5
7B5
331
97C
  5
97E
331
A7B
  5
A7B
331
653
  5
65E
331
AF1
  5
AF1
331
1119
  5
111F
331
EBD
  5
EC2
331
E7E
  5
E84
331
F7B
  5
F80
331
A83
  5
A83
331
816
  5
821
331
69A
  5
6AE
331
730
  5
736
331
7BF
  5
7F8
331
935
  5
935
331
61C
  5
624
331
65B
  5
664
331
ABA
  5
ABA
331
AF9
  5
AF9
331
1121
  5
1127
331
1158
  5
1173
331
EC5
  5
ECA
331
E86
  5
E8C
331
F0C
  5
F13
331
F83
  5
F88
331
B01
  5
B01
331
A8B
  5
A8B
331
81E
  5
828
331
738
  5
73B
331
6F1
  5
6FD
331
7C7
  5
800
331
93D
  5
93D
331
98C
  5
990
331
AC2
  5
AC2
331
663
  5
67E
331
1168
  5
118E
331
1129
  5
1131
331
E8E
  5
E93
331
ECD
  5
EDB
331
F14
  5
F19
331
F8B
  5
F90
331
BE9
  5
BE9
331
994
  5
995
331
826
  5
82A
331
945
  5
947
331
A93
  5
A93
331
ACA
  5
ACA
331
C97
  5
C97
331
1131
  5
1137
331
10F2
  5
10F8
331
EDD
  5
EE2
331
E96
  5
E9B
331
F1C
  5
F36
331
F93
  5
F98
331
11DF
  5
11E1
331
11E7
  5
11E9
331
6B2
  5
6C6
331
6F9
  5
706
331
740
  5
750
331
62C
  5
63E
331
66B
  5
687
331
7F7
  5
806
331
701
  5
70C
331
82E
  5
831
331
A9B
  5
A9B
331
1139
  5
113F
331
10FA
  5
1100
331
F9B
  5
FA0
331
E9E
  5
EA3
331
EE5
  5
EEA
331
F34
  5
F39
331
96D
  5
96F
331
778
  5
7B2
331
6CA
  5
6D4
331
709
  5
730
331
7FF
  5
80D
331
836
  5
836
331
9A4
  5
A6B
331
683
  5
686
331
63C
  5
650
331
1141
  5
1147
331
1102
  5
1108
331
EA6
  5
EAB
331
EED
  5
EF2
331
FA3
  5
FA8
331
AAB
  5
AAB
331
975
  5
977
331
6D2
  5
6DA
331
807
  5
816
331
AE2
  5
AE2
331
644
  5
654
331
11EF
  5
11F1
331
1149
  5
1158
331
110A
  5
1110
331
EAE
  5
EB3
331
EF5
  5
F0D
331
F6C
  5
F71
331
FAB
  5
FB7
331
926
  5
926
331
AEA
  5
AEA
331
11C0
  5
11C7
331
1112
  5
1118
331
EB6
  5
EBB
331
F74
  5
F79
331
6DA
  5
6EA
331
68B
  5
693
331
7B0
  5
7BF
331
60D
  5
61A
331
64C
  5
657
331
AF2
  5
AF2
331
97D
  5
97F
331
80F
  5
81F
331
693
  5
69B
331
7B8
  5
7C7
331
92E
  5
92E
331
A7C
  5
A7C
331
615
  5
61F
331
654
  5
65F
331
AB3
  5
AB3
331
111A
  5
1120
331
EBE
  5
EC3
331
F7C
  5
F81
331
AFA
  5
AFA
331
985
  5
942
331
7C0
  5
7F9
331
731
  5
737
331
69B
  5
6AF
331
6EA
  5
6F8
331
817
  5
7B1
331
936
  5
936
331
A84
  5
A84
331
65C
  5
665
331
ABB
  5
ABB
331
11C8
  5
11C9
331
1122
  5
1128
331
EC6
  5
ECB
331
E87
  5
E8D
331
F0D
  5
F14
331
F84
  5
F89
331
93E
  5
93E
331
6AB
  5
6B3
331
739
  5
73C
331
7C8
  5
801
331
A8C
  5
A8C
331
AC3
  5
AC3
331
625
  5
62C
331
664
  5
67F
331
1169
  5
1172
331
10EB
  5
10EF
331
F8C
  5
F91
331
E8F
  5
E94
331
ECE
  5
EDC
331
F15
  5
F1A
331
A94
  5
A94
331
827
  5
82B
331
946
  5
948
331
995
  5
996
331
ACB
  5
ACB
331
1171
  5
11A7
331
1132
  5
1138
331
10F3
  5
10F9
331
E97
  5
E9C
331
EDE
  5
EE3
331
F1D
  5
F37
331
F94
  5
F99
331
11E0
  5
11E2
331
6B3
  5
6C7
331
6FA
  5
707
331
A9C
  5
A9C
331
82F
  5
82D
331
771
  5
771
331
6C3
  5
6CB
331
702
  5
70D
331
7F8
  5
807
331
99D
  5
99E
331
635
  5
643
331
113A
  5
1140
331
10FB
  5
1101
331
E9F
  5
EA4
331
EE6
  5
EEB
331
F35
  5
F3A
331
F9C
  5
FA1
331
800
  5
80E
331
779
  5
7B8
331
6CB
  5
6D5
331
70A
  5
731
331
837
  5
837
331
96E
  5
970
331
684
  5
684
331
63D
  5
651
331
11E8
  5
11EA
331
1142
  5
1148
331
1103
  5
1109
331
EEE
  5
EF3
331
EA7
  5
EAC
331
FA4
  5
FA9
331
6D3
  5
6DB
331
976
  5
978
331
AAC
  5
AAC
331
AE3
  5
AE3
331
114A
  5
1167
331
110B
  5
1111
331
FAC
  5
FB8
331
EAF
  5
EB4
331
EF6
  5
F0E
331
F6D
  5
F72
331
A75
  5
A75
331
927
  5
927
331
AEB
  5
AEB
331
1113
  5
1119
331
EB7
  5
EBC
331
F75
  5
F7A
331
68C
  5
694
331
6DB
  5
6EB
331
7B1
  5
7C0
331
808
  5
817
331
64D
  5
658
331
60E
  5
61B
331
92F
  5
92F
331
694
  5
69C
331
7B9
  5
7C8
331
810
  5
820
331
97E
  5
980
331
A7D
  5
A7D
331
616
  5
61E
331
655
  5
660
331
AB4
  5
AB4
331
AF3
  5
AF3
331
111B
  5
1121
331
EBF
  5
EC4
331
F7D
  5
F82
331
C89
  5
C89
331
A85
  5
A85
331
818
  5
823
331
732
  5
738
331
69C
  5
6B0
331
6EB
  5
6F9
331
7C1
  5
7FA
331
937
  5
937
331
986
  5
989
331
61E
  5
60C
331
65D
  5
666
331
ABC
  5
ABC
331
AFB
  5
AFB
331
11C9
  5
11CD
331
EC7
  5
ECC
331
F0E
  5
F15
331
F85
  5
F8A
331
A8D
  5
A8D
331
820
  5
7AF
331
73A
  5
73D
331
6AC
  5
6B4
331
6F3
  5
6FE
331
7C9
  5
802
331
93F
  5
93F
331
AC4
  5
AC4
331
626
  5
62D
331
665
  5
680
331
1123
  5
1129
331
116A
  5
E74
331
E90
  5
E95
331
ECF
  5
EDD
331
F16
  5
F1D
331
F8D
  5
F92
331
C99
  5
C99
331
996
  5
997
331
947
  5
949
331
A95
  5
A95
331
ACC
  5
ACC
331
10EC
  5
10F1
331
11E1
  5
11E3
331
1172
  5
11C0
331
1133
  5
1139
331
EDF
  5
EE4
331
F1E
  5
F38
331
F95
  5
F9A
331
10F4
  5
10FA
331
6B4
  5
6C8
331
6FB
  5
708
331
828
  5
822
331
62E
  5
640
331
E98
  5
E9D
331
703
  5
70E
331
6C4
  5
6CC
331
772
  5
772
331
7F9
  5
808
331
99E
  5
99F
331
A9D
  5
A9D
331
5FF
  5
5FF
331
636
  5
644
331
AD4
  5
AD4
331
11E9
  5
11EB
331
113B
  5
1141
331
F9D
  5
FA2
331
E69
  5
E69
331
EA0
  5
EA5
331
EE7
  5
EEC
331
F36
  5
F3B
331
AA5
  5
AA5
331
838
  5
838
331
70B
  5
732
331
6CC
  5
6D6
331
801
  5
80F
331
96F
  5
971
331
685
  5
68A
331
607
  5
60E
331
63E
  5
64E
331
ADC
  5
ADC
331
10FC
  5
1102
331
1143
  5
1149
331
EA8
  5
EAD
331
EEF
  5
EF4
331
FA5
  5
FAA
331
AAD
  5
AAD
331
6D4
  5
6DC
331
920
  5
920
331
977
  5
979
331
AE4
  5
AE4
331
1104
  5
110A
331
EB0
  5
EB5
331
EF7
  5
F0F
331
F6E
  5
F73
331
FAD
  5
1071
331
AEC
  5
AEC
331
110C
  5
1112
331
11C2
  5
11C8
331
F76
  5
F7B
331
1114
  5
111A
331
809
  5
818
331
7B2
  5
7C1
331
6DC
  5
6ED
331
68D
  5
695
331
71B
  5
6F1
331
928
  5
928
331
64E
  5
659
331
EB8
  5
EBD
331
AF4
  5
AF4
331
97F
  5
981
331
7BA
  5
7C9
331
695
  5
69D
331
72B
  5
6F6
331
811
  5
7B7
331
930
  5
930
331
A7E
  5
A7E
331
656
  5
661
331
617
  5
620
331
AB5
  5
AB5
331
11CA
  5
11CE
331
EC0
  5
EC5
331
F7E
  5
F83
331
FB5
  5
10E9
331
A86
  5
A86
331
7C2
  5
7FB
331
69D
  5
6B1
331
733
  5
611
331
819
  5
824
331
938
  5
938
331
65E
  5
667
331
ABD
  5
ABD
331
AFC
  5
AFC
331
111C
  5
1122
331
EC8
  5
ECD
331
E89
  5
E8F
331
F0F
  5
F16
331
F86
  5
F8B
331
940
  5
940
331
73B
  5
73E
331
6AD
  5
6B5
331
6F4
  5
700
331
7CA
  5
803
331
A8E
  5
A8E
331
AC5
  5
AC5
331
627
  5
62E
331
666
  5
681
331
1124
  5
112A
331
112C
  5
1133
331
F8E
  5
F93
331
E91
  5
E96
331
F17
  5
F1E
331
A96
  5
A96
331
997
  5
99D
331
10ED
  5
10F2
331
11E2
  5
11E4
331
1173
  5
11C2
331
1134
  5
113A
331
F96
  5
F9B
331
10F5
  5
10FB
331
6B5
  5
6C9
331
6FC
  5
70A
331
829
  5
77C
331
948
  5
94A
331
E99
  5
E9E
331
EE0
  5
EE5
331
99F
  5
9A0
331
831
  5
7AE
331
773
  5
773
331
6C5
  5
6CD
331
704
  5
71D
331
7FA
  5
7B3
331
968
  5
96A
331
A9E
  5
A9E
331
67E
  5
688
331
600
  5
60D
331
AD5
  5
AD5
331
11EA
  5
11EC
331
113C
  5
1142
331
EA1
  5
EA6
331
EE8
  5
EED
331
F37
  5
F3C
331
F9E
  5
FA3
331
AA6
  5
AA6
331
802
  5
810
331
6CD
  5
6D7
331
70C
  5
733
331
839
  5
839
331
970
  5
972
331
686
  5
68C
331
63F
  5
64D
331
10FD
  5
1103
331
1144
  5
114A
331
EF0
  5
EF5
331
EA9
  5
EAE
331
E72
  5
E75
331
FA6
  5
FAB
331
6D5
  5
6DD
331
AAE
  5
AAE
331
AE5
  5
AE5
331
1105
  5
110B
331
EB1
  5
EB6
331
F6F
  5
F74
331
AED
  5
AED
331
110D
  5
1113
331
F77
  5
F7C
331
1115
  5
111B
331
608
  5
616
331
929
  5
929
331
71C
  5
6F3
331
68E
  5
696
331
6DD
  5
6EE
331
7B3
  5
7C2
331
80A
  5
819
331
978
  5
97A
331
64F
  5
65A
331
610
  5
61C
331
EB9
  5
EBE
331
EF8
  5
F10
331
931
  5
931
331
72C
  5
6F7
331
696
  5
69E
331
7BB
  5
7CA
331
812
  5
7B6
331
980
  5
982
331
A7F
  5
A7F
331
618
  5
621
331
657
  5
662
331
AB6
  5
AB6
331
AF5
  5
AF5
331
11CB
  5
11D6
331
EC1
  5
EC6
331
F7F
  5
F84
331
FB6
  5
10EA
331
A87
  5
A87
331
734
  5
617
331
69E
  5
6B2
331
6ED
  5
6FA
331
7C3
  5
7FC
331
65F
  5
669
331
ABE
  5
ABE
331
AFD
  5
AFD
331
111D
  5
1123
331
EC9
  5
ECE
331
F87
  5
F8C
331
C93
  5
C93
331
7CB
  5
804
331
73C
  5
73F
331
6AE
  5
6B6
331
6F5
  5
701
331
990
  5
991
331
A8F
  5
A8F
331
AC6
  5
AC6
331
667
  5
682
331
1125
  5
112B
331
112D
  5
1134
331
ED9
  5
EDE
331
E92
  5
E97
331
F18
  5
F1F
331
F8F
  5
F94
331
A97
  5
A97
331
ACE
  5
ACE
331
10EE
  5
10F4
331
11E3
  5
11E5
331
1135
  5
113B
331
F97
  5
F9C
331
10F6
  5
10FC
331
628
  5
62F
331
6B6
  5
6CA
331
82A
  5
82C
331
949
  5
94B
331
EE1
  5
EE6
331
E9A
  5
E9F
331
969
  5
96B
331
774
  5
7B4
331
6C6
  5
6CE
331
705
  5
71E
331
7FB
  5
809
331
832
  5
832
331
9A0
  5
9A1
331
A9F
  5
A9F
331
67F
  5
689
331
638
  5
649
331
11EB
  5
11ED
331
113D
  5
1143
331
F9F
  5
FA4
331
EA2
  5
EA7
331
EE9
  5
EEE
331
F38
  5
F6A
331
AA7
  5
AA7
331
971
  5
973
331
6CE
  5
6D8
331
803
  5
811
331
687
  5
68F
331
640
  5
64F
331
10FE
  5
1104
331
1145
  5
114B
331
F68
  5
F6D
331
FA7
  5
FAC
331
1106
  5
110C
331
EAA
  5
EAF
331
A70
  5
A70
331
6D6
  5
6DE
331
922
  5
922
331
AAF
  5
AAF
331
AE6
  5
AE6
331
E73
  5
E80
331
EF1
  5
EF6
331
114D
  5
1168
331
F70
  5
F75
331
110E
  5
1114
331
AEE
  5
AEE
331
EB2
  5
EB7
331
1116
  5
111C
331
80B
  5
81A
331
6DE
  5
6F0
331
68F
  5
697
331
7B4
  5
7C3
331
92A
  5
92A
331
979
  5
97B
331
611
  5
61D
331
650
  5
65B
331
F78
  5
F7D
331
AF6
  5
AF6
331
981
  5
983
331
72D
  5
734
331
697
  5
6AB
331
7BC
  5
7CB
331
932
  5
932
331
A80
  5
A80
331
658
  5
663
331
619
  5
60B
331
AB7
  5
AB7
331
EBA
  5
EBF
331
11CC
  5
11DF
331
F80
  5
F85
331
FB7
  5
10EB
331
111E
  5
1124
331
93A
  5
93A
331
7C4
  5
7FD
331
6EE
  5
6FB
331
989
  5
98A
331
A88
  5
A88
331
ABF
  5
ABF
331
660
  5
66A
331
621
  5
62A
331
AFE
  5
AFE
331
EC2
  5
EC7
331
1126
  5
112E
331
ECA
  5
ECF
331
942
  5
944
331
73D
  5
740
331
6AF
  5
6C3
331
6F6
  5
703
331
823
  5
779
331
991
  5
992
331
A90
  5
A90
331
E8B
  5
E90
331
F88
  5
F8D
331
112E
  5
1135
331
10EF
  5
10F5
331
F90
  5
F95
331
ACF
  5
ACF
331
E93
  5
E98
331
EDA
  5
EDF
331
F19
  5
F35
331
11E4
  5
11E6
331
1136
  5
113C
331
10F7
  5
10FD
331
629
  5
631
331
A98
  5
A98
331
6FE
  5
709
331
82B
  5
82E
331
94A
  5
94C
331
631
  5
641
331
9A1
  5
9A2
331
7FC
  5
80A
331
775
  5
7BA
331
6C7
  5
6D1
331
706
  5
72D
331
833
  5
833
331
96A
  5
96C
331
AA0
  5
AA0
331
680
  5
68B
331
CA4
  5
CA4
331
E9B
  5
EA0
331
EE2
  5
EE7
331
F98
  5
F9D
331
11EC
  5
11EE
331
118D
  5
E73
331
113E
  5
1144
331
10FF
  5
1105
331
EEA
  5
EEF
331
AA8
  5
AA8
331
804
  5
812
331
972
  5
974
331
641
  5
64A
331
EA3
  5
EA8
331
FA0
  5
FA5
331
1146
  5
114C
331
1107
  5
110D
331
EF2
  5
EF7
331
A71
  5
A71
331
6D7
  5
6DF
331
923
  5
923
331
AE7
  5
AE7
331
E74
  5
E81
331
EAB
  5
EB0
331
F69
  5
F6E
331
FA8
  5
FAD
331
114E
  5
116A
331
110F
  5
1115
331
AEF
  5
AEF
331
EB3
  5
EB8
331
F71
  5
F76
331
11C5
  5
11CA
331
1117
  5
111D
331
688
  5
690
331
649
  5
655
331
60A
  5
618
331
92B
  5
92B
331
690
  5
698
331
7B5
  5
7C4
331
80C
  5
81B
331
97A
  5
97C
331
651
  5
65C
331
AB0
  5
AB0
331
A81
  5
A81
331
933
  5
933
331
698
  5
6AC
331
7BD
  5
7F6
331
814
  5
776
331
982
  5
985
331
61A
  5
622
331
AB8
  5
AB8
331
AF7
  5
AF7
331
EBB
  5
EC0
331
F79
  5
F7E
331
11CD
  5
11E0
331
111F
  5
1125
331
EC3
  5
EC8
331
A89
  5
A89
331
81C
  5
825
331
736
  5
739
331
7C5
  5
7FE
331
93B
  5
93B
331
98A
  5
98C
331
AC0
  5
AC0
331
622
  5
62B
331
AFF
  5
AFF
331
E84
  5
E89
331
F81
  5
F86
331
FB8
  5
10EC
331
11D5
  5
11C4
331
1127
  5
112F
331
C95
  5
C95
331
992
  5
993
331
73E
  5
742
331
6F7
  5
704
331
943
  5
945
331
A91
  5
A91
331
AC8
  5
AC8
331
E8C
  5
E91
331
ECB
  5
ED0
331
F12
  5
F17
331
F89
  5
F8E
331
11DD
  5
11C6
331
112F
  5
1136
331
10F0
  5
10F6
331
EDB
  5
EE0
331
E94
  5
E99
331
F91
  5
F96
331
11E5
  5
11E7
331
1137
  5
113D
  0
SORTENTSTABLE
  5
C8E
102
{ACAD_REACTORS
330
C8D
102
}
330
C8D
100
AcDbSortentsTable
330
C8B
  0
SORTENTSTABLE
  5
165F
102
{ACAD_REACTORS
330
165E
102
}
330
165E
100
AcDbSortentsTable
330
165D
  0
SORTENTSTABLE
  5
166A
102
{ACAD_REACTORS
330
1669
102
}
330
1669
100
AcDbSortentsTable
330
1667
  0
XRECORD
  5
16A2
102
{ACAD_REACTORS
330
16A1
102
}
330
16A1
100
AcDbXrecord
280
     1
 40
368670.0
  1
{\fArial Narrow|b0|i0|c0|p34;\W0.8;WARNING: THIS DEVICE ^JCONTAINS NO INTERNAL \PINPUT TRANSFORMER}
  0
XRECORD
  5
169B
102
{ACAD_REACTORS
330
169A
102
}
330
169A
100
AcDbXrecord
280
     1
102
SHADEPLOT
 70
     0
  0
XRECORD
  5
1699
102
{ACAD_REACTORS
330
1698
102
}
330
1698
100
AcDbXrecord
280
     1
 70
     1
  0
LAYOUT
  5
153
102
{ACAD_XDICTIONARY
360
44F
102
}
102
{ACAD_REACTORS
330
150
102
}
330
150
100
AcDbPlotSettings
  1

  2
none_device
  4
Letter_(8.50_x_11.00_Inches)
  6

 40
6.349999904632567
 41
6.349999904632567
 42
6.350006103515625
 43
6.350006103515625
 44
215.8999938964844
 45
279.3999938964844
 46
0.0
 47
0.0
 48
0.0
 49
0.0
140
0.0
141
0.0
142
1.0
143
1.0
 70
   688
 72
     0
 73
     1
 74
     5
  7

 75
     0
147
1.0
148
0.0
149
0.0
100
AcDbLayout
  1
Layout1
 70
     1
 71
     1
 10
-0.2500002402958907
 20
-0.2499999962453767
 11
10.74999951940821
 21
8.249999763458731
 12
0.0
 22
0.0
 32
0.0
 14
1.000000000000000E+20
 24
1.000000000000000E+20
 34
1.000000000000000E+20
 15
-1.000000000000000E+20
 25
-1.000000000000000E+20
 35
-1.000000000000000E+20
146
0.0
 13
0.0
 23
0.0
 33
0.0
 16
1.0
 26
0.0
 36
0.0
 17
0.0
 27
1.0
 37
0.0
 76
     0
330
16
331
BA
  0
LAYOUT
  5
152
102
{ACAD_XDICTIONARY
360
169C
102
}
102
{ACAD_REACTORS
330
150
102
}
330
150
100
AcDbPlotSettings
  1

  2
\\NOVIBDC\HPLJ4-TPUB
  4

  6

 40
0.0
 41
0.0
 42
0.0
 43
0.0
 44
0.0
 45
0.0
 46
0.0
 47
0.0
 48
0.0
 49
0.0
140
0.0
141
0.0
142
1.0
143
1.0
 70
  1712
 72
     0
 73
     0
 74
     0
  7

 75
     0
147
1.0
148
0.0
149
0.0
100
AcDbLayout
  1
Model
 70
     1
 71
     0
 10
0.0
 20
0.0
 11
12.0
 21
9.0
 12
0.0
 22
0.0
 32
0.0
 14
0.0
 24
0.0
 34
0.0
 15
0.0
 25
0.0
 35
0.0
146
0.0
 13
0.0
 23
0.0
 33
0.0
 16
1.0
 26
0.0
 36
0.0
 17
0.0
 27
1.0
 37
0.0
 76
     0
330
19
331
57D
  0
MATERIAL
  5
580
102
{ACAD_XDICTIONARY
360
12CC
102
}
102
{ACAD_REACTORS
330
3F7
102
}
330
3F7
100
AcDbMaterial
  1
ByBlock
  0
MATERIAL
  5
57F
102
{ACAD_XDICTIONARY
360
12CA
102
}
102
{ACAD_REACTORS
330
3F7
102
}
330
3F7
100
AcDbMaterial
  1
ByLayer
  0
MATERIAL
  5
581
102
{ACAD_XDICTIONARY
360
12CE
102
}
102
{ACAD_REACTORS
330
3F7
102
}
330
3F7
100
AcDbMaterial
  1
Global
  0
MLINESTYLE
  5
1C
102
{ACAD_REACTORS
330
E
102
}
330
E
100
AcDbMlineStyle
  2
STANDARD
 70
     0
  3

 62
     0
 51
90.0
 52
90.0
 71
     2
 49
0.5
 62
   256
  6
BYLAYER
 49
-0.5
 62
   256
  6
BYLAYER
  0
ACDBPLACEHOLDER
  5
14F
102
{ACAD_REACTORS
330
14E
102
}
330
14E
  0
TABLESTYLE
  5
3FA
102
{ACAD_XDICTIONARY
360
169F
102
}
102
{ACAD_REACTORS
330
3F9
102
}
330
3F9
100
AcDbTableStyle
  3
Standard
 70
     0
 71
     0
 40
0.06
 41
0.06
280
     0
281
     0
  7
STANDARD
140
0.18
170
     2
 62
     0
 63
     7
283
     0
274
    -2
284
     1
 64
     0
275
    -2
285
     1
 65
     0
276
    -2
286
     1
 66
     0
277
    -2
287
     1
 67
     0
278
    -2
288
     1
 68
     0
279
    -2
289
     1
 69
     0
  7
STANDARD
140
0.25
170
     5
 62
     0
 63
     7
283
     0
274
    -2
284
     1
 64
     0
275
    -2
285
     1
 65
     0
276
    -2
286
     1
 66
     0
277
    -2
287
     1
 67
     0
278
    -2
288
     1
 68
     0
279
    -2
289
     1
 69
     0
  7
STANDARD
140
0.18
170
     5
 62
     0
 63
     7
283
     0
274
    -2
284
     1
 64
     0
275
    -2
285
     1
 65
     0
276
    -2
286
     1
 66
     0
277
    -2
287
     1
 67
     0
278
    -2
288
     1
 68
     0
279
    -2
289
     1
 69
     0
  0
VISUALSTYLE
  5
588
102
{ACAD_REACTORS
330
582
102
}
330
582
100
AcDbVisualStyle
  2
2dWireframe
 70
     4
 71
     0
 72
     2
 73
     0
 90
        0
 40
-0.6
 41
-30.0
 62
     5
 63
     7
 74
     1
 91
        4
 64
     7
 65
   257
 75
     1
175
     1
 42
1.0
 92
        0
 66
   257
 43
1.0
 76
     1
 77
     6
 78
     2
 67
     7
 79
     5
170
     0
171
     0
290
     0
174
     0
 93
        1
 44
0.0
173
     0
291
     0
 45
0.0
1001
ACAD
1000
AcDbSavedByObjectVersion
1070
     0
  0
VISUALSTYLE
  5
58A
102
{ACAD_REACTORS
330
582
102
}
330
582
100
AcDbVisualStyle
  2
3D Hidden
 70
     6
 71
     1
 72
     2
 73
     2
 90
        0
 40
-0.6
 41
-30.0
 62
     5
 63
     7
 74
     2
 91
        2
 64
     7
 65
   257
 75
     2
175
     1
 42
40.0
 92
        0
 66
   257
 43
1.0
 76
     1
 77
     6
 78
     2
 67
     7
 79
     3
170
     0
171
     0
290
     0
174
     0
 93
        1
 44
0.0
173
     0
291
     0
 45
0.0
1001
ACAD
1000
AcDbSavedByObjectVersion
1070
     0
  0
VISUALSTYLE
  5
589
102
{ACAD_REACTORS
330
582
102
}
330
582
100
AcDbVisualStyle
  2
3dWireframe
 70
     5
 71
     0
 72
     2
 73
     0
 90
        0
 40
-0.6
 41
-30.0
 62
     5
 63
     7
 74
     1
 91
        4
 64
     7
 65
   257
 75
     1
175
     1
 42
1.0
 92
        0
 66
   257
 43
1.0
 76
     1
 77
     6
 78
     2
 67
     7
 79
     5
170
     0
171
     0
290
     0
174
     0
 93
        1
 44
0.0
173
     0
291
     0
 45
0.0
1001
ACAD
1000
AcDbSavedByObjectVersion
1070
     0
  0
VISUALSTYLE
  5
587
102
{ACAD_REACTORS
330
582
102
}
330
582
100
AcDbVisualStyle
  2
Basic
 70
     7
 71
     1
 72
     0
 73
     1
 90
        0
 40
-0.6
 41
-30.0
 62
     5
 63
     7
 74
     0
 91
        4
 64
     7
 65
   257
 75
     1
175
     1
 42
1.0
 92
        8
 66
     7
 43
1.0
 76
     1
 77
     6
 78
     2
 67
     7
 79
     5
170
     0
171
     0
290
     0
174
     0
 93
        1
 44
0.0
173
     0
291
     1
 45
0.0
1001
ACAD
1000
AcDbSavedByObjectVersion
1070
     0
  0
VISUALSTYLE
  5
58E
102
{ACAD_REACTORS
330
582
102
}
330
582
100
AcDbVisualStyle
  2
Brighten
 70
    12
 71
     2
 72
     2
 73
     0
 90
        0
 40
-0.6
 41
-30.0
 62
     5
 63
     7
 74
     1
 91
        4
 64
     7
 65
   257
 75
     1
175
     1
 42
1.0
 92
        8
 66
     7
 43
1.0
 76
     1
 77
     6
 78
     2
 67
     7
 79
     5
170
     0
171
     0
290
     0
174
     0
 93
        1
 44
50.0
173
     0
291
     1
 45
0.0
1001
ACAD
1000
AcDbSavedByObjectVersion
1070
     0
  0
VISUALSTYLE
  5
592
102
{ACAD_REACTORS
330
582
102
}
330
582
100
AcDbVisualStyle
  2
ColorChange
 70
    16
 71
     2
 72
     2
 73
     3
 90
        0
 40
-0.6
 41
-30.0
 62
     5
 63
     8
 74
     1
 91
        4
 64
     7
 65
   257
 75
     1
175
     1
 42
1.0
 92
        8
 66
     8
 43
1.0
 76
     1
 77
     6
 78
     2
 67
     7
 79
     5
170
     0
171
     0
290
     0
174
     0
 93
        1
 44
0.0
173
     0
291
     1
 45
0.0
1001
ACAD
1000
AcDbSavedByObjectVersion
1070
     0
  0
VISUALSTYLE
  5
58B
102
{ACAD_REACTORS
330
582
102
}
330
582
100
AcDbVisualStyle
  2
Conceptual
 70
     9
 71
     3
 72
     2
 73
     0
 90
        0
 40
-0.6
 41
-30.0
 62
     5
 63
     7
 74
     2
 91
        2
 64
     7
 65
   257
 75
     1
175
     1
 42
40.0
 92
        8
 66
     7
 43
1.0
 76
     1
 77
     6
 78
     2
 67
     7
 79
     3
170
     0
171
     0
290
     0
174
     0
 93
        1
 44
0.0
173
     0
291
     0
 45
0.0
1001
ACAD
1000
AcDbSavedByObjectVersion
1070
     0
  0
VISUALSTYLE
  5
58D
102
{ACAD_REACTORS
330
582
102
}
330
582
100
AcDbVisualStyle
  2
Dim
 70
    11
 71
     2
 72
     2
 73
     0
 90
        0
 40
-0.6
 41
-30.0
 62
     5
 63
     7
 74
     1
 91
        4
 64
     7
 65
   257
 75
     1
175
     1
 42
1.0
 92
        8
 66
     7
 43
1.0
 76
     1
 77
     6
 78
     2
 67
     7
 79
     5
170
     0
171
     0
290
     0
174
     0
 93
        1
 44
-50.0
173
     0
291
     1
 45
0.0
1001
ACAD
1000
AcDbSavedByObjectVersion
1070
     0
  0
VISUALSTYLE
  5
591
102
{ACAD_REACTORS
330
582
102
}
330
582
100
AcDbVisualStyle
  2
Facepattern
 70
    15
 71
     2
 72
     2
 73
     0
 90
        0
 40
-0.6
 41
-30.0
 62
     5
 63
     7
 74
     1
 91
        4
 64
     7
 65
   257
 75
     1
175
     1
 42
1.0
 92
        8
 66
     7
 43
1.0
 76
     1
 77
     6
 78
     2
 67
     7
 79
     5
170
     0
171
     0
290
     0
174
     0
 93
        1
 44
0.0
173
     0
291
     1
 45
0.0
1001
ACAD
1000
AcDbSavedByObjectVersion
1070
     0
  0
VISUALSTYLE
  5
583
102
{ACAD_REACTORS
330
582
102
}
330
582
100
AcDbVisualStyle
  2
Flat
 70
     0
 71
     2
 72
     1
 73
     1
 90
        2
 40
-0.6
 41
30.0
 62
     5
 63
     7
 74
     0
 91
        4
 64
     7
 65
   257
 75
     1
175
     1
 42
1.0
 92
        8
 66
     7
 43
1.0
 76
     1
 77
     6
 78
     2
 67
     7
 79
     5
170
     0
171
     0
290
     0
174
     0
 93
       13
 44
0.0
173
     0
291
     1
 45
0.0
1001
ACAD
1000
AcDbSavedByObjectVersion
1070
     0
  0
VISUALSTYLE
  5
584
102
{ACAD_REACTORS
330
582
102
}
330
582
100
AcDbVisualStyle
  2
FlatWithEdges
 70
     1
 71
     2
 72
     1
 73
     1
 90
        2
 40
-0.6
 41
30.0
 62
     5
 63
     7
 74
     1
 91
        4
 64
     7
 65
   257
 75
     1
175
     1
 42
1.0
 92
        0
 66
   257
 43
1.0
 76
     1
 77
     6
 78
     2
 67
     7
 79
     5
170
     0
171
     0
290
     0
174
     0
 93
       13
 44
0.0
173
     0
291
     1
 45
0.0
1001
ACAD
1000
AcDbSavedByObjectVersion
1070
     0
  0
VISUALSTYLE
  5
585
102
{ACAD_REACTORS
330
582
102
}
330
582
100
AcDbVisualStyle
  2
Gouraud
 70
     2
 71
     2
 72
     2
 73
     1
 90
        2
 40
-0.6
 41
30.0
 62
     5
 63
     7
 74
     0
 91
        4
 64
     7
 65
   257
 75
     1
175
     1
 42
1.0
 92
        0
 66
     7
 43
1.0
 76
     1
 77
     6
 78
     2
 67
     7
 79
     5
170
     0
171
     0
290
     0
174
     0
 93
       13
 44
0.0
173
     0
291
     1
 45
0.0
1001
ACAD
1000
AcDbSavedByObjectVersion
1070
     0
  0
VISUALSTYLE
  5
586
102
{ACAD_REACTORS
330
582
102
}
330
582
100
AcDbVisualStyle
  2
GouraudWithEdges
 70
     3
 71
     2
 72
     2
 73
     1
 90
        2
 40
-0.6
 41
30.0
 62
     5
 63
     7
 74
     1
 91
        4
 64
     7
 65
   257
 75
     1
175
     1
 42
1.0
 92
        0
 66
   257
 43
1.0
 76
     1
 77
     6
 78
     2
 67
     7
 79
     5
170
     0
171
     0
290
     0
174
     0
 93
       13
 44
0.0
173
     0
291
     1
 45
0.0
1001
ACAD
1000
AcDbSavedByObjectVersion
1070
     0
  0
VISUALSTYLE
  5
590
102
{ACAD_REACTORS
330
582
102
}
330
582
100
AcDbVisualStyle
  2
Linepattern
 70
    14
 71
     2
 72
     2
 73
     0
 90
        0
 40
-0.6
 41
-30.0
 62
     5
 63
     7
 74
     1
 91
        4
 64
     7
 65
   257
 75
     7
175
     7
 42
1.0
 92
        8
 66
     7
 43
1.0
 76
     1
 77
     6
 78
     2
 67
     7
 79
     5
170
     0
171
     0
290
     0
174
     0
 93
        1
 44
0.0
173
     0
291
     1
 45
0.0
1001
ACAD
1000
AcDbSavedByObjectVersion
1070
     0
  0
VISUALSTYLE
  5
58C
102
{ACAD_REACTORS
330
582
102
}
330
582
100
AcDbVisualStyle
  2
Realistic
 70
     8
 71
     2
 72
     2
 73
     0
 90
        0
 40
-0.6
 41
-30.0
 62
     5
 63
     7
 74
     1
 91
        0
 64
     7
 65
   257
 75
     1
175
     1
 42
1.0
 92
        8
 66
     8
 43
1.0
 76
     1
 77
     6
 78
     2
 67
     7
 79
     5
170
     0
171
     0
290
     0
174
     0
 93
       13
 44
0.0
173
     0
291
     0
 45
0.0
1001
ACAD
1000
AcDbSavedByObjectVersion
1070
     0
  0
VISUALSTYLE
  5
58F
102
{ACAD_REACTORS
330
582
102
}
330
582
100
AcDbVisualStyle
  2
Thicken
 70
    13
 71
     2
 72
     2
 73
     0
 90
        0
 40
-0.6
 41
-30.0
 62
     5
 63
     7
 74
     1
 91
        4
 64
     7
 65
   257
 75
     1
175
     1
 42
1.0
 92
       12
 66
     7
 43
1.0
 76
     1
 77
     6
 78
     2
 67
     7
 79
     5
170
     0
171
     0
290
     0
174
     0
 93
        1
 44
0.0
173
     0
291
     1
 45
0.0
1001
ACAD
1000
AcDbSavedByObjectVersion
1070
     0
  0
DICTIONARYVAR
  5
429
102
{ACAD_REACTORS
330
FA
102
}
330
FA
100
DictionaryVariables
280
     0
  1
STANDARD
  0
DICTIONARYVAR
  5
3F5
102
{ACAD_REACTORS
330
FA
102
}
330
FA
100
DictionaryVariables
280
     0
  1
1
  0
DICTIONARYVAR
  5
FB
102
{ACAD_REACTORS
330
FA
102
}
330
FA
100
DictionaryVariables
280
     0
  1
1
  0
DICTIONARYVAR
  5
1696
102
{ACAD_REACTORS
330
FA
102
}
330
FA
100
DictionaryVariables
280
     0
  1
127
  0
DICTIONARY
  5
2C1
102
{ACAD_REACTORS
330
189
102
}
330
189
100
AcDbDictionary
281
     1
  0
XRECORD
  5
402
102
{ACAD_REACTORS
330
189
102
}
330
189
100
AcDbXrecord
280
     1
 90
-1023410169
  0
DICTIONARY
  5
159
102
{ACAD_REACTORS
330
158
102
}
330
158
100
AcDbDictionary
281
     1
  3
DWGSETTINGS
350
155F
  3
TRANSSETTINGS
350
1560
  0
ACAMGFILTERDAT
  5
1BE
102
{ACAD_REACTORS
330
1BA
102
}
330
1BA
100
AcAmgFilterDat
 70
    15
  1
DIMENSION,AMDT_*_DIM
  2
*
  3
*
  4
*
  5
*
290
     1
  0
ACAMGFILTERDAT
  5
1BD
102
{ACAD_REACTORS
330
1BA
102
}
330
1BA
100
AcAmgFilterDat
 70
    15
  1
*
  2
AM_FEA-AM_*
  3
*
  4
*
  5
*
290
     1
  0
ACAMGFILTERDAT
  5
1BB
102
{ACAD_REACTORS
330
1BA
102
}
330
1BA
100
AcAmgFilterDat
 70
    15
  1
HATCH
  2
*
  3
*
  4
*
  5
*
290
     1
  0
ACAMGFILTERDAT
  5
1BC
102
{ACAD_REACTORS
330
1BA
102
}
330
1BA
100
AcAmgFilterDat
 70
    15
  1
ACMFCFRAME,ACMDATUMTARGET,ACMDATUMID,ACMWELDSYM,ACMSURFSYM,ACMFEATID,ACMPARTREF,ACMBALLOON
  2
*
  3
*
  4
*
  5
*
290
     1
  0
LAYER_INDEX
  5
121
102
{ACAD_REACTORS
330
120
102
}
330
120
100
AcDbIndex
 40
2454784.449666088
100
AcDbLayerIndex
  8
0
360
A6C
 90
       31
  8
Defpoints
360
A6D
 90
        0
  8
Part
360
BF4
 90
      799
  8
Dimensions
360
BF5
 90
        0
  8
Notes
360
BF6
 90
       14
  8
Labels
360
BF7
 90
       48
  0
DICTIONARY
  5
44F
330
153
100
AcDbDictionary
280
     1
281
     1
  3
ACAD_XREC_ROUNDTRIP
360
169E
  3
ADSK_XREC_LAYOUTTHUMBNAIL
360
450
  0
DICTIONARY
  5
169C
330
152
100
AcDbDictionary
280
     1
281
     1
  3
ACAD_XREC_ROUNDTRIP
360
169D
  0
DICTIONARY
  5
12CC
330
580
100
AcDbDictionary
280
     1
281
     1
  3
ACAD_XREC_ROUNDTRIP
360
12CD
  0
DICTIONARY
  5
12CA
330
57F
100
AcDbDictionary
280
     1
281
     1
  3
ACAD_XREC_ROUNDTRIP
360
12CB
  0
DICTIONARY
  5
12CE
330
581
100
AcDbDictionary
280
     1
281
     1
  3
ACAD_XREC_ROUNDTRIP
360
12CF
  0
DICTIONARY
  5
169F
330
3FA
100
AcDbDictionary
280
     1
281
     1
  3
ACAD_XREC_ROUNDTRIP
360
16A0
  0
IDBUFFER
  5
A6C
330
0
100
AcDbIdBuffer
330
1473
330
1474
330
1475
330
1476
330
1477
330
1478
330
1479
330
147A
330
147B
330
147C
330
147D
330
147E
330
147F
330
1480
330
1481
330
1482
330
1483
330
1484
330
1485
330
1486
330
1487
330
1488
330
1489
330
148A
330
148B
330
148C
330
148D
330
148E
330
148F
330
1490
330
166E
  0
IDBUFFER
  5
A6D
330
0
100
AcDbIdBuffer
  0
IDBUFFER
  5
BF4
330
0
100
AcDbIdBuffer
330
5FF
330
600
330
607
330
608
330
60A
330
60B
330
60D
330
60E
330
610
330
611
330
615
330
616
330
617
330
618
330
619
330
61A
330
61B
330
61C
330
61E
330
621
330
622
330
625
330
626
330
627
330
628
330
629
330
62A
330
62B
330
62C
330
62E
330
635
330
636
330
638
330
63B
330
63C
330
63D
330
63E
330
63F
330
640
330
641
330
642
330
644
330
649
330
64A
330
64C
330
64D
330
64E
330
64F
330
650
330
651
330
652
330
653
330
654
330
655
330
656
330
657
330
658
330
65B
330
65C
330
65D
330
65E
330
65F
330
660
330
662
330
663
330
664
330
665
330
666
330
667
330
669
330
66A
330
66B
330
67E
330
67F
330
680
330
681
330
682
330
683
330
684
330
685
330
686
330
687
330
688
330
689
330
68A
330
68B
330
68C
330
68D
330
68E
330
68F
330
690
330
691
330
692
330
693
330
694
330
695
330
696
330
697
330
698
330
699
330
69A
330
69B
330
69C
330
69D
330
69E
330
6AB
330
6AC
330
6AD
330
6AE
330
6AF
330
6B0
330
6B1
330
6B2
330
6B3
330
6B4
330
6B5
330
6B6
330
6C3
330
6C4
330
6C5
330
6C6
330
6C7
330
6C8
330
6C9
330
6CA
330
6CB
330
6CC
330
6CD
330
6CE
330
6D3
330
6D4
330
6D5
330
6D6
330
6D7
330
6D8
330
6D9
330
6DA
330
6DB
330
6DC
330
6DD
330
6DE
330
6E0
330
6E1
330
6EA
330
6EB
330
6ED
330
6EE
330
6F0
330
6F1
330
6F3
330
6F4
330
72D
330
730
330
731
330
733
330
734
330
73A
330
73B
330
73C
330
73D
330
73E
330
73F
330
740
330
771
330
772
330
773
330
774
330
775
330
776
330
777
330
778
330
779
330
7AE
330
7AF
330
7B0
330
7B1
330
7B2
330
7B3
330
7B4
330
7B5
330
7B6
330
7B7
330
7B8
330
7B9
330
7BA
330
7BB
330
7BC
330
7BD
330
7BE
330
7BF
330
7C0
330
7C1
330
7C2
330
7C3
330
7C4
330
7C5
330
7C6
330
7C7
330
7C8
330
7C9
330
7CA
330
7CB
330
7F6
330
7F7
330
7F8
330
7F9
330
7FA
330
7FB
330
7FC
330
7FD
330
7FE
330
7FF
330
800
330
801
330
802
330
803
330
804
330
805
330
806
330
807
330
808
330
809
330
80A
330
80B
330
80C
330
80D
330
80E
330
80F
330
810
330
811
330
812
330
814
330
816
330
817
330
818
330
819
330
81C
330
81D
330
81E
330
820
330
823
330
825
330
826
330
827
330
828
330
829
330
82A
330
82B
330
82D
330
82E
330
82F
330
831
330
832
330
833
330
834
330
836
330
837
330
838
330
839
330
920
330
922
330
923
330
924
330
925
330
926
330
927
330
928
330
929
330
92A
330
92B
330
92C
330
92D
330
92E
330
92F
330
930
330
931
330
932
330
933
330
934
330
935
330
936
330
937
330
938
330
93A
330
93B
330
93C
330
93D
330
93E
330
93F
330
940
330
942
330
943
330
944
330
945
330
946
330
947
330
948
330
949
330
94A
330
94B
330
968
330
969
330
96A
330
96B
330
96C
330
96D
330
96E
330
96F
330
970
330
971
330
972
330
973
330
974
330
975
330
976
330
977
330
978
330
979
330
97A
330
97B
330
97C
330
97D
330
97E
330
97F
330
980
330
981
330
982
330
983
330
985
330
986
330
989
330
98A
330
98C
330
990
330
991
330
992
330
993
330
994
330
995
330
996
330
997
330
99D
330
99E
330
99F
330
9A0
330
9A1
330
9A2
330
9A3
330
9A4
330
A6B
330
A70
330
A71
330
A75
330
A7A
330
A7B
330
A7C
330
A7D
330
A7E
330
A7F
330
A80
330
A81
330
A82
330
A83
330
A84
330
A85
330
A86
330
A87
330
A88
330
A89
330
A8A
330
A8B
330
A8C
330
A8D
330
A8E
330
A8F
330
A90
330
A91
330
A92
330
A93
330
A94
330
A95
330
A96
330
A97
330
A98
330
A99
330
A9A
330
A9B
330
A9C
330
A9D
330
A9E
330
A9F
330
AA0
330
AA5
330
AA6
330
AA7
330
AA8
330
AA9
330
AAA
330
AAB
330
AAC
330
AAD
330
AAE
330
AAF
330
AB0
330
AB3
330
AB4
330
AB5
330
AB6
330
AB7
330
AB8
330
AB9
330
ABA
330
ABB
330
ABC
330
ABD
330
ABE
330
ABF
330
AC0
330
AC1
330
AC2
330
AC3
330
AC4
330
AC5
330
AC6
330
AC8
330
ACA
330
ACB
330
ACC
330
ACE
330
ACF
330
AD0
330
AD1
330
AD4
330
AD5
330
ADC
330
AE0
330
AE1
330
AE2
330
AE3
330
AE4
330
AE5
330
AE6
330
AE7
330
AE8
330
AE9
330
AEA
330
AEB
330
AEC
330
AED
330
AEE
330
AEF
330
AF0
330
AF1
330
AF2
330
AF3
330
AF4
330
AF5
330
AF6
330
AF7
330
AF8
330
AF9
330
AFA
330
AFB
330
AFC
330
AFD
330
AFE
330
AFF
330
B00
330
B01
330
BE8
330
BE9
330
E69
330
E72
330
E73
330
E74
330
E75
330
E84
330
E85
330
E86
330
E8B
330
E8C
330
E8E
330
E8F
330
E92
330
E93
330
E94
330
E95
330
E96
330
E97
330
E98
330
E99
330
E9A
330
E9B
330
E9C
330
E9D
330
E9E
330
E9F
330
EA0
330
EA1
330
EA2
330
EA3
330
EA4
330
EA5
330
EA6
330
EA7
330
EA8
330
EA9
330
EAA
330
EAB
330
EAC
330
EAD
330
EAE
330
EAF
330
EB0
330
EB1
330
EB2
330
EB3
330
EB4
330
EB5
330
EB6
330
EB7
330
EB8
330
EB9
330
EBA
330
EBB
330
EBC
330
EBD
330
EBE
330
EBF
330
EC0
330
EC1
330
EC2
330
EC3
330
EC4
330
EC5
330
EC6
330
EC7
330
EC8
330
EC9
330
ECA
330
ECB
330
ECC
330
ECD
330
ECE
330
ECF
330
ED9
330
EDA
330
EDB
330
EDC
330
EDD
330
EDE
330
EDF
330
EE0
330
EE1
330
EE2
330
EE3
330
EE4
330
EE5
330
EE6
330
EE7
330
EE8
330
EE9
330
EEA
330
EEB
330
EEC
330
EED
330
EEE
330
EEF
330
EF0
330
EF1
330
EF2
330
EF3
330
EF4
330
EF5
330
EF6
330
EF7
330
EF8
330
F0C
330
F0D
330
F0E
330
F0F
330
F12
330
F13
330
F14
330
F15
330
F16
330
F17
330
F18
330
F19
330
F1C
330
F1D
330
F1E
330
F68
330
F69
330
F6A
330
F6B
330
F6C
330
F6D
330
F6E
330
F6F
330
F70
330
F71
330
F72
330
F73
330
F74
330
F75
330
F76
330
F77
330
F78
330
F79
330
F7A
330
F7B
330
F7C
330
F7D
330
F7E
330
F7F
330
F80
330
F81
330
F82
330
F83
330
F84
330
F85
330
F86
330
F87
330
F88
330
F89
330
F8A
330
F8B
330
F8C
330
F8D
330
F8E
330
F8F
330
F90
330
F91
330
F92
330
F93
330
F94
330
F95
330
F96
330
F97
330
F98
330
F99
330
F9A
330
F9B
330
F9C
330
F9D
330
F9E
330
F9F
330
FA0
330
FA1
330
FA2
330
FA3
330
FA4
330
FA5
330
FA6
330
FA7
330
FA8
330
FA9
330
FAA
330
FAB
330
FAC
330
FAD
330
FB5
330
FB6
330
FB7
330
FB8
330
10EC
330
10ED
330
10EE
330
10EF
330
10F0
330
10F1
330
10F2
330
10F3
330
10F4
330
10F5
330
10F6
330
10F7
330
10F8
330
10F9
330
10FA
330
10FB
330
10FC
330
10FD
330
10FE
330
10FF
330
1100
330
1101
330
1102
330
1103
330
1104
330
1105
330
1106
330
1107
330
1108
330
1109
330
110A
330
110B
330
110C
330
110D
330
110E
330
110F
330
1110
330
1111
330
1112
330
1113
330
1114
330
1115
330
1116
330
1117
330
1118
330
1119
330
111A
330
111B
330
111C
330
111D
330
111E
330
111F
330
1120
330
1121
330
1122
330
1123
330
1124
330
1125
330
1126
330
1127
330
1128
330
1129
330
112C
330
112D
330
112E
330
112F
330
1131
330
1132
330
1133
330
1134
330
1135
330
1136
330
1137
330
1138
330
1139
330
113A
330
113B
330
113C
330
113D
330
113E
330
113F
330
1140
330
1141
330
1142
330
1143
330
1144
330
1145
330
1146
330
1147
330
1148
330
1149
330
114A
330
114D
330
114E
330
114F
330
1157
330
1158
330
1168
330
1169
330
116A
330
116F
330
118D
330
11A6
330
11BF
330
11C0
330
11C2
330
11C5
330
11C6
330
11C7
330
11C8
330
11C9
330
11CA
330
11CB
330
11CC
330
11CD
330
11D5
330
11DD
330
11DF
330
11E0
330
11E1
330
11E3
330
11E4
330
11E5
330
11E6
330
11E7
330
11E8
330
11E9
330
11EA
330
11EB
330
11EC
330
11ED
330
11EE
330
11EF
  0
IDBUFFER
  5
BF5
330
0
100
AcDbIdBuffer
  0
IDBUFFER
  5
BF6
330
0
100
AcDbIdBuffer
330
C89
330
C93
330
C95
330
C97
330
C99
330
CA4
330
CA5
330
F34
330
F35
330
F36
330
F37
330
F38
330
1255
330
1256
  0
IDBUFFER
  5
BF7
330
0
100
AcDbIdBuffer
330
631
330
633
330
6D1
330
6D2
330
6F5
330
6F6
330
6F7
330
6F8
330
6F9
330
6FA
330
6FB
330
6FC
330
6FE
330
6FF
330
700
330
701
330
702
330
703
330
704
330
705
330
706
330
707
330
708
330
709
330
70A
330
70B
330
70C
330
71B
330
71C
330
72B
330
72C
330
732
330
736
330
737
330
738
330
739
330
E7E
330
E87
330
E89
330
E90
330
E91
330
F3B
330
10EB
330
1171
330
1172
330
1173
330
11E2
330
11F2
  0
XRECORD
  5
169E
102
{ACAD_REACTORS
330
44F
102
}
330
44F
100
AcDbXrecord
280
     1
102
SHADEPLOT
 70
     0
102
SHADEPLOTRESLEVEL
 70
     2
102
SHADEPLOTCUSTOMDPI
 70
   300
  0
XRECORD
  5
450
102
{ACAD_REACTORS
330
44F
102
}
330
44F
100
AcDbXrecord
280
     1
310
28000000B40000008B0000000100080000000000BC61000000000000000000000001000000000000FFFFFF0000000000FFFFFF000000000000000000000000000000000000000000000000000000000000000000330000006600000099000000CC000000FF00000000330000333300006633000099330000CC330000FF3300
310
0000660000336600006666000099660000CC660000FF66000000990000339900006699000099990000CC990000FF99000000CC000033CC000066CC000099CC0000CCCC0000FFCC000000FF000033FF000066FF000099FF0000CCFF0000FFFF000000003300330033006600330099003300CC003300FF003300003333003333
310
33006633330099333300CC333300FF33330000663300336633006666330099663300CC663300FF66330000993300339933006699330099993300CC993300FF99330000CC330033CC330066CC330099CC3300CCCC3300FFCC330000FF330033FF330066FF330099FF3300CCFF3300FFFF330000006600330066006600660099
310
006600CC006600FF00660000336600333366006633660099336600CC336600FF33660000666600336666006666660099666600CC666600FF66660000996600339966006699660099996600CC996600FF99660000CC660033CC660066CC660099CC6600CCCC6600FFCC660000FF660033FF660066FF660099FF6600CCFF6600
310
FFFF660000009900330099006600990099009900CC009900FF00990000339900333399006633990099339900CC339900FF33990000669900336699006666990099669900CC669900FF66990000999900339999006699990099999900CC999900FF99990000CC990033CC990066CC990099CC9900CCCC9900FFCC990000FF99
310
0033FF990066FF990099FF9900CCFF9900FFFF99000000CC003300CC006600CC009900CC00CC00CC00FF00CC000033CC003333CC006633CC009933CC00CC33CC00FF33CC000066CC003366CC006666CC009966CC00CC66CC00FF66CC000099CC003399CC006699CC009999CC00CC99CC00FF99CC0000CCCC0033CCCC0066CC
310
CC0099CCCC00CCCCCC00FFCCCC0000FFCC0033FFCC0066FFCC0099FFCC00CCFFCC00FFFFCC000000FF003300FF006600FF009900FF00CC00FF00FF00FF000033FF003333FF006633FF009933FF00CC33FF00FF33FF000066FF003366FF006666FF009966FF00CC66FF00FF66FF000099FF003399FF006699FF009999FF00CC
310
99FF00FF99FF0000CCFF0033CCFF0066CCFF0099CCFF00CCCCFF00FFCCFF0000FFFF0033FFFF0066FFFF0099FFFF00CCFFFF00FFFFFF00000000000D0D0D001A1A1A00282828003535350043434300505050005D5D5D006B6B6B00787878008686860093939300A1A1A100AEAEAE00BBBBBB00C9C9C900D6D6D600E4E4E400
310
F1F1F100FFFFFF0000000000000000000000000000000000000000000000000000000000000000000000000000000000E2E2E2E2E2E2E2E2E2E2E2E2E2E2E2E2E2E2E2E2E2E2E2E2E2E2E2E2E2E2E2E2E2E2E2E2E2E2E2E2E2E2E2E2E2E2E2E2E2E2E2E2E2E2E2E2E2E2E2E2E2E2E2E2E2E2E2E2E2E2E2E2E2E2E2E2E2E2E2
310
E2E2E2E2E2E2E2E2E2E2E2E2E2E2E2E2E2E2E2E2E2E2E2E2E2E2E2E2E2E2E2E2E2E2E2E2E2E2E2E2E2E2E2E2E2E2E2E2E2E2E2E2E2E2E2E2E2E2E2E2E2E2E2E2E2E2E2E2E2E2E2E2E2E2E2E2E2E2E2E2E2E2E2E2E2E2E2E2E2E2E2E2E2E2E2E2E2E2E2E2E2E2F5F5F5F5F5F5F5F5F5F5F5F5F5F5F5F5F5F5F5F5F5F5F5F5F5
310
F5F5F5F5F5F5F5F5F5F5F5F5F5F5F5F5F5F5F5F5F5F5F5F5F5F5F5F5F5F5F5F5F5F5F5F5F5F5F5F5F5F5F5F5F5F5F5F5F5F5F5F5F5F5F5F5F5F5F5F5F5F5F5F5F5F5F5F5F5F5F5F5F5F5F5F5F5F5F5F5F5F5F5F5F5F5F5F5F5F5F5F5F5F5F5F5F5F5F5F5F5F5F5F5F5F5F5F5F5F5F5F5F5F5F5F5F5F5F5F5F5F5F5F5F5F5F5
310
F5F5F5F5F5F5F5F5F5F5F5F5F5F5F5F5F5F5F5F5F5F5F5F5F5F5E2E2F5F5F5F5F5F5F5F5F5F5F5F5F5F5F5F5F5F5F5F5F5F5F5F5F5F5F5F5F5F5F5F5F5F5F5F5F5F5F5F5F5F5F5F5F5F5F5F5F5F5F5F5F5F5F5F5F5F5F5F5F5F5F5F5F5F5F5F5F5F5F5F5F5F5F5F5F5F5F5F5F5F5F5F5F5F5F5F5F5F5F5F5F5F5F5F5F5F5F5
310
F5F5F5F5F5F5F5F5F5F5F5F5F5F5F5F5F5F5F5F5F5F5F5F5F5F5F5F5F5F5F5F5F5F5F5F5F5F5F5F5F5F5F5F5F5F5F5F5F5F5F5F5F5F5F5F5F5F5F5F5F5F5F5F5F5F5F5F5F5F5F5F5F5F5F5F5F5F5F5E2E2F5F5F5F5F5F5F5F5F5F5F5F5F5F5F5F5F5F5F5F5F5F5F5F5F5F5F5F5F5F5F5F5F5F5F5F5F5F5F5F5F5F5F5F5F5F5
310
F5F5F5F5F5F5F5F5F5F5F5F5F5F5F5F5F5F5F5F5F5F5F5F5F5F5F5F5F5F5F5F5F5F5F5F5F5F5F5F5F5F5F5F5F5F5F5F5F5F5F5F5F5F5F5F5F5F5F5F5F5F5F5F5F5F5F5F5F5F5F5F5F5F5F5F5F5F5F5F5F5F5F5F5F5F5F5F5F5F5F5F5F5F5F5F5F5F5F5F5F5F5F5F5F5F5F5F5F5F5F5F5F5F5F5F5F5F5F5F5F5F5F5F5F5F5F5
310
F5F5F5F5F5E2E2F5F5F5F5F5F5F5F5F5F5F5F5F5F5F5F5F5F5F5F5F5F5F5F5F5F5F5F5F5F5F5F5F5F5F5F5F5F5F5F5F5F5F5F5F5F5F5F5F5F5F5F5F5F5F5F5F5F5F5F5F5F5F5F5F5F5F5F5F5F5F5F5F5F5F5F5F5F5F5F5F5F5F5F5F5F5F5F5F5F5F5F5F5F5F5F5F5F5F5F5F5F5F5F5F5F5F5F5F5F5F5F5F5F5F5F5F5F5F5F5
310
F5F5F5F5F5F5F5F5F5F5F5F5F5F5F5F5F5F5F5F5F5F5F5F5F5F5F5F5F5F5F5F5F5F5F5F5F5F5F5F5F5F5F5F5F5F5F5F5F5F5F5F5F5F5F5F5F5F5E2E2F5F5F5E2E2E2E2E2E2E2E2F5F5F5F5F5F5F5F5F5E2E2E2E2E2E2E2E2E2E2E2E2E2E2E2E2F5F5F5F5F5F5F5F5F5E2E2E2E2E2E2E2E2E2E2E2E2E2E2E2F5F5F5F5F5F5F5
310
F5F5E2E2E2E2E2E2E2E2E2E2E2E2E2E2E2E2F5F5F5F5F5F5F5F5E2E2E2E2E2E2E2E2E2E2E2E2E2E2E2E2F5F5F5F5F5F5F5F5F5E2E2E2E2E2E2E2E2E2E2E2E2E2E2E2F5F5F5F5F5F5F5F5F5E2E2E2E2E2E2E2E2E2E2E2E2E2E2E2E2F5F5F5F5F5F5F5F5F5E2E2E2E2E2E2E2E2F5F5F5E2E2F5F5F5E2F5F5F5F5F5F5F5F5F5F5
310
F5F5F5F5F5F5F5F5F5F5F5F5F5F5F5F5F5F5F5F5F5F5F5F5F5F5F5F5F5F5F5F5F5F5F5F5F5F5F5F5F5F5F5F5F5F5F5F5F5F5F5F5F5F5F5F5F5F5F5F5F5F5F5F5F5F5F5F5F5F5F5F5F5F5F5F5F5F5F5F5F5F5F5F5F5F5F5F5F5F5F5F5F5F5F5F5F5F5F5F5F5F5F5F5F5F5F5F5F5F5F5F5F5F5F5F5F5F5F5F5F5F5F5F5F5F5F5
310
F5F5F5F5F5F5F5F5F5F5F5F5F5F5F5F5F5F5F5F5F5F5F5F5F5F5F5F5F5F5F5F5F5E2F5F5F5E2E2F5F5F5E2F5F5F5F5F5F5F5F5F5F5F5F5F5F5F5F5F5F5F5F5F5F5F5F5F5F5F5F5F5F5F5F5F5F5F5F5F5F5F5F5F5F5F5F5F5F5F5F5F5F5F5F5F5F5F5F5F5F5F5F5F5F5F5F5F5F5F5F5F5F5F5F5F5F5F5F5F5F5F5F5F5F5F5F5
310
F5F5F5F5F5F5F5F5F5F5F5F5F5F5F5F5F5F5F5F5F5F5F5F5F5F5F5F5F5F5F5F5F5F5F5F5F5F5F5F5F5F5F5F5F5F5F5F5F5F5F5F5F5F5F5F5F5F5F5F5F5F5F5F5F5F5F5F5F5F5F5F5F5F5F5F5F5F5F5F5F5F5F5F5F5F5E2F5F5F5E2E2F5F5F5E2F5F5F5F5F5F5F5F5F5F5F5F5F5F5F5F5F5F5F5F5F5F5F5F5F5F5F5F5F5F5F5
310
F5F5F5F5F5F5F5F5F5F5F5F5F5F5F5F5F5F5F5F5F5F5F5F5F5F5F5F5F5F5F5F5F5F5F5F5F5F5F5F5F5F5F5F5F5F5F5F5F5F5F5F5F5F5F5F5F5F5F5F5F5F5F5F5F5F5F5F5F5F5F5F5F5F5F5F5F5F5F5F5F5F5F5F5F5F5F5F5F5F5F5F5F5F5F5F5F5F5F5F5F5F5F5F5F5F5F5F5F5F5F5F5F5F5F5F5F5F5F5F5F5F5F5F5F5F5F5
310
F5F5F5F5F5F5F5F5F5F5F5F5E2F5F5F5E2E2F5F5F5E2F5F5F5F5F5F5F5F5F5F5F5F5F5F5F5F5F5F5F5F5F5F5F5F5F5F5F5F5F5F5F5F5F5F5F5F5F5F5F5F5F5F5F5F5F5F5F5F5F5F5F5F5F5F5F5F5F5F5F5F5F5F5F5F5F5F5F5F5F5F5F5F5F5F5F5F5F5F5F5F5F5F5F5F5F5F5F5F5F5F5F5F5F5F5F5F5F5F5F5F5F5F5F5F5F5
310
F5F5F5F5F5F5F5F5F5F5F5F5F5F5F5F5F5F5F5F5F5F5F5F5F5F5F5F5F5F5F5F5F5F5F5F5F5F5F5F5F5F5F5F5F5F5F5F5F5F5F5F5F5F5F5F5F5F5F5F5F5F5F5F5F5E2F5F5F5E2E2F5F5F5E2F5F5F5F5F5F5F5F5F5F5F5F5F5F5F5F5F5F5F5F5F5F5F5F5F5F5F5F5F5F5F5F5F5F5F5F5F5F5F5F5F5F5F5F5F5F5F5F5F5F5F5F5
310
F5F5F5F5F5F5F5F5F5F5F5F5F5F5F5F5F5F5F5F5F5F5F5F5F5F5F5F5F5F5F5F5F5F5F5F5F5F5F5F5F5F5F5F5F5F5F5F5F5F5F5F5F5F5F5F5F5F5F5F5F5F5F5F5F5F5F5F5F5F5F5F5F5F5F5F5F5F5F5F5F5F5F5F5F5F5F5F5F5F5F5F5F5F5F5F5F5F5F5F5F5F5F5F5F5F5F5F5F5F5F5F5F5F5F5F5F5F5E2F5F5F5E2E2F5F5F5
310
E2F5F5F5F5F5F5F5F5F5F5F5F5F5F5F5F5F5F5F5F5F5F5F5F5F5F5F5F5F5F5F5F5F5F5F5F5F5F5F5F5F5F5F5F5F5F5F5F5F5F5F5F5F5F5F5F5F5F5F5F5F5F5F5F5F5F5F5F5F5F5F5F5F5F5F5F5F5F5F5F5F5F5F5F5F5F5F5F5F5F5F5F5F5F5F5F5F5F5F5F5F5F5F5F5F5F5F5F5F5F5F5F5F5F5F5F5F5F5F5F5F5F5F5F5F5F5
310
F5F5F5F5F5F5F5F5F5F5F5F5F5F5F5F5F5F5F5F5F5F5F5F5F5F5F5F5F5F5F5F5F5F5F5F5F5F5F5F5F5F5F5F5E2F5F5F5E2E2F5F5F5E2F5F5F5F5F5F5F5F5F5F5F5F5F5F5F5F5F5F5F5F5F5F5F5F5F5F5F5F5F5F5F5F5F5F5F5F5F5F5F5F5F5F5F5F5F5F5F5F5F5F5F5F5F5F5F5F5F5F5F5F5F5F5F5F5F5F5F5F5F5F5F5F5F5
310
F5F5F5F5F5F5F5F5F5F5F5F5F5F5F5F5F5F5F5F5F5F5F5F5F5F5F5F5F5F5F5F5F5F5F5F5F5F5F5F5F5F5F5F5F5F5F5F5F5F5F5F5F5F5F5F5F5F5F5F5F5F5F5F5F5F5F5F5F5F5F5F5F5F5F5F5F5F5F5F5F5F5F5F5F5F5F5F5F5F5F5F5F5F5F5F5F5E2F5F5F5E2E2F5F5F5E2F5F5F5F5F5F5F5F5F5F5F5F5F5F5F5F5F5F5F5F5
310
F5F5F5F5F5F5F5F5F5F5F5F5F5F5F5F5F5F5F5F5F5F5F5F5F5F5F5F5F5F5F5F5F5F5F5F5F5F5F5F5F5F5F5F5F5F5F5F5F5F5F5F5F5F5F5F5F5F5F5F5F5F5F5F5F5F5F5F5F5F5F5F5F5F5F5F5F5F5F5F5F5F5F5F5F5F5F5F5F5F5F5F5F5F5F5F5F5F5F5F5F5F5F5F5F5F5F5F5F5F5F5F5F5F5F5F5F5F5F5F5F5F5F5F5F5F5F5
310
F5F5F5F5F5F5F5F5F5F5F5F5F5F5F5F5F5F5F5F5F5F5F5E2F5F5F5E2E2F5F5F5F5F5F5F5F5F5F5F5F5F5F5F5F5F5F5F5F5F5F5F5F5F5F5F5F5F5F5F5F5F5F5F5F5F5F5F5F5F5F5F5F5F5F5F5F5F5F5F5F5F5F5F5F5F5F5F5F5F5F5F5F5F5F5F5F5F5F5F5F5F5F5F5F5F5F5F5F5F5F5F5F5F5F5F5F5F5F5F5F5F5F5F5F5F5F5
310
F5F5F5F5F5F5F5F5F5F5F5F5F5F5F5F5F5F5F5F5F5F5F5F5F5F5F5F5F5F5F5F5F5F5F5F5F5F5F5F5F5F5F5F5F5F5F5F5F5F5F5F5F5F5F5F5F5F5F5F5F5F5F5F5F5F5F5F5F5F5F5F5F5F5F5F5F5F5F5F5E2E2F5F5F5F5F5F5F5F5F5F5F5F5F5F5F5F5F5F5F5F5F5F5F5F5F5F5F5F5F5F5F5F5F5F5F5F5F5F5F5F5F5F5F5F5F5
310
F5F5F5F5F5F5F5F5F5F5F5F5F5F5F5F5F5F5F5F5F5F5F5F5F5F5F5F5F5F5F5F5F5F5F5F5F5F5F5F5F5F5F5F5F5F5F5F5F5F5F5F5F5F5F5F5F5F5F5F5F5F5F5F5F5F5F5F5F5F5F5F5F5F5F5F5F5F5F5F5F5F5F5F5F5F5F5F5F5F5F5F5F5F5F5F5F5F5F5F5F5F5F5F5F5F5F5F5F5F5F5F5F5F5F5F5F5F5F5F5F5F5F5F5F5F5F5
310
F5F5F5F5F5F5E2E2F5F5F5F5F5F5F5F5F5F5F5F5F5F5F5F5F5F5F5F5F5F5F5F5F5F5F5F5F5F5F5F5F5F5F5F5F5F5F5F5F5F5F5F5F5F5F5F5F5F5F5F5F5F5F5F5F5F5F5F5F5F5F5F5F5F5F5F5F5F5F5F5F5F5F5F5F5F5F5F5F5F5F5F5F5F5F5F5F5F5F5F5F5F5F5F5F5F5F5F5F5F5F5F5F5F5F5F5F5F5F5F5F5F5F5F5F5F5F5
310
F5F5F5F5F5F5F5F5F5F5F5F5F5F5F5F5F5F5F5F5F5F5F5F5F5F5F5F5F5F5F5F5F5F5F5F5F5F5F5F5F5F5F5F5F5F5F5F5F5F5F5F5F5F5F5F5F5F5F5E2E2F5F5F5F5F5F5F5F5F5F5F5F5F5F5F5F5F5F5F5F5F5F5F5F5F5F5F5F5F5F5F5F5F5F5F5F5F5F5F5F5F5F5F5F5F5F5F5F5F5F5F5F5F5F5F5F5F5F5F5F5F5F5F5F5F5F5
310
F5F5F5F5F5F5F5F5F5F5F5F5F5F5F5F5F5F5F5F5F5F5F5F5F5F5F5F5F5F5F5F5F5F5F5F5F5F5F5F5F5F5F5F5F5F5F5F5F5F5F5F5F5F5F5F5F5F5F5F5F5F5F5F5F5F5F5F5F5F5F5F5F5F5F5F5F5F5F5F5F5F5F5F5F5F5F5F5F5F5F5F5F5F5F5F5F5F5F5F5F5F5F5F5F5F5F5F5F5F5F5F5E2E2F5F5F5F5F5F5F5F5F5F5F5F5F5
310
F5F5F5F5F5F5F5F5F5F5F5F5F5F5F5F5F5F5F5F5F5F5F5F5F5F5F5F5F5F5F5F5F5F5F5F5F5F5F5F5F5F5F5F5F5F5F5F5F5F5F5F5F5F5F5F5F5F5F5F5F5F5F5F5F5F5F5F5F5F5F5F5F5F5F5F5F5F5F5F5F5F5F5F5F5F5F5F5F5F5F5F5F5F5F5F5F5F5F5F5F5F5F5F5F5F5F5F5F5F5F5F5F5F5F5F5F5F5F5F5F5F5F5F5F5F5F5
310
F5F5F5F5F5F5F5F5F5F5F5F5F5F5F5F5F5F5F5F5F5F5F5F5F5F5F5F5F5F5F5F5F5F5F5F5F5F5E2E2F5F5F5F5F5F5F5F5F5F5F5F5F5F5F5F5F5F5F5F5F5F5F5F5F5F5F5F5F5F5F5F5F5F5F5F5F5F5F5F5F5F5F5F5F5F5F5F5F5F5F5F5F5F5F5F5F5F5F5F5F5F5F5F5F5F5F5F5F5F5F5F5F5F5F5F5F5F5F5F5F5F5F5F5F5F5F5
310
F5F5F5F5F5F5F5F5F5F5F5F5F5F5F5F5F5F5F5F5F5F5F5F5F5F5F5F5F5F5F5F5F5F5F5F5F5F5F5F5F5F5F5F5F5F5F5F5F5F5F5F5F5F5F5F5F5F5F5F5F5F5F5F5F5F5F5F5F5F5F5F5F5F5F5F5F5F5F5F5F5F5F5F5F5F5F5F5F5F5F5E2E2F5F5F5F5F5F5F5F5F5F5F5F5F5F5F5F5F5F5F5F5F5F5F5F5F5F5F5F5F5F5F5F5F5F5
310
F5F5F5F5F5F5F5F5F5F5F5F5F5F5F5F5F5F5F5F5F5F5F5F5F5F5F5F5F5F5F5F5F5F5F5F5F5F5F5F5F5F5F5F5F5F5F5F5F5F5F5F5F5F5F5F5F5F5F5F5F5F5F5F5F5F5F5F5F5F5F5F5F5F5F5F5F5F5F5F5F5F5F5F5F5F5F5F5F5F5F5F5F5F5F5F5F5F5F5F5F5F5F5F5F5F5F5F5F5F5F5F5F5F5F5F5F5F5F5F5F5F5F5F5F5F5F5
310
F5F5F5F5F5F5F5F5F5F5F5F5F5F5F5F5F5E2E2F5F5F5F5F5F5F5F5F5F5F5F5F5F5F5F5F5F5F5F5F5F5F5F5F5F5F5F5F5F5F5F5F5F5F5F5F5F5F5F5F5F5F5F5F5F5F5F5F5F5F5F5F5F5F5F5F5F5F5F5F5F5F5F5F5F5F5F5F5F5F5F5F5F5F5F5F5F5F5F5F5F5F5F5F5F5F5F5F5F5F5F5F5F5F5F5F5F5F5F5F5F5F5F5F5F5F5F5
310
F5F5F5F5F5F5F5F5F5F5F5F5F5F5F5F5F5F5F5F5F5F5F5F5F5F5F5F5F5F5F5F5F5F5F5F5F5F5F5F5F5F5F5F5F5F5F5F5F5F5F5F5F5F5F5F5F5F5F5F5F5F5F5F5F5F5F5F5F5F5E2E2F5F5F5F5F5F5F5F5F5F5F5F5F5F5F5F5F5F5F5F5F5F5F5F5F5F5F5F5F5F5F5F5F5F5F5F5F5F5F5F5F5F5F5F5F5F5F5F5F5F5F5F5F5F5F5
310
F5F5F5F5F5F5F5F5F5F5F5F5F5F5F5F5F5F5F5F5F5F5F5F5F5F5F5F5F5F5F5F5F5F5F5F5F5F5F5F5F5F5F5F5F5F5F5F5F5F5F5F5F5F5F5F5F5F5F5F5F5F5F5F5F5F5F5F5F5F5F5F5F5F5F5F5F5F5F5F5F5F5F5F5F5F5F5F5F5F5F5F5F5F5F5F5F5F5F5F5F5F5F5F5F5F5F5F5F5F5F5F5F5F5F5F5F5F5F5F5F5F5F5E2E2F5F5
310
F5E2F5F5F5F5F5F5F5F5F5F5F5F5F5F5F5F5F5F5F5F5F5F5F5F5F5F5F5F5F5F5F5F5F5F5F5F5F5F5F5F5F5F5F5F5F5F5F5F5F5F5F5F5F5F5F5F5F5F5F5F5F5F5F5F5F5F5F5F5F5F5F5F5F5F5F5F5F5F5F5F5F5F5F5F5F5F5F5F5F5F5F5F5F5F5F5F5F5F5F5F5F5F5F5F5F5F5F5F5F5F5F5F5F5F5F5F5F5F5F5F5F5F5F5F5F5
310
F5F5F5F5F5F5F5F5F5F5F5F5F5F5F5F5F5F5F5F5F5F5F5F5F5F5F5F5F5F5F5F5F5F5F5F5F5F5F5F5F5F5F5F5F5E2F5F5F5E2E2F5F5F5E2F5F5F5F5F5F5F5F5F5F5F5F5F5F5F5F5F5F5F5F5F5F5F5F5F5F5F5F5F5F5F5F5F5F5F5F5F5F5F5F5F5F5F5F5F5F5F5F5F5F5F5F5F5F5F5F5F5F5F5F5F5F5F5F5F5F5F5F5F5F5F5F5
310
F5F5F5F5F5F5F5F5F5F5F5F5F5F5F5F5F5F5F5F5F5F5F5F5F5F5F5F5F5F5F5F5F5F5F5F5F5F5F5F5F5F5F5F5F5F5F5F5F5F5F5F5F5F5F5F5F5F5F5F5F5F5F5F5F5F5F5F5F5F5F5F5F5F5F5F5F5F5F5F5F5F5F5F5F5F5F5F5F5F5F5F5F5F5F5F5F5F5E2F5F5F5E2E2F5F5F5E2F5F5F5F5F5F5F5F5F5F5F5F5F5F5F5F5F5F5F5
310
F5F5F5F5F5F5F5F5F5F5F5F5F5F5F5F5F5F5F5F5F5F5F5F5F5F5F5F5F5F5F5F5F5F5F5F5F5F5F5F5F5F5F5F5F5F5F5F5F5F5F5F5F5F5F5F5F5F5F5F5F5F5F5F5F5F5F5F5F5F5F5F5F5F5F5F5F5F5F5F5F5F5F5F5F5F5F5F5F5F5F5F5F5F5F5F5F5F5F5F5F5F5F5F5F5F5F5F5F5F5F5F5F5F5F5F5F5F5F5F5F5F5F5F5F5F5F5
310
F5F5F5F5F5F5F5F5F5F5F5F5F5F5F5F5F5F5F5F5F5F5F5F5E2F5F5F5E2E2F5F5F5E2F5F5F5F5F5F5F5F5F5F5F5F5F5F5F5F5F5F5F5F5F5F5F5F5F5F5F5F5F5F5F5F5F5F5F5F5F5F5F5F5F5F5F5F5F5F5F5F5F5F5F5F5F5F5F5F5F5F5F5F5F5F5F5F5F5F5F5F5F5F5F5F5F5F5F5F5F5F5F5F5F5F5F5F5F5F5F5F5F5F5F5F5F5
310
F5F5F5F5F5F5F5F5F5F5F5F5F5F5F5F5F5F5F5F5F5F5F5F5F5F5F5F5F5F5F5F5F5F5F5F5F5F5F5F5F5F5F5F5F5F5F5F5F5F5F5F5F5F5F5F5F5F5F5F5F5F5F5F5F5F5F5F5F5F5F5F5F5F5F5F5F5E2F5F5F5E2E2F5F5F5E2F5F5F5F5F5F5F5F5F5F5F5F5F5F5F5F5F5F5F5F5F5F5F5F5F5F5F5F5F5F5F5F5F5F5F5F5F5F5F5F5
310
F5F5F5F5F5F5F5F5F5F5F5F5F5F5F5F5F5F5F5F5F5F5F5F5F5F5F5F5F5F5F5F5F5F5F5F5F5F5F5F5F5F5F5F5F5F5F5F5F5F5F5F5F5F5F5F5F5F5F5F5F5F5F5F5F5F5F5F5F5F5F5F5F5F5F5F5F5F5F5F5F5F5F5F5F5F5F5F5F5F5F5F5F5F5F5F5F5F5F5F5F5F5F5F5F5F5F5F5F5F5F5F5F5F5F5F5F5F5F5F5F5F5F5F5F5F5F5
310
F5F5F5E2F5F5F5E2E2F5F5F5E2F5F5F5F5F5F5F5F5F5F5F5F5F5F5F5F5F5F5F5F5F5F5F5F5F5F5F5F5F5F5F5F5F5F5F5F5F5F5F5F5F5F5F5F5F5F5F5F5F5F5F5F5F5F5F5F5F5F5F5F5F5F5F5F5F5F5F5F5F5F5F5F5F5F5F5F5F5F5F5F5F5F5F5F5F5F5F5F5F5F5F5F5F5F5F5F5F5F5F5F5F5F5F5F5F5F5F5F5F5F5F5F5F5F5
310
F5F5F5F5F5F5F5F5F5F5F5F5F5F5F5F5F5F5F5F5F5F5F5F5F5F5F5F5F5F5F5F5F5F5F5F5F5F5F5F5F5F5F5F5F5F5F5F5F5F5F5F5F5F5F5F5E2F5F5F5E2E2F5F5F5E2F5F5F5F5F5F5F5F5F5F5F5F5F5F5F5F5F5F5F5F5F5F5F5F5F5F5F5F5F5F5F5F5F5F5F5F5F5F5F5F5F5F5F5F5F5F5F5F5F5F5F5F5F5F5F5F5F5F5F5F5F5
310
F5F5F5F5F5F5F5F5F5F5F5F5F5F5F5F5F5F5F5F5F5F5F5F5F5F5F5F5F5F5F5F5F5F5F5F5F5F5F5F5F5F5F5F5F5F5F5F5F5F5F5F5F5F5F5F5F5F5F5F5F5F5F5F5F5F5F5F5F5F5F5F5F5F5F5F5F5F5F5F5F5F5F5F5F5F5F5F5F5F5F5F5F5F5F5F5F5F5F5F5F5F5F5F5F5F5F5F5F5E2F5F5F5E2E2F5F5F5E2F5F5F5F5F5F5F5F5
310
F5F5F5F5F5F5F5F5F5F5F5F5F5F5F5F5F5F5F5F5F5F5F5F5F5F5F5F5F5F5F5F5F5F5F5F5F5F5F5F5F5F5F5F5F5F5F5F5F5F5F5F5F5F5F5F5F5F5F5F5F5F5F5F5F5F5F5F5F5F5F5F5F5F5F5F5F5F5F5F5F5F5F5F5F5F5F5F5F5F5F5F5F5F5F5F5F5F5F5F5F5F5F5F5F5F5F5F5F5F5F5F5F5F5F5F5F5F5F5F5F5F5F5F5F5F5F5
310
F5F5F5F5F5F5F5F5F5F5F5F5F5F5F5F5F5F5F5F5F5F5F5F5F5F5F5F5F5F5F5F5F5F5F5E2F5F5F5E2E2F5F5F5E2F5F5F5F5F5F5F5F5F5F5F5F5F5F5F5F5F5F5F5F5F5F5F5F5F5F5F5F5F5F5F5F5F5F5F5F5F5F5F5F5F5F5F5F5F5F5F5F5F5F5F5F5F5F5F5F5F5F5F5F5F5F5F5F5F5F5F5F5F5F5F5F5F5F5F5F5F5F5F5F5F5F5
310
F5F5F5F5F5F5F5F5F5F5F5F5F5F5F5F5F5F5F5F5F5F5F5F5F5F5F5F5F5F5F5F5F5F5F5F5F5F5F5F5F5F5F5F5F5F5F5F5F5F5F5F5F5F5F5F5F5F5F5F5F5F5F5F5F5F5F5F5F5F5F5F5F5F5F5F5F5F5F5F5F5F5F5F5F5F5F5F5E2F5F5F5E2E2F5F5F5E2F5F5F5F5F5F5F5F5F5F5F5F5F5F5F5F5F5F5F5F5F5F5F5F5F5F5F5F5F5
310
F5F5F5F5F5F5F5F5F5F5F5F5F5F5F5F5F5F5F5F5F5F5F5F5F5F5F5F5F5F5F5F5F5F5F5F5F5F5F5F5F5F5F5F5F5F5F5F5F5F5F5F5F5F5F5F5F5F5F5F5F5F5F5F5F5F5F5F5F5F5F5F5F5F5F5F5F5F5F5F5F5F5F5F5F5F5F5F5F5F5F5F5F5F5F5F5F5F5F5F5F5F5F5F5F5F5F5F5F5F5F5F5F5F5F5F5F5F5F5F5F5F5F5F5F5F5F5
310
F5F5F5F5F5F5F5F5F5F5F5F5F5F5E2F5F5F5E2E2F5F5F5E2F5F5F5F5F5F5F5F5F5F5F5F5F5F5F5F5F5F5F5F5F5F5F5F5F5F5F5F5F5F5F5F5F5F5F5F5F5F5F5F5F5F5F5F5F5F5F5F5F5F5F5F5F5F5F5F5F5F5F5F5F5F5F5F5F5F5F5F5F5F5F5F5F5F5F5F5F5F5F5F5F5F5F5F5F5F5F5F5F5F5F5F5F5F5F5F5F5F5F5F5F5F5F5
310
F5F5F5F5F5F5F5F5F5F5F5F5F5F5F5F5F5F5F5F5F5F5F5F5F5F5F5F5F5F5F5F5F5F5F5F5F5F5F5F5F5F5F5F5F5F5F5F5F5F5F5F5F5F5F5F5F5F5F5F5F5F5F5F5F5F5F5E2F5F5F5E2E2F5F5F5E2F5F5F5F5F5F5F5F5F5F5F5F5F5F5F5F5F5F5F5F5F5F5F5F5F5F5F5F5F5F5F5F5F5F5F5F5F5F5F5F5F5F5F5F5F5F5F5F5F5F5
310
F5F5F5F5F5F5F5F5F5F5F5F5F5F5F5F5F5F5F5F5F5F5F5F5F5F5F5F5F5F5F5F5F5F5F5F5F5F5F5F5F5F5F5F5F5F5F5F5F5F5F5F5F5F5F5F5F5F5F5F5F5F5F5F5F5F5F5F5F5F5F5F5F5F5F5F5F5F5F5F5F5F5F5F5F5F5F5F5F5F5F5F5F5F5F5F5F5F5F5F5F5F5F5F5F5F5F5F5F5F5F5F5F5F5F5F5F5F5F5F5E2F5F5F5E2E2F5
310
F5F5E2F5F5F5F5F5F5F5F5F5F5F5F5F5F5F5F5F5F5F5F5F5F5F5F5F5F5F5F5F5F5F5F5F5F5F5F5F5F5F5F5F5F5F5F5F5F5F5F5F5F5F5F5F5F5F5F5F5F5F5F5F5F5F5F5F5F5F5F5F5F5F5F5F5F5F5F5F5F5F5F5F5F5F5F5F5F5F5F5F5F5F5F5F5F5F5F5F5F5F5F5F5F5F5F5F5F5F5F5F5F5F5F5F5F5F5F5F5F5F5F5F5F5F5F5
310
F5F5F5F5F5F5F5F5F5F5F5F5F5F5F5F5F5F5F5F5F5F5F5F5F5F5F5F5F5F5F5F5F5F5F5F5F5F5F5F5F5F5F5F5F5F5E2F5F5F5E2E2F5F5F5E2F5F5F5F5F5F5F5F5F5F5F5F5F5F5F5F5F5F5F5F5F5F5F5F5F5F5F5F5F5F5F5F5F5F5F5F5F5F5F5F5F5F5F5F5F5F5F5F5F5F5F5F5F5F5F5F5F5F5F5F5F5F5F5F5F5F5F5F5F5F5F5
310
F5F5F5F5F5F5F5F5F5F5F5F5F5F5F5F5F5F5F5F5F5F5F5F5F5F5F5F5F5F5F5F5F5F5F5F5F5F5F5F5F5F5F5F5F5F5F5F5F5F5F5F5F5F5F5F5F5F5F5F5F5F5F5F5F5F5F5F5F5F5F5F5F5F5F5F5F5F5F5F5F5F5F5F5F5F5F5F5F5F5F5F5F5F5F5F5F5F5F5E2F5F5F5E2E2F5F5F5E2F5F5F5F5F5F5F5F5F5F5F5F5F5F5F5F5F5F5
310
F5F5F5F5F5F5F5F5F5F5F5F5F5F5F5F5F5F5F5F5F5F5F5F5F5F5F5F5F5F5F5F5F5F5F5F5F5F5F5F5F5F5F5F5F5F5F5F5F5F5F5F5F5F5F5F5F5F5F5F5F5F5F5F5F5F5F5F5F5F5F5F5F5F5F5F5F5F5F5F5F5F5F5F5F5F5F5F5F5F5F5F5F5F5F5F5F5F5F5F5F5F5F5F5F5F5F5F5F5F5F5F5F5F5F5F5F5F5F5F5F5F5F5F5F5F5F5
310
F5F5F5F5F5F5F5F5F5F5F5F5F5F5F5F5F5F5F5F5F5F5F5F5F5E2F5F5F5E2E2F5F5F5E2F5F5F5F5F5F5F5F5F5F5F5F5F5F5F5F5F5F5F5F5F5F5F5F5F5F5F5F5F5F5F5F5F5F5F5F5F5F5F5F5F5F5F5F5F5F5F5F5F5F5F5F5F5F5F5F5F5F5F5F5F5F5F5F5F5F5F5F5F5F5F5F5F5F5F5F5F5F5F5F5F5F5F5F5F5F5F5F5F5F5F5F5
310
F5F5F5F5F5F5F5F5F5F5F5F5F5F5F5F5F5F5F5F5F5F5F5F5F5F5F5F5F5F5F5F5F5F5F5F5F5F5F5F5F5F5F5F5F5F5F5F5F5F5F5F5F5F5F5F5F5F5F5F5F5F5F5F5F5F5F5F5F5F5F5F5F5F5F5F5F5F5E2F5F5F5E2E2F5F5F5F5F5F5F5F5F5F5F5F5F5F5F5F5F5F5F5F5F5F5F5F5F5F5F5F5F5F5F5F5F5F5F5F5F5F5F5F5F5F5F5
310
F5F5F5F5F5F5F5F5F5F5F5F5F5F5F5F5F5F5F5F5F5F5F5F5F5F5F5F5F5F5F5F5F5F5F5F5F5F5F5F5F5F5F5F5F5F5F5F5F5F5F5F5F5F5F5F5F5F5F5F5F5F5F5F5F5F5F5F5F5F5F5F5F5F5F5F5F5F5F5F5F5F5F5F5F5F5F5F5F5F5F5F5F5F5F5F5F5F5F5F5F5F5F5F5F5F5F5F5F5F5F5F5F5F5F5F5F5F5F5F5F5F5F5F5F5F5F5
310
F5F5F5F5F5F5F5F5E2E2F5F5F5F5F5F5F5F5F5F5F5F5F5F5F5F5F5F5F5F5F5F5F5F5F5F5F5F5F5F5F5F5F5F5F5F5F5F5F5F5F5F5F5F5F5F5F5F5F5F5F5F5F5F5F5F5F5F5F5F5F5F5F5F5F5F5F5F5F5F5F5F5F5F5F5F5F5F5F5F5F5F5F5F5F5F5F5F5F5F5F5F5F5F5F5F5F5F5F5F5F5F5F5F5F5F5F5F5F5F5F5F5F5F5F5F5F5
310
F5F5F5F5F5F5F5F5F5F5F5F5F5F5F5F5F5F5F5F5F5F5F5F5F5F5F5F5F5F5F5F5F5F5F5F5F5F5F5F5F5F5F5F5F5F5F5F5F5F5F5F5F5F5F5F5F5F5F5F5F5E2E2F5F5F5F5F5F5F5F5F5F5F5F5F5F5F5F5F5F5F5F5F5F5F5F5F5F5F5F5F5F5F5F5F5F5F5F5F5F5F5F5F5F5F5F5F5F5F5F5F5F5F5F5F5F5F5F5F5F5F5F5F5F5F5F5
310
F5F5F5F5F5F5F5F5F5F5F5F5F5F5F5F5F5F5F5F5F5F5F5F5F5F5F5F5F5F5F5F5F5F5F5F5F5F5F5F5F5F5F5F5F5F5F5F5F5F5F5F5F5F5F5F5F5F5F5F5F5F5F5F5F5F5F5F5F5F5F5F5F5F5F5F5F5F5F5F5F5F5F5F5F5F5F5F5F5F5F5F5F5F5F5F5F5F5F5F5F5F5F5F5F5F5F5F5F5F5F5F5F5F5E2E2F5F5F5F5F5F5F5F5F5F5F5
310
F5F5F5F5F5F5F5F5F5F5F5F5F5F5F5F5F5F5F5F5F5F5F5F5F5F5F5F5F5F5F5F5F5F5F5F5F5F5F5F5F5F5F5F5F5F5F5F5F5F5F5F5F5F5F5F5F5F5F5F5F5F5F5F5F5F5F5F5F5F5F5F5F5F5F5F5F5F5F5F5F5F5F5F5F5F5F5F5F5F5F5F5F5F5F5F5F5F5F5F5F5F5F5F5F5F5F5F5F5F5F5F5F5F5F5F5F5F5F5F5F5F5F5F5F5F5F5
310
F5F5F5F5F5F5F5F5F5F5F5F5F5F5F5F5F5F5F5F5F5F5F5F5F5F5F5F5F5F5F5F5F5F5F5F5F5F5F5F5E2E2F5F5F5F5F5F5F5F5F5F5F5F5F5F5F5F5F5F5F5F5F5F5F5F5F5F5F5F5F5F5F5F5F5F5F5F5F5F5F5F5F5F5F5F5F5F5F5F5F5F5F5F5F5F5F5F5F5F5F5F5F5F5F5F5F5F5F5F5F5F5F5F5F5F5F5F5F5F5F5F5F5F5F5F5F5
310
F5F5F5F5F5F5F5F5F5F5F5F5F5F5F5F5F5F5F5F5F5F5F5F5F5F5F5F5F5F5F5F5F5F5F5F5F5F5F5F5F5F5F5F5F5F5F5F5F5F5F5F5F5F5F5F5F5F5F5F5F5F5F5F5F5F5F5F5F5F5F5F5F5F5F5F5F5F5F5F5F5F5F5F5F5F5F5F5F5F5F5F5F5E2E2F5F5F5F5F5F5F5F5F5F5F5F5F5F5F5F5F5F5F5F5F5F5F5F5F5F5F5F5F5F5F5F5
310
F5F5F5F5F5F5F5F5F5F5F5F5F5F5F5F5F5F5F5F5F5F5F5F5F5F5F5F5F5F5F5F5F5F5F5F5F5F5F5F5F5F5F5F5F5F5F5F5F5F5F5F5F5F5F5F5F5F5F5F5F5F5F5F5F5F5F5F5F5F5F5F5F5F5F5F5F5F5F5F5F5F5F5F5F5F5F5F5F5F5F5F5F5F5F5F5F5F5F5F5F5F5F5F5F5F5F5F5F5F5F5F5F5F5F5F5F5F5F5F5F5F5F5F5F5F5F5
310
F5F5F5F5F5F5F5F5F5F5F5F5F5F5F5F5F5F5F5E2E2F5F5F5F5F5F5F5F5F5F5F5F5F5F5F5F5F5F5F5F5F5F5F5F5F5F5F5F5F5F5F5F5F5F5F5F5F5F5F5F5F5F5F5F5F5F5F5F5F5F5F5F5F5F5F5F5F5F5F5F5F5F5F5F5F5F5F5F5F5F5F5F5F5F5F5F5F5F5F5F5F5F5F5F5F5F5F5F5F5F5F5F5F5F5F5F5F5F5F5F5F5F5F5F5F5F5
310
F5F5F5F5F5F5F5F5F5F5F5F5F5F5F5F5F5F5F5F5F5F5F5F5F5F5F5F5F5F5F5F5F5F5F5F5F5F5F5F5F5F5F5F5F5F5F5F5F5F5F5F5F5F5F5F5F5F5F5F5F5F5F5F5F5F5F5F5F5F5F5F5E2E2F5F5F5F5F5F5F5F5F5F5F5F5F5F5F5F5F5F5F5F5F5F5F5F5F5F5F5F5F5F5F5F5F5F5F5F5F5F5F5F5F5F5F5F5F5F5F5F5F5F5F5F5F5
310
F5F5F5F5F5F5F5F5F5F5F5F5F5F5F5F5F5F5F5F5F5F5F5F5F5F5F5F5F5F5F5F5F5F5F5F5F5F5F5F5F5F5F5F5F5F5F5F5F5F5F5F5F5F5F5F5F5F5F5F5F5F5F5F5F5F5F5F5F5F5F5F5F5F5F5F5F5F5F5F5F5F5F5F5F5F5F5F5F5F5F5F5F5F5F5F5F5F5F5F5F5F5F5F5F5F5F5F5F5F5F5F5F5F5F5F5F5F5F5F5F5F5F5F5F5E2E2
310
F5F5F5F5F5F5F5F5F5F5F5F5F5F5F5F5F5F5F5F5F5F5F5F5F5F5F5F5F5F5F5F5F5F5F5F5F5F5F5F5F5F5F5F5F5F5F5F5F5F5F5F5F5F5F5F5F5F5F5F5F5F5F5F5F5F5F5F5F5F5F5F5F5F5F5F5F5F5F5F5F5F5F5F5F5F5F5F5F5F5F5F5F5F5F5F5F5F5F5F5F5F5F5F5F5F5F5F5F5F5F5F5F5F5F5F5F5F5F5F5F5F5F5F5F5F5F5
310
F5F5F5F5F5F5F5F5F5F5F5F5F5F5F5F5F5F5F5F5F5F5F5F5F5F5F5F5F5F5F5F5F5F5F5F5F5F5F5F5F5F5F5F5F5F5F5F5F5F5F5E2E2F5F5F5F5F5F5F5F5F5F5F5F5F5F5F5F5F5F5F5F5F5F5F5F5F5F5F5F5F5F5F5F5F5F5F5F5F5F5F5F5F5F5F5F5F5F5F5F5F5F5F5F5F5F5F5F5F5F5F5F5F5F5F5F5F5F5F5F5F5F5F5F5F5F5
310
F5F5F5F5F5F5F5F5F5F5F5F5F5F5F5F5F5F5F5F5F5F5F5F5F5F5F5F5F5F5F5F5F5F5F5F5F5F5F5F5F5F5F5F5F5F5F5F5F5F5F5F5F5F5F5F5F5F5F5F5F5F5F5F5F5F5F5F5F5F5F5F5F5F5F5F5F5F5F5F5F5F5F5F5F5F5F5F5F5F5F5F5F5F5F5F5F5F5F5F5F5F5F5F5E2E2F5F5F5E2F5F5F5F5F5F5F5F5F5F5F5F5F5F5F5F5F5
310
F5F5F5F5F5F5F5F5F5F5F5F5F5F5F5F5F5F5F5F5F5F5F5F5F5F5F5F5F5F5F5F5F5F5F5F5F5F5F5F5F5F5F5F5F5F5F5F5F5F5F5F5F5F5F5F5F5F5F5F5F5F5F5F5F5F5F5F5F5F5F5F5F5F5F5F5F5F5F5F5F5F5F5F5F5F5F5F5F5F5F5F5F5F5F5F5F5F5F5F5F5F5F5F5F5F5F5F5F5F5F5F5F5F5F5F5F5F5F5F5F5F5F5F5F5F5F5
310
F5F5F5F5F5F5F5F5F5F5F5F5F5F5F5F5F5F5F5F5F5F5F5F5F5F5E2F5F5F5E2E2F5F5F5E2F5F5F5F5F5F5F5F5F5F5F5F5F5F5F5F5F5F5F5F5F5F5F5F5F5F5F5F5F5F5F5F5F5F5F5F5F5F5F5F5F5F5F5F5F5F5F5F5F5F5F5F5F5F5F5F5F5F5F5F5F5F5F5F5F5F5F5F5F5F5F5F5F5F5F5F5F5F5F5F5F5F5F5F5F5F5F5F5F5F5F5
310
F5F5F5F5F5F5F5F5F5F5F5F5F5F5F5F5F5F5F5F5F5F5F5F5F5F5F5F5F5F5F5F5F5F5F5F5F5F5F5F5F5F5F5F5F5F5F5F5F5F5F5F5F5F5F5F5F5F5F5F5F5F5F5F5F5F5F5F5F5F5F5F5F5F5F5F5F5F5F5E2F5F5F5E2E2F5F5F5E2F5F5F5F5F5F5F5F5F5F5F5F5F5F5F5F5F5F5F5F5F5F5F5F5F5F5F5F5F5F5F5F5F5F5F5F5F5F5
310
F5F5F5F5F5F5F5F5F5F5F5F5F5F5F5F5F5F5F5F5F5F5F5F5F5F5F5F5F5F5F5F5F5F5F5F5F5F5F5F5F5F5F5F5F5F5F5F5F5F5F5F5F5F5F5F5F5F5F5F5F5F5F5F5F5F5F5F5F5F5F5F5F5F5F5F5F5F5F5F5F5F5F5F5F5F5F5F5F5F5F5F5F5F5F5F5F5F5F5F5F5F5F5F5F5F5F5F5F5F5F5F5F5F5F5F5F5F5F5F5F5F5F5F5F5F5F5
310
F5F5F5F5F5E2F5F5F5E2E2F5F5F5E2F5F5F5F5F5F5F5F5F5F5F5F5F5F5F5F5F5F5F5F5F5F5F5F5F5F5F5F5F5F5F5F5F5F5F5F5F5F5F5F5F5F5F5F5F5F5F5F5F5F5F5F5F5F5F5F5F5F5F5F5F5F5F5F5F5F5F5F5F5F5F5F5F5F5F5F5F5F5F5F5F5F5F5F5F5F5F5F5F5F5F5F5F5F5F5F5F5F5F5F5F5F5F5F5F5F5F5F5F5F5F5F5
310
F5F5F5F5F5F5F5F5F5F5F5F5F5F5F5F5F5F5F5F5F5F5F5F5F5F5F5F5F5F5F5F5F5F5F5F5F5F5F5F5F5F5F5F5F5F5F5F5F5F5F5F5F5F5F5F5F5F5E2F5F5F5E2E2F5F5F5E2F5F5F5F5F5F5F5F5F5F5F5F5F5F5F5F5F5F5F5F5F5F5F5F5F5F5F5F5F5F5F5F5F5F5F5F5F5F5F5F5F5F5F5F5F5F5F5F5F5F5F5F5F5F5F5F5F5F5F5
310
F5F5F5F5F5F5F5F5F5F5F5F5F5F5F5F5F5F5F5F5F5F5F5F5F5F5F5F5F5F5F5F5F5F5F5F5F5F5F5F5F5F5F5F5F5F5F5F5F5F5F5F5F5F5F5F5F5F5F5F5F5F5F5F5F5F5F5F5F5F5F5F5F5F5F5F5F5F5F5F5F5F5F5F5F5F5F5F5F5F5F5F5F5F5F5F5F5F5F5F5F5F5F5F5F5F5F5F5F5F5F5E2F5F5F5E2E2F5F5F5E2F5F5F5F5F5F5
310
F5F5F5F5F5F5F5F5F5F5F5F5F5F5F5F5F5F5F5F5F5F5F5F5F5F5F5F5F5F5F5F5F5F5F5F5F5F5F5F5F5F5F5F5F5F5F5F5F5F5F5F5F5F5F5F5F5F5F5F5F5F5F5F5F5F5F5F5F5F5F5F5F5F5F5F5F5F5F5F5F5F5F5F5F5F5F5F5F5F5F5F5F5F5F5F5F5F5F5F5F5F5F5F5F5F5F5F5F5F5F5F5F5F5F5F5F5F5F5F5F5F5F5F5F5F5F5
310
F5F5F5F5F5F5F5F5F5F5F5F5F5F5F5F5F5F5F5F5F5F5F5F5F5F5F5F5F5F5F5F5F5F5F5F5F5E2F5F5F5E2E2F5F5F5E2F5F5F5F5F5F5F5F5F5F5F5F5F5F5F5F5F5F5F5F5F5F5F5F5F5F5F5F5F5F5F5F5F5F5F5F5F5F5F5F5F5F5F5F5F5F5F5F5F5F5F5F5F5F5F5F5F5F5F5F5F5F5F5F5F5F5F5F5F5F5F5F5F5F5F5F5F5F5F5F5
310
F5F5F5F5F5F5F5F5F5F5F5F5F5F5F5F5F5F5F5F5F5F5F5F5F5F5F5F5F5F5F5F5F5F5F5F5F5F5F5F5F5F5F5F5F5F5F5F5F5F5F5F5F5F5F5F5F5F5F5F5F5F5F5F5F5F5F5F5F5F5F5F5F5F5F5F5F5F5F5F5F5F5F5F5F5F5F5F5F5F5E2F5F5F5E2E2F5F5F5E2F5F5F5F5F5F5F5F5F5F5F5F5F5F5F5F5F5F5F5F5F5F5F5F5F5F5F5
310
F5F5F5F5F5F5F5F5F5F5F5F5F5F5F5F5F5F5F5F5F5F5F5F5F5F5F5F5F5F5F5F5F5F5F5F5F5F5F5F5F5F5F5F5F5F5F5F5F5F5F5F5F5F5F5F5F5F5F5F5F5F5F5F5F5F5F5F5F5F5F5F5F5F5F5F5F5F5F5F5F5F5F5F5F5F5F5F5F5F5F5F5F5F5F5F5F5F5F5F5F5F5F5F5F5F5F5F5F5F5F5F5F5F5F5F5F5F5F5F5F5F5F5F5F5F5F5
310
F5F5F5F5F5F5F5F5F5F5F5F5F5F5F5F5E2F5F5F5E2E2F5F5F5E2F5F5F5F5F5F5F5F5F5F5F5F5F5F5F5F5F5F5F5F5F5F5F5F5F5F5F5F5F5F5F5F5F5F5F5F5F5F5F5F5F5F5F5F5F5F5F5F5F5F5F5F5F5F5F5F5F5F5F5F5F5F5F5F5F5F5F5F5F5F5F5F5F5F5F5F5F5F5F5F5F5F5F5F5F5F5F5F5F5F5F5F5F5F5F5F5F5F5F5F5F5
310
F5F5F5F5F5F5F5F5F5F5F5F5F5F5F5F5F5F5F5F5F5F5F5F5F5F5F5F5F5F5F5F5F5F5F5F5F5F5F5F5F5F5F5F5F5F5F5F5F5F5F5F5F5F5F5F5F5F5F5F5F5F5F5F5F5F5F5F5F5E2F5F5F5E2E2F5F5F5E2F5F5F5F5F5F5F5F5F5F5F5F5F5F5F5F5F5F5F5F5F5F5F5F5F5F5F5F5F5F5F5F5F5F5F5F5F5F5F5F5F5F5F5F5F5F5F5F5
310
F5F5F5F5F5F5F5F5F5F5F5F5F5F5F5F5F5F5F5F5F5F5F5F5F5F5F5F5F5F5F5F5F5F5F5F5F5F5F5F5F5F5F5F5F5F5F5F5F5F5F5F5F5F5F5F5F5F5F5F5F5F5F5F5F5F5F5F5F5F5F5F5F5F5F5F5F5F5F5F5F5F5F5F5F5F5F5F5F5F5F5F5F5F5F5F5F5F5F5F5F5F5F5F5F5F5F5F5F5F5F5F5F5F5F5F5F5F5F5F5F5F5E2F5F5F5E2
310
E2F5F5F5E2F5F5F5F5F5F5F5F5F5F5F5F5F5F5F5F5F5F5F5F5F5F5F5F5F5F5F5F5F5F5F5F5F5F5F5F5F5F5F5F5F5F5F5F5F5F5F5F5F5F5F5F5F5F5F5F5F5F5F5F5F5F5F5F5F5F5F5F5F5F5F5F5F5F5F5F5F5F5F5F5F5F5F5F5F5F5F5F5F5F5F5F5F5F5F5F5F5F5F5F5F5F5F5F5F5F5F5F5F5F5F5F5F5F5F5F5F5F5F5F5F5F5
310
F5F5F5F5F5F5F5F5F5F5F5F5F5F5F5F5F5F5F5F5F5F5F5F5F5F5F5F5F5F5F5F5F5F5F5F5F5F5F5F5F5F5F5F5F5F5F5F5E2F5F5F5E2E2F5F5F5E2F5F5F5F5F5F5F5F5F5F5F5F5F5F5F5F5F5F5F5F5F5F5F5F5F5F5F5F5F5F5F5F5F5F5F5F5F5F5F5F5F5F5F5F5F5F5F5F5F5F5F5F5F5F5F5F5F5F5F5F5F5F5F5F5F5F5F5F5F5
310
F5F5F5F5F5F5F5F5F5F5F5F5F5F5F5F5F5F5F5F5F5F5F5F5F5F5F5F5F5F5F5F5F5F5F5F5F5F5F5F5F5F5F5F5F5F5F5F5F5F5F5F5F5F5F5F5F5F5F5F5F5F5F5F5F5F5F5F5F5F5F5F5F5F5F5F5F5F5F5F5F5F5F5F5F5F5F5F5F5F5F5F5F5F5F5F5F5F5F5F5F5E2F5F5F5E2E2F5F5F5E2F5F5F5F5F5F5F5F5F5F5F5F5F5F5F5F5
310
F5F5F5F5F5F5F5F5F5F5F5F5F5F5F5F5F5F5F5F5F5F5F5F5F5F5F5F5F5F5F5F5F5F5F5F5F5F5F5F5F5F5F5F5F5F5F5F5F5F5F5F5F5F5F5F5F5F5F5F5F5F5F5F5F5F5F5F5F5F5F5F5F5F5F5F5F5F5F5F5F5F5F5F5F5F5F5F5F5F5F5F5F5F5F5F5F5F5F5F5F5F5F5F5F5F5F5F5F5F5F5F5F5F5F5F5F5F5F5F5F5F5F5F5F5F5F5
310
F5F5F5F5F5F5F5F5F5F5F5F5F5F5F5F5F5F5F5F5F5F5F5F5F5F5F5E2F5F5F5E2E2F5F5F5E2F5F5F5F5F5F5F5F5F5F5F5F5F5F5F5F5F5F5F5F5F5F5F5F5F5F5F5F5F5F5F5F5F5F5F5F5F5F5F5F5F5F5F5F5F5F5F5F5F5F5F5F5F5F5F5F5F5F5F5F5F5F5F5F5F5F5F5F5F5F5F5F5F5F5F5F5F5F5F5F5F5F5F5F5F5F5F5F5F5F5
310
F5F5F5F5F5F5F5F5F5F5F5F5F5F5F5F5F5F5F5F5F5F5F5F5F5F5F5F5F5F5F5F5F5F5F5F5F5F5F5F5F5F5F5F5F5F5F5F5F5F5F5F5F5F5F5F5F5F5F5F5F5F5F5F5F5F5F5F5F5F5F5F5F5F5F5F5F5F5F5F5E2F5F5F5E2E2F5F5F5E2F5F5F5F5F5F5F5F5F5F5F5F5F5F5F5F5F5F5F5F5F5F5F5F5F5F5F5F5F5F5F5F5F5F5F5F5F5
310
F5F5F5F5F5F5F5F5F5F5F5F5F5F5F5F5F5F5F5F5F5F5F5F5F5F5F5F5F5F5F5F5F5F5F5F5F5F5F5F5F5F5F5F5F5F5F5F5F5F5F5F5F5F5F5F5F5F5F5F5F5F5F5F5F5F5F5F5F5F5F5F5F5F5F5F5F5F5F5F5F5F5F5F5F5F5F5F5F5F5F5F5F5F5F5F5F5F5F5F5F5F5F5F5F5F5F5F5F5F5F5F5F5F5F5F5F5F5F5F5F5F5F5F5F5F5F5
310
F5F5F5F5F5F5E2F5F5F5E2E2F5F5F5E2F5F5F5F5F5F5F5F5F5F5F5F5F5F5F5F5F5F5F5F5F5F5F5F5F5F5F5F5F5F5F5F5F5F5F5F5F5F5F5F5F5F5F5F5F5F5F5F5F5F5F5F5F5F5F5F5F5F5F5F5F5F5F5F5F5F5F5F5F5F5F5F5F5F5F5F5F5F5F5F5F5F5F5F5F5F5F5F5F5F5F5F5F5F5F5F5F5F5F5F5F5F5F5F5F5F5F5F5F5F5F5
310
F5F5F5F5F5F5F5F5F5F5F5F5F5F5F5F5F5F5F5F5F5F5F5F5F5F5F5F5F5F5F5F5F5F5F5F5F5F5F5F5F5F5F5F5F5F5F5F5F5F5F5F5F5F5F5F5F5F5F5E2F5F5F5E2E2F5F5F5F5F5F5F5F5F5F5F5F5F5F5F5F5F5F5F5F5F5F5F5F5F5F5F5F5F5F5F5F5F5F5F5F5F5F5F5F5F5F5F5F5F5F5F5F5F5F5F5F5F5F5F5F5F5F5F5F5F5F5
310
F5F5F5F5F5F5F5F5F5F5F5F5F5F5F5F5F5F5F5F5F5F5F5F5F5F5F5F5F5F5F5F5F5F5F5F5F5F5F5F5F5F5F5F5F5F5F5F5F5F5F5F5F5F5F5F5F5F5F5F5F5F5F5F5F5F5F5F5F5F5F5F5F5F5F5F5F5F5F5F5F5F5F5F5F5F5F5F5F5F5F5F5F5F5F5F5F5F5F5F5F5F5F5F5F5F5F5F5F5F5F5F5F5F5F5F5E2E2F5F5F5F5F5F5F5F5F5
310
F5F5F5F5F5F5F5F5F5F5F5F5F5F5F5F5F5F5F5F5F5F5F5F5F5F5F5F5F5F5F5F5F5F5F5F5F5F5F5F5F5F5F5F5F5F5F5F5F5F5F5F5F5F5F5F5F5F5F5F5F5F5F5F5F5F5F5F5F5F5F5F5F5F5F5F5F5F5F5F5F5F5F5F5F5F5F5F5F5F5F5F5F5F5F5F5F5F5F5F5F5F5F5F5F5F5F5F5F5F5F5F5F5F5F5F5F5F5F5F5F5F5F5F5F5F5F5
310
F5F5F5F5F5F5F5F5F5F5F5F5F5F5F5F5F5F5F5F5F5F5F5F5F5F5F5F5F5F5F5F5F5F5F5F5F5F5F5F5F5F5E2E2F5F5F5F5F5F5F5F5F5F5F5F5F5F5F5F5F5F5F5F5F5F5F5F5F5F5F5F5F5F5F5F5F5F5F5F5F5F5F5F5F5F5F5F5F5F5F5F5F5F5F5F5F5F5F5F5F5F5F5F5F5F5F5F5F5F5F5F5F5F5F5F5F5F5F5F5F5F5F5F5F5F5F5
310
F5F5F5F5F5F5F5F5F5F5F5F5F5F5F5F5F5F5F5F5F5F5F5F5F5F5F5F5F5F5F5F5F5F5F5F5F5F5F5F5F5F5F5F5F5F5F5F5F5F5F5F5F5F5F5F5F5F5F5F5F5F5F5F5F5F5F5F5F5F5F5F5F5F5F5F5F5F5F5F5F5F5F5F5F5F5F5F5F5F5F5F5F5F5F5E2E2F5F5F5F5F5F5F5F5F5F5F5F5F5F5F5F5F5F5F5F5F5F5F5F5F5F5F5F5F5F5
310
F5F5F5F5F5F5F5F5F5F5F5F5F5F5F5F5F5F5F5F5F5F5F5F5F5F5F5F5F5F5F5F5F5F5F5F5F5F5F5F5F5F5F5F5F5F5F5F5F5F5F5F5F5F5F5F5F5F5F5F5F5F5F5F5F5F5F5F5F5F5F5F5F5F5F5F5F5F5F5F5F5F5F5F5F5F5F5F5F5F5F5F5F5F5F5F5F5F5F5F5F5F5F5F5F5F5F5F5F5F5F5F5F5F5F5F5F5F5F5F5F5F5F5F5F5F5F5
310
F5F5F5F5F5F5F5F5F5F5F5F5F5F5F5F5F5F5F5F5F5E2E2F5F5F5F5F5F5F5F5F5F5F5F5F5F5F5F5F5F5F5F5F5F5F5F5F5F5F5F5F5F5F5F5F5F5F5F5F5F5F5F5F5F5F5F5F5F5F5F5F5F5F5F5F5F5F5F5F5F5F5F5F5F5F5F5F5F5F5F5F5F5F5F5F5F5F5F5F5F5F5F5F5F5F5F5F5F5F5F5F5F5F5F5F5F5F5F5F5F5F5F5F5F5F5F5
310
F5F5F5F5F5F5F5F5F5F5F5F5F5F5F5F5F5F5F5F5F5F5F5F5F5F5F5F5F5F5F5F5F5F5F5F5F5F5F5F5F5F5F5F5F5F5F5F5F5F5F5F5F5F5F5F5F5F5F5F5F5F5F5F5F5F5F5F5F5F5F5F5F5F5E2E2F5F5F5F5F5F5F5F5F5F5F5F5F5F5F5F5F5F5F5F5F5F5F5F5F5F5F5F5F5F5F5F5F5F5F5F5F5F5F5F5F5F5F5F5F5F5F5F5F5F5F5
310
F5F5F5F5F5F5F5F5F5F5F5F5F5F5F5F5F5F5F5F5F5F5F5F5F5F5F5F5F5F5F5F5F5F5F5F5F5F5F5F5F5F5F5F5F5F5F5F5F5F5F5F5F5F5F5F5F5F5F5F5F5F5F5F5F5F5F5F5F5F5F5F5F5F5F5F5F5F5F5F5F5F5F5F5F5F5F5F5F5F5F5F5F5F5F5F5F5F5F5F5F5F5F5F5F5F5F5F5F5F5F5F5F5F5F5F5F5F5F5F5F5F5F5F5F5F5F5
310
E2E2F5F5F5F5F5F5F5F5F5F5F5F5F5F5F5F5F5F5F5F5F5F5F5F5F5F5F5F5F5F5F5F5F5F5F5F5F5F5F5F5F5F5F5F5F5F5F5F5F5F5F5F5F5F5F5F5F5F5F5F5F5F5F5F5F5F5F5F5F5F5F5F5F5F5F5F5F5F5F5F5F5F5F5F5F5F5F5F5F5F5F5F5F5F5F5F5F5F5F5F5F5F5F5F5F5F5F5F5F5F5F5F5F5F5F5F5F5F5F5F5F5F5F5F5F5
310
F5F5F5F5F5F5F5F5F5F5F5F5F5F5F5F5F5F5F5F5F5F5F5F5F5F5F5F5F5F5F5F5F5F5F5F5F5F5F5F5F5F5F5F5F5F5F5F5F5F5F5F5F5E2E2F5F5F5F5F5F5F5F5F5F5F5F5F5F5F5F5F5F5F5F5F5F5F5F5F5F5F5F5F5F5F5F5F5F5F5F5F5F5F5F5F5F5F5F5F5F5F5F5F5F5F5F5F5F5F5F5F5F5F5F5F5F5F5F5F5F5F5F5F5F5F5F5
310
F5F5F5F5F5F5F5F5F5F5F5F5F5F5F5F5F5F5F5F5F5F5F5F5F5F5F5F5F5F5F5F5F5F5F5F5F5F5F5F5F5F5F5F5F5F5F5F5F5F5F5F5F5F5F5F5F5F5F5F5F5F5F5F5F5F5F5F5F5F5F5F5F5F5F5F5F5F5F5F5F5F5F5F5F5F5F5F5F5F5F5F5F5F5F5F5F5F5F5F5F5F5F5F5F5F5E2E2F5F5F5F5F5F5F5F5F5F5F5F5F5F5F5F5F5F5F5
310
F5F5F5F5F5F5F5F5F5F5F5F5F5F5F5F5F5F5F5F5F5F5F5F5F5F5F5F5F5F5F5F5F5F5F5F5F5F5F5F5F5F5F5F5F5F5F5F5F5F5F5F5F5F5F5F5F5F5F5F5F5F5F5F5F5F5F5F5F5F5F5F5F5F5F5F5F5F5F5F5F5F5F5F5F5F5F5F5F5F5F5F5F5F5F5F5F5F5F5F5F5F5F5F5F5F5F5F5F5F5F5F5F5F5F5F5F5F5F5F5F5F5F5F5F5F5F5
310
F5F5F5F5F5F5F5F5F5F5F5F5F5F5F5F5F5F5F5F5F5F5F5F5F5F5F5F5F5F5F5F5E2E2F5F5F5E2F5F5F5F5F5F5F5F5F5F5F5F5F5F5F5F5F5F5F5F5F5F5F5F5F5F5F5F5F5F5F5F5F5F5F5F5F5F5F5F5F5F5F5F5F5F5F5F5F5F5F5F5F5F5F5F5F5F5F5F5F5F5F5F5F5F5F5F5F5F5F5F5F5F5F5F5F5F5F5F5F5F5F5F5F5F5F5F5F5
310
F5F5F5F5F5F5F5F5F5F5F5F5F5F5F5F5F5F5F5F5F5F5F5F5F5F5F5F5F5F5F5F5F5F5F5F5F5F5F5F5F5F5F5F5F5F5F5F5F5F5F5F5F5F5F5F5F5F5F5F5F5F5F5F5F5F5F5F5F5F5F5F5F5F5F5F5F5F5F5F5F5E2F5F5F5E2E2F5F5F5E2F5F5F5F5F5F5F5F5F5F5F5F5F5F5F5F5F5F5F5F5F5F5F5F5F5F5F5F5F5F5F5F5F5F5F5F5
310
F5F5F5F5F5F5F5F5F5F5F5F5F5F5F5F5F5F5F5F5F5F5F5F5F5F5F5F5F5F5F5F5F5F5F5F5F5F5F5F5F5F5F5F5F5F5F5F5F5F5F5F5F5F5F5F5F5F5F5F5F5F5F5F5F5F5F5F5F5F5F5F5F5F5F5F5F5F5F5F5F5F5F5F5F5F5F5F5F5F5F5F5F5F5F5F5F5F5F5F5F5F5F5F5F5F5F5F5F5F5F5F5F5F5F5F5F5F5F5F5F5F5F5F5F5F5F5
310
F5F5F5F5F5F5F5E2F5F5F5E2E2F5F5F5E2F5F5F5F5F5F5F5F5F5F5F5F5F5F5F5F5F5F5F5F5F5F5F5F5F5F5F5F5F5F5F5F5F5F5F5F5F5F5F5F5F5F5F5F5F5F5F5F5F5F5F5F5F5F5F5F5F5F5F5F5F5F5F5F5F5F5F5F5F5F5F5F5F5F5F5F5F5F5F5F5F5F5F5F5F5F5F5F5F5F5F5F5F5F5F5F5F5F5F5F5F5F5F5F5F5F5F5F5F5F5
310
F5F5F5F5F5F5F5F5F5F5F5F5F5F5F5F5F5F5F5F5F5F5F5F5F5F5F5F5F5F5F5F5F5F5F5F5F5F5F5F5F5F5F5F5F5F5F5F5F5F5F5F5F5F5F5F5F5F5F5F5E2F5F5F5E2E2F5F5F5E2F5F5F5F5F5F5F5F5F5F5F5F5F5F5F5F5F5F5F5F5F5F5F5F5F5F5F5F5F5F5F5F5F5F5F5F5F5F5F5F5F5F5F5F5F5F5F5F5F5F5F5F5F5F5F5F5F5
310
F5F5F5F5F5F5F5F5F5F5F5F5F5F5F5F5F5F5F5F5F5F5F5F5F5F5F5F5F5F5F5F5F5F5F5F5F5F5F5F5F5F5F5F5F5F5F5F5F5F5F5F5F5F5F5F5F5F5F5F5F5F5F5F5F5F5F5F5F5F5F5F5F5F5F5F5F5F5F5F5F5F5F5F5F5F5F5F5F5F5F5F5F5F5F5F5F5F5F5F5F5F5F5F5F5F5F5F5F5F5F5F5F5E2F5F5F5E2E2F5F5F5E2F5F5F5F5
310
F5F5F5F5F5F5F5F5F5F5F5F5F5F5F5F5F5F5F5F5F5F5F5F5F5F5F5F5F5F5F5F5F5F5F5F5F5F5F5F5F5F5F5F5F5F5F5F5F5F5F5F5F5F5F5F5F5F5F5F5F5F5F5F5F5F5F5F5F5F5F5F5F5F5F5F5F5F5F5F5F5F5F5F5F5F5F5F5F5F5F5F5F5F5F5F5F5F5F5F5F5F5F5F5F5F5F5F5F5F5F5F5F5F5F5F5F5F5F5F5F5F5F5F5F5F5F5
310
F5F5F5F5F5F5F5F5F5F5F5F5F5F5F5F5F5F5F5F5F5F5F5F5F5F5F5F5F5F5F5F5F5F5F5F5F5F5F5E2F5F5F5E2E2F5F5F5E2F5F5F5F5F5F5F5F5F5F5F5F5F5F5F5F5F5F5F5F5F5F5F5F5F5F5F5F5F5F5F5F5F5F5F5F5F5F5F5F5F5F5F5F5F5F5F5F5F5F5F5F5F5F5F5F5F5F5F5F5F5F5F5F5F5F5F5F5F5F5F5F5F5F5F5F5F5F5
310
F5F5F5F5F5F5F5F5F5F5F5F5F5F5F5F5F5F5F5F5F5F5F5F5F5F5F5F5F5F5F5F5F5F5F5F5F5F5F5F5F5F5F5F5F5F5F5F5F5F5F5F5F5F5F5F5F5F5F5F5F5F5F5F5F5F5F5F5F5F5F5F5F5F5F5F5F5F5F5F5F5F5F5F5F5F5F5F5F5F5F5F5E2F5F5F5E2E2F5F5F5E2F5F5F5F5F5F5F5F5F5F5F5F5F5F5F5F5F5F5F5F5F5F5F5F5F5
310
F5F5F5F5F5F5F5F5F5F5F5F5F5F5F5F5F5F5F5F5F5F5F5F5F5F5F5F5F5F5F5F5F5F5F5F5F5F5F5F5F5F5F5F5F5F5F5F5F5F5F5F5F5F5F5F5F5F5F5F5F5F5F5F5F5F5F5F5F5F5F5F5F5F5F5F5F5F5F5F5F5F5F5F5F5F5F5F5F5F5F5F5F5F5F5F5F5F5F5F5F5F5F5F5F5F5F5F5F5F5F5F5F5F5F5F5F5F5F5F5F5F5F5F5F5F5F5
310
F5F5F5F5F5F5F5F5F5F5F5F5F5F5F5F5F5F5E2F5F5F5E2E2F5F5F5E2F5F5F5F5F5F5F5F5F5F5F5F5F5F5F5F5F5F5F5F5F5F5F5F5F5F5F5F5F5F5F5F5F5F5F5F5F5F5F5F5F5F5F5F5F5F5F5F5F5F5F5F5F5F5F5F5F5F5F5F5F5F5F5F5F5F5F5F5F5F5F5F5F5F5F5F5F5F5F5F5F5F5F5F5F5F5F5F5F5F5F5F5F5F5F5F5F5F5F5
310
F5F5F5F5F5F5F5F5F5F5F5F5F5F5F5F5F5F5F5F5F5F5F5F5F5F5F5F5F5F5F5F5F5F5F5F5F5F5F5F5F5F5F5F5F5F5F5F5F5F5F5F5F5F5F5F5F5F5F5F5F5F5F5F5F5F5F5F5F5F5F5E2F5F5F5E2E2F5F5F5E2F5F5F5F5F5F5F5F5F5F5F5F5F5F5F5F5F5F5F5F5F5F5F5F5F5F5F5F5F5F5F5F5F5F5F5F5F5F5F5F5F5F5F5F5F5F5
310
F5F5F5F5F5F5F5F5F5F5F5F5F5F5F5F5F5F5F5F5F5F5F5F5F5F5F5F5F5F5F5F5F5F5F5F5F5F5F5F5F5F5F5F5F5F5F5F5F5F5F5F5F5F5F5F5F5F5F5F5F5F5F5F5F5F5F5F5F5F5F5F5F5F5F5F5F5F5F5F5F5F5F5F5F5F5F5F5F5F5F5F5F5F5F5F5F5F5F5F5F5F5F5F5F5F5F5F5F5F5F5F5F5F5F5F5F5F5F5F5F5F5F5F5E2F5F5
310
F5E2E2F5F5F5E2F5F5F5F5F5F5F5F5F5F5F5F5F5F5F5F5F5F5F5F5F5F5F5F5F5F5F5F5F5F5F5F5F5F5F5F5F5F5F5F5F5F5F5F5F5F5F5F5F5F5F5F5F5F5F5F5F5F5F5F5F5F5F5F5F5F5F5F5F5F5F5F5F5F5F5F5F5F5F5F5F5F5F5F5F5F5F5F5F5F5F5F5F5F5F5F5F5F5F5F5F5F5F5F5F5F5F5F5F5F5F5F5F5F5F5F5F5F5F5F5
310
F5F5F5F5F5F5F5F5F5F5F5F5F5F5F5F5F5F5F5F5F5F5F5F5F5F5F5F5F5F5F5F5F5F5F5F5F5F5F5F5F5F5F5F5F5F5F5F5F5F5E2F5F5F5E2E2F5F5F5E2F5F5F5F5F5F5F5F5F5F5F5F5F5F5F5F5F5F5F5F5F5F5F5F5F5F5F5F5F5F5F5F5F5F5F5F5F5F5F5F5F5F5F5F5F5F5F5F5F5F5F5F5F5F5F5F5F5F5F5F5F5F5F5F5F5F5F5
310
F5F5F5F5F5F5F5F5F5F5F5F5F5F5F5F5F5F5F5F5F5F5F5F5F5F5F5F5F5F5F5F5F5F5F5F5F5F5F5F5F5F5F5F5F5F5F5F5F5F5F5F5F5F5F5F5F5F5F5F5F5F5F5F5F5F5F5F5F5F5F5F5F5F5F5F5F5F5F5F5F5F5F5F5F5F5F5F5F5F5F5F5F5F5F5F5F5F5F5F5F5F5F5E2F5F5F5E2E2F5F5F5E2F5F5F5F5F5F5F5F5F5F5F5F5F5F5
310
F5F5F5F5F5F5F5F5F5F5F5F5F5F5F5F5F5F5F5F5F5F5F5F5F5F5F5F5F5F5F5F5F5F5F5F5F5F5F5F5F5F5F5F5F5F5F5F5F5F5F5F5F5F5F5F5F5F5F5F5F5F5F5F5F5F5F5F5F5F5F5F5F5F5F5F5F5F5F5F5F5F5F5F5F5F5F5F5F5F5F5F5F5F5F5F5F5F5F5F5F5F5F5F5F5F5F5F5F5F5F5F5F5F5F5F5F5F5F5F5F5F5F5F5F5F5F5
310
F5F5F5F5F5F5F5F5F5F5F5F5F5F5F5F5F5F5F5F5F5F5F5F5F5F5F5F5F5E2F5F5F5E2E2F5F5F5E2F5F5F5F5F5F5F5F5F5F5F5F5F5F5F5F5F5F5F5F5F5F5F5F5F5F5F5F5F5F5F5F5F5F5F5F5F5F5F5F5F5F5F5F5F5F5F5F5F5F5F5F5F5F5F5F5F5F5F5F5F5F5F5F5F5F5F5F5F5F5F5F5F5F5F5F5F5F5F5F5F5F5F5F5F5F5F5F5
310
F5F5F5F5F5F5F5F5F5F5F5F5F5F5F5F5F5F5F5F5F5F5F5F5F5F5F5F5F5F5F5F5F5F5F5F5F5F5F5F5F5F5F5F5F5F5F5F5F5F5F5F5F5F5F5F5F5F5F5F5F5F5F5F5F5F5F5F5F5F5F5F5F5F5F5F5F5F5F5F5F5F5E2F5F5F5E2E2F5F5F5E2F5F5F5F5F5F5F5F5F5F5F5F5F5F5F5F5F5F5F5F5F5F5F5F5F5F5F5F5F5F5F5F5F5F5F5
310
F5F5F5F5F5F5F5F5F5F5F5F5F5F5F5F5F5F5F5F5F5F5F5F5F5F5F5F5F5F5F5F5F5F5F5F5F5F5F5F5F5F5F5F5F5F5F5F5F5F5F5F5F5F5F5F5F5F5F5F5F5F5F5F5F5F5F5F5F5F5F5F5F5F5F5F5F5F5F5F5F5F5F5F5F5F5F5F5F5F5F5F5F5F5F5F5F5F5F5F5F5F5F5F5F5F5F5F5F5F5F5F5F5F5F5F5F5F5F5F5F5F5F5F5F5F5F5
310
F5F5F5F5F5F5F5F5E2F5F5F5E2E2F5F5F5E2F5F5F5F5F5F5F5F5F5F5F5F5F5F5F5F5F5F5F5F5F5F5F5F5F5F5F5F5F5F5F5F5F5F5F5F5F5F5F5F5F5F5F5F5F5F5F5F5F5F5F5F5F5F5F5F5F5F5F5F5F5F5F5F5F5F5F5F5F5F5F5F5F5F5F5F5F5F5F5F5F5F5F5F5F5F5F5F5F5F5F5F5F5F5F5F5F5F5F5F5F5F5F5F5F5F5F5F5F5
310
F5F5F5F5F5F5F5F5F5F5F5F5F5F5F5F5F5F5F5F5F5F5F5F5F5F5F5F5F5F5F5F5F5F5F5F5F5F5F5F5F5F5F5F5F5F5F5F5F5F5F5F5F5F5F5F5F5F5F5F5F5E2F5F5F5E2E2F5F5F5E2F5F5F5F5F5F5F5F5F5F5F5F5F5F5F5F5F5F5F5F5F5F5F5F5F5F5F5F5F5F5F5F5F5F5F5F5F5F5F5F5F5F5F5F5F5F5F5F5F5F5F5F5F5F5F5F5
310
F5F5F5F5F5F5F5F5F5F5F5F5F5F5F5F5F5F5F5F5F5F5F5F5F5F5F5F5F5F5F5F5F5F5F5F5F5F5F5F5F5F5F5F5F5F5F5F5F5F5F5F5F5F5F5F5F5F5F5F5F5F5F5F5F5F5F5F5F5F5F5F5F5F5F5F5F5F5F5F5F5F5F5F5F5F5F5F5F5F5F5F5F5F5F5F5F5F5F5F5F5F5F5F5F5F5F5F5F5F5F5F5F5F5E2F5F5F5E2E2F5F5F5F5F5F5F5
310
F5F5F5F5F5F5F5F5F5F5F5F5F5F5F5F5F5F5F5F5F5F5F5F5F5F5F5F5F5F5F5F5F5F5F5F5F5F5F5F5F5F5F5F5F5F5F5F5F5F5F5F5F5F5F5F5F5F5F5F5F5F5F5F5F5F5F5F5F5F5F5F5F5F5F5F5F5F5F5F5F5F5F5F5F5F5F5F5F5F5F5F5F5F5F5F5F5F5F5F5F5F5F5F5F5F5F5F5F5F5F5F5F5F5F5F5F5F5F5F5F5F5F5F5F5F5F5
310
F5F5F5F5F5F5F5F5F5F5F5F5F5F5F5F5F5F5F5F5F5F5F5F5F5F5F5F5F5F5F5F5F5F5F5F5F5F5F5F5F5F5F5F5E2E2F5F5F5F5F5F5F5F5F5F5F5F5F5F5F5F5F5F5F5F5F5F5F5F5F5F5F5F5F5F5F5F5F5F5F5F5F5F5F5F5F5F5F5F5F5F5F5F5F5F5F5F5F5F5F5F5F5F5F5F5F5F5F5F5F5F5F5F5F5F5F5F5F5F5F5F5F5F5F5F5F5
310
F5F5F5F5F5F5F5F5F5F5F5F5F5F5F5F5F5F5F5F5F5F5F5F5F5F5F5F5F5F5F5F5F5F5F5F5F5F5F5F5F5F5F5F5F5F5F5F5F5F5F5F5F5F5F5F5F5F5F5F5F5F5F5F5F5F5F5F5F5F5F5F5F5F5F5F5F5F5F5F5F5F5F5F5F5F5F5F5F5F5F5F5F5F5F5F5F5E2E2F5F5F5F5F5F5F5F5F5F5F5F5F5F5F5F5F5F5F5F5F5F5F5F5F5F5F5F5
310
F5F5F5F5F5F5F5F5F5F5F5F5F5F5F5F5F5F5F5F5F5F5F5F5F5F5F5F5F5F5F5F5F5F5F5F5F5F5F5F5F5F5F5F5F5F5F5F5F5F5F5F5F5F5F5F5F5F5F5F5F5F5F5F5F5F5F5F5F5F5F5F5F5F5F5F5F5F5F5F5F5F5F5F5F5F5F5F5F5F5F5F5F5F5F5F5F5F5F5F5F5F5F5F5F5F5F5F5F5F5F5F5F5F5F5F5F5F5F5F5F5F5F5F5F5F5F5
310
F5F5F5F5F5F5F5F5F5F5F5F5F5F5F5F5F5F5F5F5F5F5F5E2E2F5F5F5F5F5F5F5F5F5F5F5F5F5F5F5F5F5F5F5F5F5F5F5F5F5F5F5F5F5F5F5F5F5F5F5F5F5F5F5F5F5F5F5F5F5F5F5F5F5F5F5F5F5F5F5F5F5F5F5F5F5F5F5F5F5F5F5F5F5F5F5F5F5F5F5F5F5F5F5F5F5F5F5F5F5F5F5F5F5F5F5F5F5F5F5F5F5F5F5F5F5F5
310
F5F5F5F5F5F5F5F5F5F5F5F5F5F5F5F5F5F5F5F5F5F5F5F5F5F5F5F5F5F5F5F5F5F5F5F5F5F5F5F5F5F5F5F5F5F5F5F5F5F5F5F5F5F5F5F5F5F5F5F5F5F5F5F5F5F5F5F5F5F5F5F5F5F5F5F5E2E2F5F5F5F5F5F5F5F5F5F5F5F5F5F5F5F5F5F5F5F5F5F5F5F5F5F5F5F5F5F5F5F5F5F5F5F5F5F5F5F5F5F5F5F5F5F5F5F5F5
310
F5F5F5F5F5F5F5F5F5F5F5F5F5F5F5F5F5F5F5F5F5F5F5F5F5F5F5F5F5F5F5F5F5F5F5F5F5F5F5F5F5F5F5F5F5F5F5F5F5F5F5F5F5F5F5F5F5F5F5F5F5F5F5F5F5F5F5F5F5F5F5F5F5F5F5F5F5F5F5F5F5F5F5F5F5F5F5F5F5F5F5F5F5F5F5F5F5F5F5F5F5F5F5F5F5F5F5F5F5F5F5F5F5F5F5F5F5F5F5F5F5F5F5F5F5F5F5
310
F5F5E2E2F5F5F5F5F5F5F5F5F5F5F5F5F5F5F5F5F5F5F5F5F5F5F5F5F5F5F5F5F5F5F5F5F5F5F5F5F5F5F5F5F5F5F5F5F5F5F5F5F5F5F5F5F5F5F5F5F5F5F5F5F5F5F5F5F5F5F5F5F5F5F5F5F5F5F5F5F5F5F5F5F5F5F5F5F5F5F5F5F5F5F5F5F5F5F5F5F5F5F5F5F5F5F5F5F5F5F5F5F5F5F5F5F5F5F5F5F5F5F5F5F5F5F5
310
F5F5F5F5F5F5F5F5F5F5F5F5F5F5F5F5F5F5F5F5F5F5F5F5F5F5F5F5F5F5F5F5F5F5F5F5F5F5F5F5F5F5F5F5F5F5F5F5F5F5F5F5F5F5F5E2E2F5F5F5F5F5F5F5F5F5F5F5F5F5F5F5F5F5F5F5F5F5F5F5F5F5F5F5F5F5F5F5F5F5F5F5F5F5F5F5F5F5F5F5F5F5F5F5F5F5F5F5F5F5F5F5F5F5F5F5F5F5F5F5F5F5F5F5F5F5F5
310
F5F5F5F5F5F5F5F5F5F5F5F5F5F5F5F5F5F5F5F5F5F5F5F5F5F5F5F5F5F5F5F5F5F5F5F5F5F5F5F5F5F5F5F5F5F5F5F5F5F5F5F5F5F5F5F5F5F5F5F5F5F5F5F5F5F5F5F5F5F5F5F5F5F5F5F5F5F5F5F5F5F5F5F5F5F5F5F5F5F5F5F5F5F5F5F5F5F5F5F5F5F5F5F5F5F5F5F5E2E2F5F5F5F5F5F5F5F5F5F5F5F5F5F5F5F5F5
310
F5F5F5F5F5F5F5F5F5F5F5F5F5F5F5F5F5F5F5F5F5F5F5F5F5F5F5F5F5F5F5F5F5F5F5F5F5F5F5F5F5F5F5F5F5F5F5F5F5F5F5F5F5F5F5F5F5F5F5F5F5F5F5F5F5F5F5F5F5F5F5F5F5F5F5F5F5F5F5F5F5F5F5F5F5F5F5F5F5F5F5F5F5F5F5F5F5F5F5F5F5F5F5F5F5F5F5F5F5F5F5F5F5F5F5F5F5F5F5F5F5F5F5F5F5F5F5
310
F5F5F5F5F5F5F5F5F5F5F5F5F5F5F5F5F5F5F5F5F5F5F5F5F5F5F5F5F5F5F5F5F5F5E2E2F5F5F5F5F5F5F5F5F5F5F5F5F5F5F5F5F5F5F5F5F5F5F5F5F5F5F5F5F5F5F5F5F5F5F5F5F5F5F5F5F5F5F5F5F5F5F5F5F5F5F5F5F5F5F5F5F5F5F5F5F5F5F5F5F5F5F5F5F5F5F5F5F5F5F5F5F5F5F5F5F5F5F5F5F5F5F5F5F5F5F5
310
F5F5F5F5F5F5F5F5F5F5F5F5F5F5F5F5F5F5F5F5F5F5F5F5F5F5F5F5F5F5F5F5F5F5F5F5F5F5F5F5F5F5F5F5F5F5F5F5F5F5F5F5F5F5F5F5F5F5F5F5F5F5F5F5F5F5F5F5F5F5F5F5F5F5F5F5F5F5F5F5F5F5F5F5F5F5F5E2E2F5F5F5F5F5F5F5F5F5F5F5F5F5F5F5F5F5F5F5F5F5F5F5F5F5F5F5F5F5F5F5F5F5F5F5F5F5F5
310
F5F5F5F5F5F5F5F5F5F5F5F5F5F5F5F5F5F5F5F5F5F5F5F5F5F5F5F5F5F5F5F5F5F5F5F5F5F5F5F5F5F5F5F5F5F5F5F5F5F5F5F5F5F5F5F5F5F5F5F5F5F5F5F5F5F5F5F5F5F5F5F5F5F5F5F5F5F5F5F5F5F5F5F5F5F5F5F5F5F5F5F5F5F5F5F5F5F5F5F5F5F5F5F5F5F5F5F5F5F5F5F5F5F5F5F5F5F5F5F5F5F5F5F5F5F5F5
310
F5F5F5F5F5F5F5F5F5F5F5F5F5E2E2F5F5F5E2F5F5F5F5F5F5F5F5F5F5F5F5F5F5F5F5F5F5F5F5F5F5F5F5F5F5F5F5F5F5F5F5F5F5F5F5F5F5F5F5F5F5F5F5F5F5F5F5F5F5F5F5F5F5F5F5F5F5F5F5F5F5F5F5F5F5F5F5F5F5F5F5F5F5F5F5F5F5F5F5F5F5F5F5F5F5F5F5F5F5F5F5F5F5F5F5F5F5F5F5F5F5F5F5F5F5F5F5
310
F5F5F5F5F5F5F5F5F5F5F5F5F5F5F5F5F5F5F5F5F5F5F5F5F5F5F5F5F5F5F5F5F5F5F5F5F5F5F5F5F5F5F5F5F5F5F5F5F5F5F5F5F5F5F5F5F5F5F5F5F5F5E2F5F5F5E2E2F5F5F5E2F5F5F5F5F5F5F5F5F5F5F5F5F5F5F5F5F5F5F5F5F5F5F5F5F5F5F5F5F5F5F5F5F5F5F5F5F5F5F5F5F5F5F5F5F5F5F5F5F5F5F5F5F5F5F5
310
F5F5F5F5F5F5F5F5F5F5F5F5F5F5F5F5F5F5F5F5F5F5F5F5F5F5F5F5F5F5F5F5F5F5F5F5F5F5F5F5F5F5F5F5F5F5F5F5F5F5F5F5F5F5F5F5F5F5F5F5F5F5F5F5F5F5F5F5F5F5F5F5F5F5F5F5F5F5F5F5F5F5F5F5F5F5F5F5F5F5F5F5F5F5F5F5F5F5F5F5F5F5F5F5F5F5F5F5F5F5F5F5F5F5F5E2F5F5F5E2E2F5F5F5E2F5F5
310
F5F5F5F5F5F5F5F5F5F5F5F5F5F5F5F5F5F5F5F5F5F5F5F5F5F5F5F5F5F5F5F5F5F5F5F5F5F5F5F5F5F5F5F5F5F5F5F5F5F5F5F5F5F5F5F5F5F5F5F5F5F5F5F5F5F5F5F5F5F5F5F5F5F5F5F5F5F5F5F5F5F5F5F5F5F5F5F5F5F5F5F5F5F5F5F5F5F5F5F5F5F5F5F5F5F5F5F5F5F5F5F5F5F5F5F5F5F5F5F5F5F5F5F5F5F5F5
310
F5F5F5F5F5F5F5F5F5F5F5F5F5F5F5F5F5F5F5F5F5F5F5F5F5F5F5F5F5F5F5F5F5F5F5F5F5F5F5F5F5E2F5F5F5E2E2F5F5F5E2F5F5F5F5F5F5F5F5F5F5F5F5F5F5F5F5F5F5F5F5F5F5F5F5F5F5F5F5F5F5F5F5F5F5F5F5F5F5F5F5F5F5F5F5F5F5F5F5F5F5F5F5F5F5F5F5F5F5F5F5F5F5F5F5F5F5F5F5F5F5F5F5F5F5F5F5
310
F5F5F5F5F5F5F5F5F5F5F5F5F5F5F5F5F5F5F5F5F5F5F5F5F5F5F5F5F5F5F5F5F5F5F5F5F5F5F5F5F5F5F5F5F5F5F5F5F5F5F5F5F5F5F5F5F5F5F5F5F5F5F5F5F5F5F5F5F5F5F5F5F5F5F5F5F5F5F5F5F5F5F5F5F5F5F5F5F5F5F5F5F5F5E2F5F5F5E2E2F5F5F5E2F5F5F5F5F5F5F5F5F5F5F5F5F5F5F5F5F5F5F5F5F5F5F5
310
F5F5F5F5F5F5F5F5F5F5F5F5F5F5F5F5F5F5F5F5F5F5F5F5F5F5F5F5F5F5F5F5F5F5F5F5F5F5F5F5F5F5F5F5F5F5F5F5F5F5F5F5F5F5F5F5F5F5F5F5F5F5F5F5F5F5F5F5F5F5F5F5F5F5F5F5F5F5F5F5F5F5F5F5F5F5F5F5F5F5F5F5F5F5F5F5F5F5F5F5F5F5F5F5F5F5F5F5F5F5F5F5F5F5F5F5F5F5F5F5F5F5F5F5F5F5F5
310
F5F5F5F5F5F5F5F5F5F5F5F5F5F5F5F5F5F5F5F5E2F5F5F5E2E2F5F5F5E2F5F5F5F5F5F5F5F5F5F5F5F5F5F5F5F5F5F5F5F5F5F5F5F5F5F5F5F5F5F5F5F5F5F5F5F5F5F5F5F5F5F5F5F5F5F5F5F5F5F5F5F5F5F5F5F5F5F5F5F5F5F5F5F5F5F5F5F5F5F5F5F5F5F5F5F5F5F5F5F5F5F5F5F5F5F5F5F5F5F5F5F5F5F5F5F5F5
310
F5F5F5F5F5F5F5F5F5F5F5F5F5F5F5F5F5F5F5F5F5F5F5F5F5F5F5F5F5F5F5F5F5F5F5F5F5F5F5F5F5F5F5F5F5F5F5F5F5F5F5F5F5F5F5F5F5F5F5F5F5F5F5F5F5F5F5F5F5F5F5F5F5E2F5F5F5E2E2F5F5F5E2F5F5F5F5F5F5F5F5F5F5F5F5F5F5F5F5F5F5F5F5F5F5F5F5F5F5F5F5F5F5F5F5F5F5F5F5F5F5F5F5F5F5F5F5
310
F5F5F5F5F5F5F5F5F5F5F5F5F5F5F5F5F5F5F5F5F5F5F5F5F5F5F5F5F5F5F5F5F5F5F5F5F5F5F5F5F5F5F5F5F5F5F5F5F5F5F5F5F5F5F5F5F5F5F5F5F5F5F5F5F5F5F5F5F5F5F5F5F5F5F5F5F5F5F5F5F5F5F5F5F5F5F5F5F5F5F5F5F5F5F5F5F5F5F5F5F5F5F5F5F5F5F5F5F5F5F5F5F5F5F5F5F5F5F5F5F5F5F5F5F5F5E2
310
F5F5F5E2E2F5F5F5E2F5F5F5F5F5F5F5F5F5F5F5F5F5F5F5F5F5F5F5F5F5F5F5F5F5F5F5F5F5F5F5F5F5F5F5F5F5F5F5F5F5F5F5F5F5F5F5F5F5F5F5F5F5F5F5F5F5F5F5F5F5F5F5F5F5F5F5F5F5F5F5F5F5F5F5F5F5F5F5F5F5F5F5F5F5F5F5F5F5F5F5F5F5F5F5F5F5F5F5F5F5F5F5F5F5F5F5F5F5F5F5F5F5F5F5F5F5F5
310
F5F5F5F5F5F5F5F5F5F5F5F5F5F5F5F5F5F5F5F5F5F5F5F5F5F5F5F5F5F5F5F5F5F5F5F5F5F5F5F5F5F5F5F5F5F5F5F5F5F5F5F5E2F5F5F5E2E2F5F5F5E2F5F5F5F5F5F5F5F5F5F5F5F5F5F5F5F5F5F5F5F5F5F5F5F5F5F5F5F5F5F5F5F5F5F5F5F5F5F5F5F5F5F5F5F5F5F5F5F5F5F5F5F5F5F5F5F5F5F5F5F5F5F5F5F5F5
310
F5F5F5F5F5F5F5F5F5F5F5F5F5F5F5F5F5F5F5F5F5F5F5F5F5F5F5F5F5F5F5F5F5F5F5F5F5F5F5F5F5F5F5F5F5F5F5F5F5F5F5F5F5F5F5F5F5F5F5F5F5F5F5F5F5F5F5F5F5F5F5F5F5F5F5F5F5F5F5F5F5F5F5F5F5F5F5F5F5F5F5F5F5F5F5F5F5F5F5F5F5F5F5F5F5E2F5F5F5E2E2F5F5F5E2F5F5F5F5F5F5F5F5F5F5F5F5
310
F5F5F5F5F5F5F5F5F5F5F5F5F5F5F5F5F5F5F5F5F5F5F5F5F5F5F5F5F5F5F5F5F5F5F5F5F5F5F5F5F5F5F5F5F5F5F5F5F5F5F5F5F5F5F5F5F5F5F5F5F5F5F5F5F5F5F5F5F5F5F5F5F5F5F5F5F5F5F5F5F5F5F5F5F5F5F5F5F5F5F5F5F5F5F5F5F5F5F5F5F5F5F5F5F5F5F5F5F5F5F5F5F5F5F5F5F5F5F5F5F5F5F5F5F5F5F5
310
F5F5F5F5F5F5F5F5F5F5F5F5F5F5F5F5F5F5F5F5F5F5F5F5F5F5F5F5F5F5F5E2F5F5F5E2E2F5F5F5E2F5F5F5F5F5F5F5F5F5F5F5F5F5F5F5F5F5F5F5F5F5F5F5F5F5F5F5F5F5F5F5F5F5F5F5F5F5F5F5F5F5F5F5F5F5F5F5F5F5F5F5F5F5F5F5F5F5F5F5F5F5F5F5F5F5F5F5F5F5F5F5F5F5F5F5F5F5F5F5F5F5F5F5F5F5F5
310
F5F5F5F5F5F5F5F5F5F5F5F5F5F5F5F5F5F5F5F5F5F5F5F5F5F5F5F5F5F5F5F5F5F5F5F5F5F5F5F5F5F5F5F5F5F5F5F5F5F5F5F5F5F5F5F5F5F5F5F5F5F5F5F5F5F5F5F5F5F5F5F5F5F5F5F5F5F5F5F5F5F5F5F5E2F5F5F5E2E2F5F5F5E2F5F5F5F5F5F5F5F5F5F5F5F5F5F5F5F5F5F5F5F5F5F5F5F5F5F5F5F5F5F5F5F5F5
310
F5F5F5F5F5F5F5F5F5F5F5F5F5F5F5F5F5F5F5F5F5F5F5F5F5F5F5F5F5F5F5F5F5F5F5F5F5F5F5F5F5F5F5F5F5F5F5F5F5F5F5F5F5F5F5F5F5F5F5F5F5F5F5F5F5F5F5F5F5F5F5F5F5F5F5F5F5F5F5F5F5F5F5F5F5F5F5F5F5F5F5F5F5F5F5F5F5F5F5F5F5F5F5F5F5F5F5F5F5F5F5F5F5F5F5F5F5F5F5F5F5F5F5F5F5F5F5
310
F5F5F5F5F5F5F5F5F5F5E2F5F5F5E2E2F5F5F5E2F5F5F5F5F5F5F5F5F5F5F5F5F5F5F5F5F5F5F5F5F5F5F5F5F5F5F5F5F5F5F5F5F5F5F5F5F5F5F5F5F5F5F5F5F5F5F5F5F5F5F5F5F5F5F5F5F5F5F5F5F5F5F5F5F5F5F5F5F5F5F5F5F5F5F5F5F5F5F5F5F5F5F5F5F5F5F5F5F5F5F5F5F5F5F5F5F5F5F5F5F5F5F5F5F5F5F5
310
F5F5F5F5F5F5F5F5F5F5F5F5F5F5F5F5F5F5F5F5F5F5F5F5F5F5F5F5F5F5F5F5F5F5F5F5F5F5F5F5F5F5F5F5F5F5F5F5F5F5F5F5F5F5F5F5F5F5F5F5F5F5F5E2F5F5F5E2E2F5F5F5E2F5F5F5F5F5F5F5F5F5F5F5F5F5F5F5F5F5F5F5F5F5F5F5F5F5F5F5F5F5F5F5F5F5F5F5F5F5F5F5F5F5F5F5F5F5F5F5F5F5F5F5F5F5F5
310
F5F5F5F5F5F5F5F5F5F5F5F5F5F5F5F5F5F5F5F5F5F5F5F5F5F5F5F5F5F5F5F5F5F5F5F5F5F5F5F5F5F5F5F5F5F5F5F5F5F5F5F5F5F5F5F5F5F5F5F5F5F5F5F5F5F5F5F5F5F5F5F5F5F5F5F5F5F5F5F5F5F5F5F5F5F5F5F5F5F5F5F5F5F5F5F5F5F5F5F5F5F5F5F5F5F5F5F5F5F5F5F5F5F5F5F5E2F5F5F5E2E2F5F5F5E2F5
310
F5F5F5F5F5F5F5F5F5F5F5F5F5F5F5F5F5F5F5F5F5F5F5F5F5F5F5F5F5F5F5F5F5F5F5F5F5F5F5F5F5F5F5F5F5F5F5F5F5F5F5F5F5F5F5F5F5F5F5F5F5F5F5F5F5F5F5F5F5F5F5F5F5F5F5F5F5F5F5F5F5F5F5F5F5F5F5F5F5F5F5F5F5F5F5F5F5F5F5F5F5F5F5F5F5F5F5F5F5F5F5F5F5F5F5F5F5F5F5F5F5F5F5F5F5F5F5
310
F5F5F5F5F5F5F5F5F5F5F5F5F5F5F5F5F5F5F5F5F5F5F5F5F5F5F5F5F5F5F5F5F5F5F5F5F5F5F5F5F5F5E2F5F5F5E2E2F5F5F5E2F5F5F5F5F5F5F5F5F5F5F5F5F5F5F5F5F5F5F5F5F5F5F5F5F5F5F5F5F5F5F5F5F5F5F5F5F5F5F5F5F5F5F5F5F5F5F5F5F5F5F5F5F5F5F5F5F5F5F5F5F5F5F5F5F5F5F5F5F5F5F5F5F5F5F5
310
F5F5F5F5F5F5F5F5F5F5F5F5F5F5F5F5F5F5F5F5F5F5F5F5F5F5F5F5F5F5F5F5F5F5F5F5F5F5F5F5F5F5F5F5F5F5F5F5F5F5F5F5F5F5F5F5F5F5F5F5F5F5F5F5F5F5F5F5F5F5F5F5F5F5F5F5F5F5F5F5F5F5F5F5F5F5F5F5F5F5F5F5F5F5F5E2F5F5F5E2E2F5F5F5F5F5F5F5F5F5F5F5F5F5F5F5F5F5F5F5F5F5F5F5F5F5F5
310
F5F5F5F5F5F5F5F5F5F5F5F5F5F5F5F5F5F5F5F5F5F5F5F5F5F5F5F5F5F5F5F5F5F5F5F5F5F5F5F5F5F5F5F5F5F5F5F5F5F5F5F5F5F5F5F5F5F5F5F5F5F5F5F5F5F5F5F5F5F5F5F5F5F5F5F5F5F5F5F5F5F5F5F5F5F5F5F5F5F5F5F5F5F5F5F5F5F5F5F5F5F5F5F5F5F5F5F5F5F5F5F5F5F5F5F5F5F5F5F5F5F5F5F5F5F5F5
310
F5F5F5F5F5F5F5F5F5F5F5F5F5F5F5F5F5F5F5F5F5F5F5F5F5E2E2F5F5F5F5F5F5F5F5F5F5F5F5F5F5F5F5F5F5F5F5F5F5F5F5F5F5F5F5F5F5F5F5F5F5F5F5F5F5F5F5F5F5F5F5F5F5F5F5F5F5F5F5F5F5F5F5F5F5F5F5F5F5F5F5F5F5F5F5F5F5F5F5F5F5F5F5F5F5F5F5F5F5F5F5F5F5F5F5F5F5F5F5F5F5F5F5F5F5F5F5
310
F5F5F5F5F5F5F5F5F5F5F5F5F5F5F5F5F5F5F5F5F5F5F5F5F5F5F5F5F5F5F5F5F5F5F5F5F5F5F5F5F5F5F5F5F5F5F5F5F5F5F5F5F5F5F5F5F5F5F5F5F5F5F5F5F5F5F5F5F5F5F5F5F5F5F5F5F5F5E2E2F5F5F5F5F5F5F5F5F5F5F5F5F5F5F5F5F5F5F5F5F5F5F5F5F5F5F5F5F5F5F5F5F5F5F5F5F5F5F5F5F5F5F5F5F5F5F5
310
F5F5F5F5F5F5F5F5F5F5F5F5F5F5F5F5F5F5F5F5F5F5F5F5F5F5F5F5F5F5F5F5F5F5F5F5F5F5F5F5F5F5F5F5F5F5F5F5F5F5F5F5F5F5F5F5F5F5F5F5F5F5F5F5F5F5F5F5F5F5F5F5F5F5F5F5F5F5F5F5F5F5F5F5F5F5F5F5F5F5F5F5F5F5F5F5F5F5F5F5F5F5F5F5F5F5F5F5F5F5F5F5F5F5F5F5F5F5F5F5F5F5F5F5F5F5F5
310
F5F5F5F5E2E2F5F5F5F5F5F5F5F5F5F5F5F5F5F5F5F5F5F5F5F5F5F5F5F5F5F5F5F5F5F5F5F5F5F5F5F5F5F5F5F5F5F5F5F5F5F5F5F5F5F5F5F5F5F5F5F5F5F5F5F5F5F5F5F5F5F5F5F5F5F5F5F5F5F5F5F5F5F5F5F5F5F5F5F5F5F5F5F5F5F5F5F5F5F5F5F5F5F5F5F5F5F5F5F5F5F5F5F5F5F5F5F5F5F5F5F5F5F5F5F5F5
310
F5F5F5F5F5F5F5F5F5F5F5F5F5F5F5F5F5F5F5F5F5F5F5F5F5F5F5F5F5F5F5F5F5F5F5F5F5F5F5F5F5F5F5F5F5F5F5F5F5F5F5F5F5F5F5F5F5E2E2F5F5F5F5F5F5F5F5F5F5F5F5F5F5F5F5F5F5F5F5F5F5F5F5F5F5F5F5F5F5F5F5F5F5F5F5F5F5F5F5F5F5F5F5F5F5F5F5F5F5F5F5F5F5F5F5F5F5F5F5F5F5F5F5F5F5F5F5
310
F5F5F5F5F5F5F5F5F5F5F5F5F5F5F5F5F5F5F5F5F5F5F5F5F5F5F5F5F5F5F5F5F5F5F5F5F5F5F5F5F5F5F5F5F5F5F5F5F5F5F5F5F5F5F5F5F5F5F5F5F5F5F5F5F5F5F5F5F5F5F5F5F5F5F5F5F5F5F5F5F5F5F5F5F5F5F5F5F5F5F5F5F5F5F5F5F5F5F5F5F5F5F5F5F5F5F5F5F5F5E2E2F5F5F5F5F5F5F5F5F5F5F5F5F5F5F5
310
F5F5F5F5F5F5F5F5F5F5F5F5F5F5F5F5F5F5F5F5F5F5F5F5F5F5F5F5F5F5F5F5F5F5F5F5F5F5F5F5F5F5F5F5F5F5F5F5F5F5F5F5F5F5F5F5F5F5F5F5F5F5F5F5F5F5F5F5F5F5F5F5F5F5F5F5F5F5F5F5F5F5F5F5F5F5F5F5F5F5F5F5F5F5F5F5F5F5F5F5F5F5F5F5F5F5F5F5F5F5F5F5F5F5F5F5F5F5F5F5F5F5F5F5F5F5F5
310
F5F5F5F5F5F5F5F5F5F5F5F5F5F5F5F5F5F5F5F5F5F5F5F5F5F5F5F5F5F5F5F5F5F5F5F5E2E2F5F5F5F5F5F5F5F5F5F5F5F5F5F5F5F5F5F5F5F5F5F5F5F5F5F5F5F5F5F5F5F5F5F5F5F5F5F5F5F5F5F5F5F5F5F5F5F5F5F5F5F5F5F5F5F5F5F5F5F5F5F5F5F5F5F5F5F5F5F5F5F5F5F5F5F5F5F5F5F5F5F5F5F5F5F5F5F5F5
310
F5F5F5F5F5F5F5F5F5F5F5F5F5F5F5F5F5F5F5F5F5F5F5F5F5F5F5F5F5F5F5F5F5F5F5F5F5F5F5F5F5F5F5F5F5F5F5F5F5F5F5F5F5F5F5F5F5F5F5F5F5F5F5F5F5F5F5F5F5F5F5F5F5F5F5F5F5F5F5F5F5F5F5F5F5F5F5F5F5E2E2F5F5F5F5F5F5F5F5F5F5F5F5F5F5F5F5F5F5F5F5F5F5F5F5F5F5F5F5F5F5F5F5F5F5F5F5
310
F5F5F5F5F5F5F5F5F5F5F5F5F5F5F5F5F5F5F5F5F5F5F5F5F5F5F5F5F5F5F5F5F5F5F5F5F5F5F5F5F5F5F5F5F5F5F5F5F5F5F5F5F5F5F5F5F5F5F5F5F5F5F5F5F5F5F5F5F5F5F5F5F5F5F5F5F5F5F5F5F5F5F5F5F5F5F5F5F5F5F5F5F5F5F5F5F5F5F5F5F5F5F5F5F5F5F5F5F5F5F5F5F5F5F5F5F5F5F5F5F5F5F5F5F5F5F5
310
F5F5F5F5F5F5F5F5F5F5F5F5F5F5F5E2E2F5F5F5F5F5F5F5F5F5F5F5F5F5F5F5F5F5F5F5F5F5F5F5F5F5F5F5F5F5F5F5F5F5F5F5F5F5F5F5F5F5F5F5F5F5F5F5F5F5F5F5F5F5F5F5F5F5F5F5F5F5F5F5F5F5F5F5F5F5F5F5F5F5F5F5F5F5F5F5F5F5F5F5F5F5F5F5F5F5F5F5F5F5F5F5F5F5F5F5F5F5F5F5F5F5F5F5F5F5F5
310
F5F5F5F5F5F5F5F5F5F5F5F5F5F5F5F5F5F5F5F5F5F5F5F5F5F5F5F5F5F5F5F5F5F5F5F5F5F5F5F5F5F5F5F5F5F5F5F5F5F5F5F5F5F5F5F5F5F5F5F5F5F5F5F5F5F5F5F5E2E2F5F5F5E2F5F5F5F5F5F5F5F5F5F5F5F5F5F5F5F5F5F5F5F5F5F5F5F5F5F5F5F5F5F5F5F5F5F5F5F5F5F5F5F5F5F5F5F5F5F5F5F5F5F5F5F5F5
310
F5F5F5F5F5F5F5F5F5F5F5F5F5F5F5F5F5F5F5F5F5F5F5F5F5F5F5F5F5F5F5F5F5F5F5F5F5F5F5F5F5F5F5F5F5F5F5F5F5F5F5F5F5F5F5F5F5F5F5F5F5F5F5F5F5F5F5F5F5F5F5F5F5F5F5F5F5F5F5F5F5F5F5F5F5F5F5F5F5F5F5F5F5F5F5F5F5F5F5F5F5F5F5F5F5F5F5F5F5F5F5F5F5F5F5F5F5E2F5F5F5E2E2F5F5F5E2
310
F5F5F5F5F5F5F5F5F5F5F5F5F5F5F5F5F5F5F5F5F5F5F5F5F5F5F5F5F5F5F5F5F5F5F5F5F5F5F5F5F5F5F5F5F5F5F5F5F5F5F5F5F5F5F5F5F5F5F5F5F5F5F5F5F5F5F5F5F5F5F5F5F5F5F5F5F5F5F5F5F5F5F5F5F5F5F5F5F5F5F5F5F5F5F5F5F5F5F5F5F5F5F5F5F5F5F5F5F5F5F5F5F5F5F5F5F5F5F5F5F5F5F5F5F5F5F5
310
F5F5F5F5F5F5F5F5F5F5F5F5F5F5F5F5F5F5F5F5F5F5F5F5F5F5F5F5F5F5F5F5F5F5F5F5F5F5F5F5F5F5F5E2F5F5F5E2E2F5F5F5E2F5F5F5F5F5F5F5F5F5F5F5F5F5F5F5F5F5F5F5F5F5F5F5F5F5F5F5F5F5F5F5F5F5F5F5F5F5F5F5F5F5F5F5F5F5F5F5F5F5F5F5F5F5F5F5F5F5F5F5F5F5F5F5F5F5F5F5F5F5F5F5F5F5F5
310
F5F5F5F5F5F5F5F5F5F5F5F5F5F5F5F5F5F5F5F5F5F5F5F5F5F5F5F5F5F5F5F5F5F5F5F5F5F5F5F5F5F5F5F5F5F5F5F5F5F5F5F5F5F5F5F5F5F5F5F5F5F5F5F5F5F5F5F5F5F5F5F5F5F5F5F5F5F5F5F5F5F5F5F5F5F5F5F5F5F5F5F5F5F5F5F5E2F5F5F5E2E2F5F5F5E2F5F5F5F5F5F5F5F5F5F5F5F5F5F5F5F5F5F5F5F5F5
310
F5F5F5F5F5F5F5F5F5F5F5F5F5F5F5F5F5F5F5F5F5F5F5F5F5F5F5F5F5F5F5F5F5F5F5F5F5F5F5F5F5F5F5F5F5F5F5F5F5F5F5F5F5F5F5F5F5F5F5F5F5F5F5F5F5F5F5F5F5F5F5F5F5F5F5F5F5F5F5F5F5F5F5F5F5F5F5F5F5F5F5F5F5F5F5F5F5F5F5F5F5F5F5F5F5F5F5F5F5F5F5F5F5F5F5F5F5F5F5F5F5F5F5F5F5F5F5
310
F5F5F5F5F5F5F5F5F5F5F5F5F5F5F5F5F5F5F5F5F5F5E2F5F5F5E2E2F5F5F5E2F5F5F5F5F5F5F5F5F5F5F5F5F5F5F5F5F5F5F5F5F5F5F5F5F5F5F5F5F5F5F5F5F5F5F5F5F5F5F5F5F5F5F5F5F5F5F5F5F5F5F5F5F5F5F5F5F5F5F5F5F5F5F5F5F5F5F5F5F5F5F5F5F5F5F5F5F5F5F5F5F5F5F5F5F5F5F5F5F5F5F5F5F5F5F5
310
F5F5F5F5F5F5F5F5F5F5F5F5F5F5F5F5F5F5F5F5F5F5F5F5F5F5F5F5F5F5F5F5F5F5F5F5F5F5F5F5F5F5F5F5F5F5F5F5F5F5F5F5F5F5F5F5F5F5F5F5F5F5F5F5F5F5F5F5F5F5F5F5F5F5F5E2F5F5F5E2E2F5F5F5E2F5F5F5F5F5F5F5F5F5F5F5F5F5F5F5F5F5F5F5F5F5F5F5F5F5F5F5F5F5F5F5F5F5F5F5F5F5F5F5F5F5F5
310
F5F5F5F5F5F5F5F5F5F5F5F5F5F5F5F5F5F5F5F5F5F5F5F5F5F5F5F5F5F5F5F5F5F5F5F5F5F5F5F5F5F5F5F5F5F5F5F5F5F5F5F5F5F5F5F5F5F5F5F5F5F5F5F5F5F5F5F5F5F5F5F5F5F5F5F5F5F5F5F5F5F5F5F5F5F5F5F5F5F5F5F5F5F5F5F5F5F5F5F5F5F5F5F5F5F5F5F5F5F5F5F5F5F5F5F5F5F5F5F5F5F5F5F5F5F5F5
310
F5E2F5F5F5E2E2F5F5F5E2F5F5F5F5F5F5F5F5F5F5F5F5F5F5F5F5F5F5F5F5F5F5F5F5F5F5F5F5F5F5F5F5F5F5F5F5F5F5F5F5F5F5F5F5F5F5F5F5F5F5F5F5F5F5F5F5F5F5F5F5F5F5F5F5F5F5F5F5F5F5F5F5F5F5F5F5F5F5F5F5F5F5F5F5F5F5F5F5F5F5F5F5F5F5F5F5F5F5F5F5F5F5F5F5F5F5F5F5F5F5F5F5F5F5F5F5
310
F5F5F5F5F5F5F5F5F5F5F5F5F5F5F5F5F5F5F5F5F5F5F5F5F5F5F5F5F5F5F5F5F5F5F5F5F5F5F5F5F5F5F5F5F5F5F5F5F5F5F5F5F5F5E2F5F5F5E2E2F5F5F5E2F5F5F5F5F5F5F5F5F5F5F5F5F5F5F5F5F5F5F5F5F5F5F5F5F5F5F5F5F5F5F5F5F5F5F5F5F5F5F5F5F5F5F5F5F5F5F5F5F5F5F5F5F5F5F5F5F5F5F5F5F5F5F5
310
F5F5F5F5F5F5F5F5F5F5F5F5F5F5F5F5F5F5F5F5F5F5F5F5F5F5F5F5F5F5F5F5F5F5F5F5F5F5F5F5F5F5F5F5F5F5F5F5F5F5F5F5F5F5F5F5F5F5F5F5F5F5F5F5F5F5F5F5F5F5F5F5F5F5F5F5F5F5F5F5F5F5F5F5F5F5F5F5F5F5F5F5F5F5F5F5F5F5F5F5F5F5F5F5F5F5F5E2F5F5F5E2E2F5F5F5E2E2E2E2E2E2E2E2F5F5F5
310
F5F5F5F5F5F5E2E2E2E2E2E2E2E2E2E2E2E2E2E2E2E2F5F5F5F5F5F5F5F5F5E2E2E2E2E2E2E2E2E2E2E2E2E2E2E2F5F5F5F5F5F5F5F5F5E2E2E2E2E2E2E2E2E2E2E2E2E2E2E2E2F5F5F5F5F5F5F5F5E2E2E2E2E2E2E2E2E2E2E2E2E2E2E2E2F5F5F5F5F5F5F5F5F5E2E2E2E2E2E2E2E2E2E2E2E2E2E2E2F5F5F5F5F5F5F5F5
310
F5E2E2E2E2E2E2E2E2E2E2E2E2E2E2E2E2F5F5F5F5F5F5F5F5F5E2E2E2E2E2E2E2E2F5F5F5E2E2F5F5F5F5F5F5F5F5F5F5F5F5F5F5F5F5F5F5F5F5F5F5F5F5F5F5F5F5F5F5F5F5F5F5F5F5F5F5F5F5F5F5F5F5F5F5F5F5F5F5F5F5F5F5F5F5F5F5F5F5F5F5F5F5F5F5F5F5F5F5F5F5F5F5F5F5F5F5F5F5F5F5F5F5F5F5F5F5
310
F5F5F5F5F5F5F5F5F5F5F5F5F5F5F5F5F5F5F5F5F5F5F5F5F5F5F5F5F5F5F5F5F5F5F5F5F5F5F5F5F5F5F5F5F5F5F5F5F5F5F5F5F5F5F5F5F5F5F5F5F5F5F5F5F5F5F5F5F5F5F5F5F5F5F5F5F5F5F5F5F5F5F5F5F5F5F5F5F5F5E2E2F5F5F5F5F5F5F5F5F5F5F5F5F5F5F5F5F5F5F5F5F5F5F5F5F5F5F5F5F5F5F5F5F5F5F5
310
F5F5F5F5F5F5F5F5F5F5F5F5F5F5F5F5F5F5F5F5F5F5F5F5F5F5F5F5F5F5F5F5F5F5F5F5F5F5F5F5F5F5F5F5F5F5F5F5F5F5F5F5F5F5F5F5F5F5F5F5F5F5F5F5F5F5F5F5F5F5F5F5F5F5F5F5F5F5F5F5F5F5F5F5F5F5F5F5F5F5F5F5F5F5F5F5F5F5F5F5F5F5F5F5F5F5F5F5F5F5F5F5F5F5F5F5F5F5F5F5F5F5F5F5F5F5F5
310
F5F5F5F5F5F5F5F5F5F5F5F5F5F5F5F5E2E2F5F5F5F5F5F5F5F5F5F5F5F5F5F5F5F5F5F5F5F5F5F5F5F5F5F5F5F5F5F5F5F5F5F5F5F5F5F5F5F5F5F5F5F5F5F5F5F5F5F5F5F5F5F5F5F5F5F5F5F5F5F5F5F5F5F5F5F5F5F5F5F5F5F5F5F5F5F5F5F5F5F5F5F5F5F5F5F5F5F5F5F5F5F5F5F5F5F5F5F5F5F5F5F5F5F5F5F5F5
310
F5F5F5F5F5F5F5F5F5F5F5F5F5F5F5F5F5F5F5F5F5F5F5F5F5F5F5F5F5F5F5F5F5F5F5F5F5F5F5F5F5F5F5F5F5F5F5F5F5F5F5F5F5F5F5F5F5F5F5F5F5F5F5F5F5F5F5F5F5E2E2F5F5F5F5F5F5F5F5F5F5F5F5F5F5F5F5F5F5F5F5F5F5F5F5F5F5F5F5F5F5F5F5F5F5F5F5F5F5F5F5F5F5F5F5F5F5F5F5F5F5F5F5F5F5F5F5
310
F5F5F5F5F5F5F5F5F5F5F5F5F5F5F5F5F5F5F5F5F5F5F5F5F5F5F5F5F5F5F5F5F5F5F5F5F5F5F5F5F5F5F5F5F5F5F5F5F5F5F5F5F5F5F5F5F5F5F5F5F5F5F5F5F5F5F5F5F5F5F5F5F5F5F5F5F5F5F5F5F5F5F5F5F5F5F5F5F5F5F5F5F5F5F5F5F5F5F5F5F5F5F5F5F5F5F5F5F5F5F5F5F5F5F5F5F5F5F5F5F5F5E2E2E2E2E2
310
E2E2E2E2E2E2E2E2E2E2E2E2E2E2E2E2E2E2E2E2E2E2E2E2E2E2E2E2E2E2E2E2E2E2E2E2E2E2E2E2E2E2E2E2E2E2E2E2E2E2E2E2E2E2E2E2E2E2E2E2E2E2E2E2E2E2E2E2E2E2E2E2E2E2E2E2E2E2E2E2E2E2E2E2E2E2E2E2E2E2E2E2E2E2E2E2E2E2E2E2E2E2E2E2E2E2E2E2E2E2E2E2E2E2E2E2E2E2E2E2E2E2E2E2E2E2E2
310
E2E2E2E2E2E2E2E2E2E2E2E2E2E2E2E2E2E2E2E2E2E2E2E2E2E2E2E2E2E2E2E2E2E2E2E2E2E2E2E2E2E2E2E2E2E2E2E2E2
  0
XRECORD
  5
169D
102
{ACAD_REACTORS
330
169C
102
}
330
169C
100
AcDbXrecord
280
     1
102
SHADEPLOT
 70
     0
102
SHADEPLOTRESLEVEL
 70
     2
102
SHADEPLOTCUSTOMDPI
 70
   300
  0
XRECORD
  5
12CD
102
{ACAD_REACTORS
330
12CC
102
}
330
12CC
100
AcDbXrecord
280
     1
102
MATERIAL
148
0.0
149
0.0
149
0.0
 93
        0
 94
       63
282
     0
 72
     1
 77
     1
171
     1
175
     1
179
     1
273
     0
  0
XRECORD
  5
12CB
102
{ACAD_REACTORS
330
12CA
102
}
330
12CA
100
AcDbXrecord
280
     1
102
MATERIAL
148
0.0
149
0.0
149
0.0
 93
        0
 94
       63
282
     0
 72
     1
 77
     1
171
     1
175
     1
179
     1
273
     0
  0
XRECORD
  5
12CF
102
{ACAD_REACTORS
330
12CE
102
}
330
12CE
100
AcDbXrecord
280
     1
102
MATERIAL
148
0.0
149
0.0
149
0.0
 93
        0
 94
       63
282
     0
 72
     1
 77
     1
171
     1
175
     1
179
     1
273
     0
  0
XRECORD
  5
16A0
102
{ACAD_REACTORS
330
169F
102
}
330
169F
100
AcDbXrecord
280
     1
102
ACAD_ROUNDTRIP_PRE2007_TABLESTYLE
 90
      512
 91
        0
  1

 92
      512
 93
        0
  2

 94
      512
 95
        0
  3

  0
ENDSEC
  0
EOF
