  0
SECTION
  2
HEADER
  9
$ACADVER
  1
AC1015
  9
$ACADMAINTVER
 70
    20
  9
$DWGCODEPAGE
  3
ANSI_1252
  9
$INSBASE
 10
0.0
 20
0.0
 30
0.0
  9
$EXTMIN
 10
57.26860307518748
 20
19.36737954754472
 30
0.0
  9
$EXTMAX
 10
72.82138489230348
 20
35.30734487203029
 30
0.0
  9
$LIMMIN
 10
0.0
 20
0.0
  9
$LIMMAX
 10
17.0
 20
11.0
  9
$ORTHOMODE
 70
     1
  9
$REGENMODE
 70
     1
  9
$FILLMODE
 70
     1
  9
$QTEXTMODE
 70
     0
  9
$MIRRTEXT
 70
     1
  9
$LTSCALE
 40
1.0
  9
$ATTMODE
 70
     1
  9
$TEXTSIZE
 40
0.12
  9
$TRACEWID
 40
0.05
  9
$TEXTSTYLE
  7
ADESK1
  9
$CLAYER
  8
Part
  9
$CELTYPE
  6
BYLAYER
  9
$CECOLOR
 62
   256
  9
$CELTSCALE
 40
1.0
  9
$DISPSILH
 70
     0
  9
$DIMSCALE
 40
1.0
  9
$DIMASZ
 40
0.1
  9
$DIMEXO
 40
0.05
  9
$DIMDLI
 40
0.5
  9
$DIMRND
 40
0.0
  9
$DIMDLE
 40
0.0
  9
$DIMEXE
 40
0.1
  9
$DIMTP
 40
0.1
  9
$DIMTM
 40
0.1
  9
$DIMTXT
 40
0.12
  9
$DIMCEN
 40
0.0
  9
$DIMTSZ
 40
0.0
  9
$DIMTOL
 70
     0
  9
$DIMLIM
 70
     0
  9
$DIMTIH
 70
     1
  9
$DIMTOH
 70
     1
  9
$DIMSE1
 70
     0
  9
$DIMSE2
 70
     0
  9
$DIMTAD
 70
     0
  9
$DIMZIN
 70
     7
  9
$DIMBLK
  1

  9
$DIMASO
 70
     1
  9
$DIMSHO
 70
     1
  9
$DIMPOST
  1

  9
$DIMAPOST
  1
mm
  9
$DIMALT
 70
     0
  9
$DIMALTD
 70
     2
  9
$DIMALTF
 40
25.4
  9
$DIMLFAC
 40
1.0
  9
$DIMTOFL
 70
     0
  9
$DIMTVP
 40
0.0
  9
$DIMTIX
 70
     0
  9
$DIMSOXD
 70
     0
  9
$DIMSAH
 70
     0
  9
$DIMBLK1
  1

  9
$DIMBLK2
  1

  9
$DIMSTYLE
  2
AM_ANSI
  9
$DIMCLRD
 70
   256
  9
$DIMCLRE
 70
   256
  9
$DIMCLRT
 70
     2
  9
$DIMTFAC
 40
0.71
  9
$DIMGAP
 40
0.06
  9
$DIMJUST
 70
     0
  9
$DIMSD1
 70
     0
  9
$DIMSD2
 70
     0
  9
$DIMTOLJ
 70
     1
  9
$DIMTZIN
 70
     7
  9
$DIMALTZ
 70
     0
  9
$DIMALTTZ
 70
     0
  9
$DIMUPT
 70
     0
  9
$DIMDEC
 70
     2
  9
$DIMTDEC
 70
     2
  9
$DIMALTU
 70
     2
  9
$DIMALTTD
 70
     2
  9
$DIMTXSTY
  7
STANDARD
  9
$DIMAUNIT
 70
     0
  9
$DIMADEC
 70
     0
  9
$DIMALTRND
 40
0.0
  9
$DIMAZIN
 70
     2
  9
$DIMDSEP
 70
    46
  9
$DIMATFIT
 70
     3
  9
$DIMFRAC
 70
     0
  9
$DIMLDRBLK
  1

  9
$DIMLUNIT
 70
     2
  9
$DIMLWD
 70
    -1
  9
$DIMLWE
 70
    -1
  9
$DIMTMOVE
 70
     0
  9
$LUNITS
 70
     2
  9
$LUPREC
 70
     4
  9
$SKETCHINC
 40
0.1
  9
$FILLETRAD
 40
0.015
  9
$AUNITS
 70
     0
  9
$AUPREC
 70
     0
  9
$MENU
  1
.
  9
$ELEVATION
 40
0.0
  9
$PELEVATION
 40
0.0
  9
$THICKNESS
 40
0.0
  9
$LIMCHECK
 70
     0
  9
$CHAMFERA
 40
0.125
  9
$CHAMFERB
 40
0.125
  9
$CHAMFERC
 40
1.0
  9
$CHAMFERD
 40
0.0
  9
$SKPOLY
 70
     1
  9
$TDCREATE
 40
2454550.398519989
  9
$TDUCREATE
 40
2454550.731853322
  9
$TDUPDATE
 40
2454784.457314016
  9
$TDUUPDATE
 40
2454784.790647349
  9
$TDINDWG
 40
0.3751684259
  9
$TDUSRTIMER
 40
0.3749727894
  9
$USRTIMER
 70
     1
  9
$ANGBASE
 50
0.0
  9
$ANGDIR
 70
     0
  9
$PDMODE
 70
     0
  9
$PDSIZE
 40
0.0
  9
$PLINEWID
 40
0.0
  9
$SPLFRAME
 70
     0
  9
$SPLINETYPE
 70
     6
  9
$SPLINESEGS
 70
     8
  9
$HANDSEED
  5
159D
  9
$SURFTAB1
 70
     6
  9
$SURFTAB2
 70
     6
  9
$SURFTYPE
 70
     6
  9
$SURFU
 70
     6
  9
$SURFV
 70
     6
  9
$UCSBASE
  2

  9
$UCSNAME
  2

  9
$UCSORG
 10
0.0
 20
0.0
 30
0.0
  9
$UCSXDIR
 10
1.0
 20
0.0
 30
0.0
  9
$UCSYDIR
 10
0.0
 20
1.0
 30
0.0
  9
$UCSORTHOREF
  2

  9
$UCSORTHOVIEW
 70
     0
  9
$UCSORGTOP
 10
0.0
 20
0.0
 30
0.0
  9
$UCSORGBOTTOM
 10
0.0
 20
0.0
 30
0.0
  9
$UCSORGLEFT
 10
0.0
 20
0.0
 30
0.0
  9
$UCSORGRIGHT
 10
0.0
 20
0.0
 30
0.0
  9
$UCSORGFRONT
 10
0.0
 20
0.0
 30
0.0
  9
$UCSORGBACK
 10
0.0
 20
0.0
 30
0.0
  9
$PUCSBASE
  2

  9
$PUCSNAME
  2

  9
$PUCSORG
 10
0.0
 20
0.0
 30
0.0
  9
$PUCSXDIR
 10
1.0
 20
0.0
 30
0.0
  9
$PUCSYDIR
 10
0.0
 20
1.0
 30
0.0
  9
$PUCSORTHOREF
  2

  9
$PUCSORTHOVIEW
 70
     0
  9
$PUCSORGTOP
 10
0.0
 20
0.0
 30
0.0
  9
$PUCSORGBOTTOM
 10
0.0
 20
0.0
 30
0.0
  9
$PUCSORGLEFT
 10
0.0
 20
0.0
 30
0.0
  9
$PUCSORGRIGHT
 10
0.0
 20
0.0
 30
0.0
  9
$PUCSORGFRONT
 10
0.0
 20
0.0
 30
0.0
  9
$PUCSORGBACK
 10
0.0
 20
0.0
 30
0.0
  9
$USERI1
 70
     0
  9
$USERI2
 70
     0
  9
$USERI3
 70
     0
  9
$USERI4
 70
     0
  9
$USERI5
 70
     0
  9
$USERR1
 40
0.0
  9
$USERR2
 40
0.0
  9
$USERR3
 40
0.0
  9
$USERR4
 40
0.0
  9
$USERR5
 40
0.0
  9
$WORLDVIEW
 70
     1
  9
$SHADEDGE
 70
     3
  9
$SHADEDIF
 70
    70
  9
$TILEMODE
 70
     1
  9
$MAXACTVP
 70
    48
  9
$PINSBASE
 10
0.0
 20
0.0
 30
0.0
  9
$PLIMCHECK
 70
     0
  9
$PEXTMIN
 10
1.000000000000000E+20
 20
1.000000000000000E+20
 30
1.000000000000000E+20
  9
$PEXTMAX
 10
-1.000000000000000E+20
 20
-1.000000000000000E+20
 30
-1.000000000000000E+20
  9
$PLIMMIN
 10
-0.2500002402958907
 20
-0.2499999962453767
  9
$PLIMMAX
 10
10.74999951940821
 20
8.249999763458731
  9
$UNITMODE
 70
     0
  9
$VISRETAIN
 70
     1
  9
$PLINEGEN
 70
     0
  9
$PSLTSCALE
 70
     1
  9
$TREEDEPTH
 70
  3020
  9
$CMLSTYLE
  2
STANDARD
  9
$CMLJUST
 70
     0
  9
$CMLSCALE
 40
1.0
  9
$PROXYGRAPHICS
 70
     1
  9
$MEASUREMENT
 70
     0
  9
$CELWEIGHT
370
    -1
  9
$ENDCAPS
280
     0
  9
$JOINSTYLE
280
     0
  9
$LWDISPLAY
290
     0
  9
$INSUNITS
 70
     1
  9
$HYPERLINKBASE
  1

  9
$STYLESHEET
  1

  9
$XEDIT
290
     1
  9
$CEPSNTYPE
380
     0
  9
$PSTYLEMODE
290
     1
  9
$FINGERPRINTGUID
  2
{594ED88A-4D85-479B-A9CE-3C7936FAC088}
  9
$VERSIONGUID
  2
{9452F82A-F5E6-4178-B90A-7B12248438EC}
  9
$EXTNAMES
290
     1
  9
$PSVPSCALE
 40
0.0
  9
$OLESTARTUP
290
     0
  0
ENDSEC
  0
SECTION
  2
CLASSES
  0
CLASS
  1
ACMESTATEMGR
  2
AcMeStateMgr
  3
AcMeServices
 90
        0
280
     0
281
     0
  0
CLASS
  1
ACMESCOPE
  2
AcMeScope
  3
AcMeServices
 90
        0
280
     0
281
     0
  0
CLASS
  1
ACMECOMMANDHISTORY
  2
AcMeCommandHistory
  3
AcMeServices
 90
        0
280
     0
281
     0
  0
CLASS
  1
ACRFINSADJUSTERMGR
  2
AcRfInsAdjusterMgr
  3
AcMeServices
 90
        0
280
     0
281
     0
  0
CLASS
  1
ACMEDRAWINGMAN
  2
AcMeDrawingMan
  3
AcMeServices
 90
        0
280
     0
281
     0
  0
CLASS
  1
AMATTR
  2
AcMeAttribute
  3
AcMeServices
 90
    32768
280
     0
281
     0
  0
CLASS
  1
ACMEBOMCOLUMN
  2
AcMeBOMColumn
  3
AcMeServices
 90
    32768
280
     0
281
     0
  0
CLASS
  1
ACMEBOMCONF
  2
AcMeBOMConf
  3
AcMeServices
 90
    32768
280
     0
281
     0
  0
CLASS
  1
ACMEBOMTABLE
  2
AcMeBOMTable
  3
AcMeServices
 90
    32768
280
     0
281
     0
  0
CLASS
  1
ACMEBOMENTRY
  2
AcMeBOMEntry
  3
AcMeServices
 90
    32768
280
     0
281
     0
  0
CLASS
  1
ACMEVIEW
  2
AcMeView
  3
AcMeServices
 90
        0
280
     0
281
     0
  0
CLASS
  1
ACGREFMASTER
  2
AcGrefMaster
  3
AcAttribServices
 90
        0
280
     0
281
     0
  0
CLASS
  1
AMIMASTER
  2
AmiMaster
  3
AmiServices
 90
        0
280
     0
281
     0
  0
CLASS
  1
ACASGREFMASTER
  2
AcAsGrefMaster
  3
AutoSurfResolverServices
 90
        0
280
     0
281
     0
  0
CLASS
  1
ADAPPL
  2
AcAdAppl
  3
DesignerServices
 90
        0
280
     0
281
     0
  0
CLASS
  1
DEPMGR
  2
AcAdDepMgr
  3
DesignerServices
 90
        0
280
     0
281
     0
  0
CLASS
  1
PARAMMGR
  2
AcAdParamMgr
  3
DesignerServices
 90
        0
280
     0
281
     0
  0
CLASS
  1
PARAMSCOPE
  2
AcAdParamScope
  3
DesignerServices
 90
        0
280
     0
281
     0
  0
CLASS
  1
ACIMSYSVARMAN
  2
AcImSysVarManager
  3
AcMeServices
 90
        0
280
     0
281
     0
  0
CLASS
  1
ACIMINTSYSVAR
  2
AcImIntSysVar
  3
AcMeServices
 90
        0
280
     0
281
     0
  0
CLASS
  1
ACIMREALSYSVAR
  2
AcImRealSysVar
  3
AcMeServices
 90
        0
280
     0
281
     0
  0
CLASS
  1
ACIMSTRSYSVAR
  2
AcImStrSysVar
  3
AcMeServices
 90
        0
280
     0
281
     0
  0
CLASS
  1
NAMEDAPPL
  2
AcAdNamedAppl
  3
DesignerServices
 90
        0
280
     0
281
     0
  0
CLASS
  1
ADHNTMPLT
  2
AdHoleNoteTemplateMgr
  3
DesignerServices
 90
    32768
280
     0
281
     0
  0
CLASS
  1
AM_HNTEMPLATE_MGR_NAME
  2
AdHoleNoteTemplateMgrName
  3
DesignerServices
 90
    32768
280
     0
281
     0
  0
CLASS
  1
ACADGREFMODULE
  2
AcAdGrefModule
  3
AdGrefServices
 90
        0
280
     0
281
     0
  0
CLASS
  1
AM_DRAWING_MGR
  2
AcDmDwgMgr
  3
AcMechDwgViewMgmt
 90
        0
280
     0
281
     0
  0
CLASS
  1
AM_DWG_DOCUMENT
  2
AcDmDwgDocument
  3
AcMechDwgViewMgmt
 90
        0
280
     0
281
     0
  0
CLASS
  1
AM_DWG_SHEET
  2
AcDmSheet
  3
AcMechDwgViewMgmt
 90
        0
280
     0
281
     0
  0
CLASS
  1
AM_VIEWDIMPARMAP
  2
AcDmViewDimParMap
  3
AcMechDwgViewMgmt
 90
        0
280
     0
281
     0
  0
CLASS
  1
AM_DWGMGR_NAME
  2
AcDmDwgMgrName
  3
AcMechDwgViewMgmt
 90
        0
280
     0
281
     0
  0
CLASS
  1
ACAMPROJECT
  2
AcAmProject
  3
DesignerAssemblies
 90
        0
280
     0
281
     0
  0
CLASS
  1
ACAMGRCOMPSET
  2
AcAmGrCompSet
  3
DesignerAssemblies
 90
    32768
280
     0
281
     0
  0
CLASS
  1
ACAMGRCOMPDEFSET
  2
AcAmGrCompDefSet
  3
DesignerAssemblies
 90
        0
280
     0
281
     0
  0
CLASS
  1
ACAMGRCOMPDEF
  2
AcAmGrCompDef
  3
DesignerAssemblies
 90
        0
280
     0
281
     0
  0
CLASS
  1
ACCMCONTEXT
  2
AcCmContext
  3
DesignerAssemblies
 90
        0
280
     0
281
     0
  0
CLASS
  1
ACAMCOMPDEF
  2
AcAmCompDef
  3
DesignerAssemblies
 90
        0
280
     0
281
     0
  0
CLASS
  1
ACAMCOMPDEFMGR
  2
AcAmCompDefMgr
  3
DesignerAssemblies
 90
        0
280
     0
281
     0
  0
CLASS
  1
AMCONTEXTMGR
  2
AcAmContextMgr
  3
DesignerAssemblies
 90
        0
280
     0
281
     0
  0
CLASS
  1
ACAMCONTEXTMODELER
  2
AcAmContextModeler
  3
DesignerAssemblies
 90
        0
280
     0
281
     0
  0
CLASS
  1
ACDMVIEWGEOM
  2
AcDmViewGeometry
  3
AcMechDwgViewMgmt
 90
    32768
280
     0
281
     1
  0
CLASS
  1
CBROWSERAPPOBJECT
  2
CBrowserAppObject
  3
McadcomServices
 90
        0
280
     0
281
     0
  0
CLASS
  1
IM_STATIC_MAN
  2
AcImStaticVarManager
  3
AcMeServices
 90
        0
280
     0
281
     0
  0
CLASS
  1
ASAPP
  2
AcAsAppObject
  3
AutoSurfServices
 90
        0
280
     0
281
     0
  0
CLASS
  1
ACIMDBLSTATICVAR
  2
AcImDblStaticVar
  3
AcMeServices
 90
        0
280
     0
281
     0
  0
CLASS
  1
ACIMSTRSTATICVAR
  2
AcImStrStaticVar
  3
AcMeServices
 90
        0
280
     0
281
     0
  0
CLASS
  1
ACIMINTSTATICVAR
  2
AcImIntStaticVar
  3
AcMeServices
 90
        0
280
     0
281
     0
  0
CLASS
  1
CATALOGSTATE
  2
AcAmCatalogState
  3
DesignerAssemblies
 90
        0
280
     0
281
     0
  0
CLASS
  1
DM_PLACEHOLDER
  2
AcDmSelsetPlaceholder
  3
AcMechDwgViewMgmt
 90
        0
280
     0
281
     0
  0
CLASS
  1
DICTIONARYVAR
  2
AcDbDictionaryVar
  3
ObjectDBX Classes
 90
        0
280
     0
281
     0
  0
CLASS
  1
ACMSTANDARDJIS
  2
AcmStandardJIS
  3
"Amdt_StdImp|Product Description: AutoCAD Mechanical|Company: Autodesk"
 90
    32768
280
     0
281
     0
  0
CLASS
  1
ACMSTANDARDANSI
  2
AcmStandardANSI
  3
"Amdt_StdImp|Product Description: AutoCAD Mechanical|Company: Autodesk"
 90
        0
280
     0
281
     0
  0
CLASS
  1
ACMSTANDARDBSI
  2
AcmStandardBSI
  3
"Amdt_StdImp|Product Description: AutoCAD Mechanical|Company: Autodesk"
 90
    32768
280
     0
281
     0
  0
CLASS
  1
ACMSTANDARDDIN
  2
AcmStandardDIN
  3
"Amdt_StdImp|Product Description: AutoCAD Mechanical|Company: Autodesk"
 90
    32768
280
     0
281
     0
  0
CLASS
  1
ACMSTANDARDISO
  2
AcmStandardISO
  3
"Amdt_StdImp|Product Description: AutoCAD Mechanical|Company: Autodesk"
 90
    32768
280
     0
281
     0
  0
CLASS
  1
LAYER_INDEX
  2
AcDbLayerIndex
  3
ObjectDBX Classes
 90
        0
280
     0
281
     0
  0
CLASS
  1
IDBUFFER
  2
AcDbIdBuffer
  3
ObjectDBX Classes
 90
        0
280
     0
281
     0
  0
CLASS
  1
ACDBDICTIONARYWDFLT
  2
AcDbDictionaryWithDefault
  3
ObjectDBX Classes
 90
        0
280
     0
281
     0
  0
CLASS
  1
ACME_DOCUMENT
  2
AcMeDbDoc
  3
AcMeServices
 90
        0
280
     0
281
     0
  0
CLASS
  1
AMGSETTINGSOBJ
  2
AmgSettingsObj
  3
"AcadM|Product Description: AutoCAD Mechanical|Company: Autodesk"
 90
        0
280
     0
281
     0
  0
CLASS
  1
AMGOBJPROPCFG
  2
AmgObjPropCfg
  3
"AmgLay|Product Description: AutoCAD Mechanical|Company: Autodesk"
 90
        1
280
     0
281
     0
  0
CLASS
  1
ACDBENTITYCACHE
  2
AcMeEntityCache
  3
AcMeServices
 90
        0
280
     0
281
     0
  0
CLASS
  1
GSMANAGER
  2
AcMeGSManager
  3
AcMeServices
 90
        0
280
     0
281
     0
  0
CLASS
  1
AMDTINTERNALREACTOR
  2
AmdtInternalReactor
  3
AcMeServices
 90
        0
280
     0
281
     0
  0
CLASS
  1
ACME_DATABASE
  2
AcMeDbDatabase
  3
AcMeServices
 90
        0
280
     0
281
     0
  0
CLASS
  1
ACGREFACADMASTER
  2
AcGrefacadMaster
  3
AcGrefServices
 90
        0
280
     0
281
     0
  0
CLASS
  1
AMDTMENUSTATEMGR
  2
AmdtMenuStateMgr
  3
McadcomServices
 90
        0
280
     0
281
     0
  0
CLASS
  1
AMDTMCOMMENUSTATE
  2
AmdtMcomMenuState
  3
McadcomServices
 90
        0
280
     0
281
     0
  0
CLASS
  1
MAPIADMODULE
  2
MApiAdModule
  3
MApiAdServices
 90
        0
280
     0
281
     0
  0
CLASS
  1
AMDTDMMENUSTATE
  2
AmdtDmMenuState
  3
AcMechDwgViewMgmt
 90
        0
280
     0
281
     0
  0
CLASS
  1
AMDTADMENUSTATE
  2
AmdtAdMenuState
  3
DesignerServices
 90
        0
280
     0
281
     0
  0
CLASS
  1
AMDTAMMENUSTATE
  2
AmdtAmMenuState
  3
DesignerAssemblies
 90
        0
280
     0
281
     0
  0
CLASS
  1
ACMDATADICTIONARY
  2
AcmDataDictionary
  3
"AcmSymBB|Product Description: AutoCAD Mechanical|Company: Autodesk"
 90
        0
280
     0
281
     0
  0
CLASS
  1
ACMDATAENTRYBLOCK
  2
AcmDataEntryBlock
  3
"AcmSymBB|Product Description: AutoCAD Mechanical|Company: Autodesk"
 90
        0
280
     0
281
     0
  0
CLASS
  1
AMDTBROWSERDBTAB
  2
AmdtBrowserDbTab
  3
McadcomServices
 90
        0
280
     0
281
     0
  0
CLASS
  1
ACAMGFILTERDAT
  2
AcAmgFilterDat
  3
"AcadM|Product Description: AutoCAD Mechanical|Company: Autodesk"
 90
        0
280
     0
281
     0
  0
CLASS
  1
MAPIAMMOUDLE
  2
MApiAmModule
  3
MApiAmServices
 90
        0
280
     0
281
     0
  0
CLASS
  1
AMDTMAPISURFMOUDULE
  2
AmdtMApiSurfModule
  3
MApiSurfServices
 90
        0
280
     0
281
     0
  0
CLASS
  1
ACMSURFSTANDARDANSI
  2
AcmSurfTextStdANSI
  3
"Amdt_StdImp|Product Description: AutoCAD Mechanical|Company: Autodesk"
 90
        0
280
     0
281
     0
  0
CLASS
  1
ACMFCFSTANDARDANSI
  2
AcmFCFStdANSI
  3
"Amdt_StdImp|Product Description: AutoCAD Mechanical|Company: Autodesk"
 90
        0
280
     0
281
     0
  0
CLASS
  1
ACMWELDSTANDARDANSI
  2
AcmWeldingStdANSI
  3
"Amdt_StdImp|Product Description: AutoCAD Mechanical|Company: Autodesk"
 90
        0
280
     0
281
     0
  0
CLASS
  1
ACMIDSTANDARDANSI
  2
AcmIdStdANSI
  3
"Amdt_StdImp|Product Description: AutoCAD Mechanical|Company: Autodesk"
 90
        0
280
     0
281
     0
  0
CLASS
  1
ACMDATUMSTANDARDANSI
  2
AcmDatumStdANSI
  3
"Amdt_StdImp|Product Description: AutoCAD Mechanical|Company: Autodesk"
 90
        0
280
     0
281
     0
  0
CLASS
  1
ACMBOMSTANDARDANSI
  2
AcmBOMStdANSI
  3
"Amdt_StdImp|Product Description: AutoCAD Mechanical|Company: Autodesk"
 90
        0
280
     0
281
     0
  0
CLASS
  1
ACAMGLAYSTD
  2
AcAmgLayStd
  3
"AmgLay|Product Description: AutoCAD Mechanical|Company: Autodesk"
 90
        0
280
     0
281
     0
  0
CLASS
  1
ACAMGDIMSTD
  2
AcAmgDimStd
  3
"AmgDim|Product Description: AutoCAD Mechanical|Company: Autodesk"
 90
        0
280
     0
281
     0
  0
CLASS
  1
ACAMGTITLESTD
  2
AcAmgTitleStd
  3
"AmgTitle|Product Description: AutoCAD Mechanical|Company: Autodesk"
 90
        0
280
     0
281
     0
  0
CLASS
  1
ACMDETAILSTANDARDANSI
  2
AmdtDetailSymStdANSI
  3
"Amdt_StdImp|Product Description: AutoCAD Mechanical|Company: Autodesk"
 90
        0
280
     0
281
     0
  0
CLASS
  1
ACMSECTIONSTANDARDANSI
  2
AmdtSectionSymStdANSI
  3
"Amdt_StdImp|Product Description: AutoCAD Mechanical|Company: Autodesk"
 90
        0
280
     0
281
     0
  0
CLASS
  1
ACMCENTERLINESTANDARDANSI
  2
AmdtCenterLineStdANSI
  3
"Amdt_StdImp|Product Description: AutoCAD Mechanical|Company: Autodesk"
 90
        0
280
     0
281
     0
  0
CLASS
  1
ACMTHREADLINESTANDARDANSI
  2
AmdtThreadLineStdANSI
  3
"Amdt_StdImp|Product Description: AutoCAD Mechanical|Company: Autodesk"
 90
        0
280
     0
281
     0
  0
CLASS
  1
ACMSURFSTANDARDBSI
  2
AcmSurfTextStdBSI
  3
"Amdt_StdImp|Product Description: AutoCAD Mechanical|Company: Autodesk"
 90
    32768
280
     0
281
     0
  0
CLASS
  1
ACMFCFSTANDARDBSI
  2
AcmFCFStdBSI
  3
"Amdt_StdImp|Product Description: AutoCAD Mechanical|Company: Autodesk"
 90
    32768
280
     0
281
     0
  0
CLASS
  1
ACMWELDSTANDARDBSI
  2
AcmWeldingStdBSI
  3
"Amdt_StdImp|Product Description: AutoCAD Mechanical|Company: Autodesk"
 90
    32768
280
     0
281
     0
  0
CLASS
  1
ACMIDSTANDARDBSI
  2
AcmIdStdBSI
  3
"Amdt_StdImp|Product Description: AutoCAD Mechanical|Company: Autodesk"
 90
    32768
280
     0
281
     0
  0
CLASS
  1
ACMDATUMSTANDARDBSI
  2
AcmDatumStdBSI
  3
"Amdt_StdImp|Product Description: AutoCAD Mechanical|Company: Autodesk"
 90
    32768
280
     0
281
     0
  0
CLASS
  1
ACMBOMSTANDARDBSI
  2
AcmBOMStdBSI
  3
"Amdt_StdImp|Product Description: AutoCAD Mechanical|Company: Autodesk"
 90
    32768
280
     0
281
     0
  0
CLASS
  1
ACMDETAILSTANDARDBSI
  2
AmdtDetailSymStdBSI
  3
"Amdt_StdImp|Product Description: AutoCAD Mechanical|Company: Autodesk"
 90
    32768
280
     0
281
     0
  0
CLASS
  1
ACMSECTIONSTANDARDBSI
  2
AmdtSectionSymStdBSI
  3
"Amdt_StdImp|Product Description: AutoCAD Mechanical|Company: Autodesk"
 90
    32768
280
     0
281
     0
  0
CLASS
  1
ACMCENTERLINESTANDARDBSI
  2
AmdtCenterLineStdBSI
  3
"Amdt_StdImp|Product Description: AutoCAD Mechanical|Company: Autodesk"
 90
    32768
280
     0
281
     0
  0
CLASS
  1
ACMTHREADLINESTANDARDBSI
  2
AmdtThreadLineStdBSI
  3
"Amdt_StdImp|Product Description: AutoCAD Mechanical|Company: Autodesk"
 90
    32768
280
     0
281
     0
  0
CLASS
  1
AMDTEDGESTANDARDDIN
  2
AmdtEdgeStdDIN
  3
"Amdt_StdImp|Product Description: AutoCAD Mechanical|Company: Autodesk"
 90
    32768
280
     0
281
     0
  0
CLASS
  1
ACMSURFSTANDARDDIN
  2
AcmSurfTextStdDIN
  3
"Amdt_StdImp|Product Description: AutoCAD Mechanical|Company: Autodesk"
 90
    32768
280
     0
281
     0
  0
CLASS
  1
ACMFCFSTANDARDDIN
  2
AcmFCFStdDIN
  3
"Amdt_StdImp|Product Description: AutoCAD Mechanical|Company: Autodesk"
 90
    32768
280
     0
281
     0
  0
CLASS
  1
ACMWELDSTANDARDDIN
  2
AcmWeldingStdDIN
  3
"Amdt_StdImp|Product Description: AutoCAD Mechanical|Company: Autodesk"
 90
    32768
280
     0
281
     0
  0
CLASS
  1
ACMIDSTANDARDDIN
  2
AcmIdStdDIN
  3
"Amdt_StdImp|Product Description: AutoCAD Mechanical|Company: Autodesk"
 90
    32768
280
     0
281
     0
  0
CLASS
  1
ACMDATUMSTANDARDDIN
  2
AcmDatumStdDIN
  3
"Amdt_StdImp|Product Description: AutoCAD Mechanical|Company: Autodesk"
 90
    32768
280
     0
281
     0
  0
CLASS
  1
ACMBOMSTANDARDDIN
  2
AcmBOMStdDIN
  3
"Amdt_StdImp|Product Description: AutoCAD Mechanical|Company: Autodesk"
 90
    32768
280
     0
281
     0
  0
CLASS
  1
ACMDETAILSTANDARDDIN
  2
AmdtDetailSymStdDIN
  3
"Amdt_StdImp|Product Description: AutoCAD Mechanical|Company: Autodesk"
 90
    32768
280
     0
281
     0
  0
CLASS
  1
ACMSECTIONSTANDARDDIN
  2
AmdtSectionSymStdDIN
  3
"Amdt_StdImp|Product Description: AutoCAD Mechanical|Company: Autodesk"
 90
    32768
280
     0
281
     0
  0
CLASS
  1
ACMCENTERLINESTANDARDDIN
  2
AmdtCenterLineStdDIN
  3
"Amdt_StdImp|Product Description: AutoCAD Mechanical|Company: Autodesk"
 90
    32768
280
     0
281
     0
  0
CLASS
  1
ACMTHREADLINESTANDARDDIN
  2
AmdtThreadLineStdDIN
  3
"Amdt_StdImp|Product Description: AutoCAD Mechanical|Company: Autodesk"
 90
    32768
280
     0
281
     0
  0
CLASS
  1
ACMSURFSTANDARDISO
  2
AcmSurfTextStdISO
  3
"Amdt_StdImp|Product Description: AutoCAD Mechanical|Company: Autodesk"
 90
    32768
280
     0
281
     0
  0
CLASS
  1
ACMFCFSTANDARDISO
  2
AcmFCFStdISO
  3
"Amdt_StdImp|Product Description: AutoCAD Mechanical|Company: Autodesk"
 90
    32768
280
     0
281
     0
  0
CLASS
  1
ACMWELDSTANDARDISO
  2
AcmWeldingStdISO
  3
"Amdt_StdImp|Product Description: AutoCAD Mechanical|Company: Autodesk"
 90
    32768
280
     0
281
     0
  0
CLASS
  1
ACMIDSTANDARDISO
  2
AcmIdStdISO
  3
"Amdt_StdImp|Product Description: AutoCAD Mechanical|Company: Autodesk"
 90
    32768
280
     0
281
     0
  0
CLASS
  1
ACMDATUMSTANDARDISO
  2
AcmDatumStdISO
  3
"Amdt_StdImp|Product Description: AutoCAD Mechanical|Company: Autodesk"
 90
    32768
280
     0
281
     0
  0
CLASS
  1
ACMBOMSTANDARDISO
  2
AcmBOMStdISO
  3
"Amdt_StdImp|Product Description: AutoCAD Mechanical|Company: Autodesk"
 90
    32768
280
     0
281
     0
  0
CLASS
  1
AMDTEDGESTANDARDISO
  2
AmdtEdgeStdISO
  3
"Amdt_StdImp|Product Description: AutoCAD Mechanical|Company: Autodesk"
 90
    32768
280
     0
281
     0
  0
CLASS
  1
ACMDETAILSTANDARDISO
  2
AmdtDetailSymStdISO
  3
"Amdt_StdImp|Product Description: AutoCAD Mechanical|Company: Autodesk"
 90
    32768
280
     0
281
     0
  0
CLASS
  1
ACMSECTIONSTANDARDISO
  2
AmdtSectionSymStdISO
  3
"Amdt_StdImp|Product Description: AutoCAD Mechanical|Company: Autodesk"
 90
    32768
280
     0
281
     0
  0
CLASS
  1
ACMCENTERLINESTANDARDISO
  2
AmdtCenterLineStdISO
  3
"Amdt_StdImp|Product Description: AutoCAD Mechanical|Company: Autodesk"
 90
    32768
280
     0
281
     0
  0
CLASS
  1
ACMTHREADLINESTANDARDISO
  2
AmdtThreadLineStdISO
  3
"Amdt_StdImp|Product Description: AutoCAD Mechanical|Company: Autodesk"
 90
    32768
280
     0
281
     0
  0
CLASS
  1
ACMSURFSTANDARDJIS
  2
AcmSurfTextStdJIS
  3
"Amdt_StdImp|Product Description: AutoCAD Mechanical|Company: Autodesk"
 90
    32768
280
     0
281
     0
  0
CLASS
  1
ACMFCFSTANDARDJIS
  2
AcmFCFStdJIS
  3
"Amdt_StdImp|Product Description: AutoCAD Mechanical|Company: Autodesk"
 90
    32768
280
     0
281
     0
  0
CLASS
  1
ACMWELDSTANDARDJIS
  2
AcmWeldingStdJIS
  3
"Amdt_StdImp|Product Description: AutoCAD Mechanical|Company: Autodesk"
 90
    32768
280
     0
281
     0
  0
CLASS
  1
ACMIDSTANDARDJIS
  2
AcmIdStdJIS
  3
"Amdt_StdImp|Product Description: AutoCAD Mechanical|Company: Autodesk"
 90
    32768
280
     0
281
     0
  0
CLASS
  1
ACMDATUMSTANDARDJIS
  2
AcmDatumStdJIS
  3
"Amdt_StdImp|Product Description: AutoCAD Mechanical|Company: Autodesk"
 90
    32768
280
     0
281
     0
  0
CLASS
  1
ACMBOMSTANDARDJIS
  2
AcmBOMStdJIS
  3
"Amdt_StdImp|Product Description: AutoCAD Mechanical|Company: Autodesk"
 90
    32768
280
     0
281
     0
  0
CLASS
  1
ACMDETAILSTANDARDJIS
  2
AmdtDetailSymStdJIS
  3
"Amdt_StdImp|Product Description: AutoCAD Mechanical|Company: Autodesk"
 90
    32768
280
     0
281
     0
  0
CLASS
  1
ACMSECTIONSTANDARDJIS
  2
AmdtSectionSymStdJIS
  3
"Amdt_StdImp|Product Description: AutoCAD Mechanical|Company: Autodesk"
 90
    32768
280
     0
281
     0
  0
CLASS
  1
ACMCENTERLINESTANDARDJIS
  2
AmdtCenterLineStdJIS
  3
"Amdt_StdImp|Product Description: AutoCAD Mechanical|Company: Autodesk"
 90
    32768
280
     0
281
     0
  0
CLASS
  1
ACMTHREADLINESTANDARDJIS
  2
AmdtThreadLineStdJIS
  3
"Amdt_StdImp|Product Description: AutoCAD Mechanical|Company: Autodesk"
 90
    32768
280
     0
281
     0
  0
CLASS
  1
ACMNOTESTANDARDANSI
  2
AmdtNoteStdANSI
  3
"Amdt_StdImp|Product Description: AutoCAD Mechanical|Company: Autodesk"
 90
        0
280
     0
281
     0
  0
CLASS
  1
ACAMGHOLECHARTSTDANSI
  2
AcAmgHoleChartStdANSI
  3
ACMSYMBB_MODULE_NAME
 90
        0
280
     0
281
     0
  0
CLASS
  1
TABLESTYLE
  2
AcDbTableStyle
  3
ObjectDBX Classes
 90
     4095
280
     0
281
     0
  0
CLASS
  1
AMDTNOTETEMPLATEDB
  2
AmdtNoteTemplateDB
  3
AMDT_STDIMP_MODULE_NAME
 90
        0
280
     0
281
     0
  0
CLASS
  1
MATERIAL
  2
AcDbMaterial
  3
ObjectDBX Classes
 90
     1024
280
     0
281
     0
  0
CLASS
  1
VISUALSTYLE
  2
AcDbVisualStyle
  3
ObjectDBX Classes
 90
     4095
280
     0
281
     0
  0
CLASS
  1
ACRFATTGENMGR
  2
AcRfAttGeneralMgr
  3
AcAttribServices
 90
        0
280
     0
281
     0
  0
CLASS
  1
ACRFOBJATTMGR
  2
AcRfObjAttGroupMgr
  3
AcAttribServices
 90
        0
280
     0
281
     0
  0
CLASS
  1
ACRFMCADAPIATTHOLDER
  2
AcRfMCADAPIAttHolder
  3
AcAttribServices
 90
        0
280
     0
281
     0
  0
CLASS
  1
AMDTSYSATTR
  2
AmdtSystemAttribute
  3
AcAttribServices
 90
        0
280
     0
281
     0
  0
CLASS
  1
ACMTAPERSTANDARDANSI
  2
AcmTaperStdANSI
  3
"Amdt_StdImp|Product Description: AutoCAD Mechanical|Company: Autodesk"
 90
        0
280
     0
281
     0
  0
CLASS
  1
SORTENTSTABLE
  2
AcDbSortentsTable
  3
ObjectDBX Classes
 90
        0
280
     0
281
     0
  0
CLASS
  1
STDPART2D
  2
AmgStdPart
  3
"g3vace|Class: AmgStdPart|Product Description: AutoCAD Mechanical|Company: Autodesk"
 90
    35839
280
     0
281
     1
  0
CLASS
  1
ACMDATAENTRYPART
  2
AcmDataEntryPart
  3
"AcmSymBB|Product Description: AutoCAD Mechanical|Company: Autodesk"
 90
    32768
280
     0
281
     0
  0
CLASS
  1
ACMPARTREF
  2
AcmPartRef
  3
"AcmSymBB|Product Description: AutoCAD Mechanical|Company: Autodesk"
 90
    35839
280
     0
281
     1
  0
CLASS
  1
ACDBSTDPARTRES_LINE
  2
AcDbStdPartRes_Line
  3
"g3vace|Class: AcDbStdPartRes_Line|Product Description: AutoCAD Mechanical|Company: Autodesk"
 90
    32768
280
     0
281
     0
  0
CLASS
  1
CAMSSTRUCTBTNSTATE
  2
StructBtnState
  3
L"DesignerAssemblies"
 90
        0
280
     0
281
     0
  0
CLASS
  1
ACDBPLACEHOLDER
  2
AcDbPlaceHolder
  3
ObjectDBX Classes
 90
        0
280
     0
281
     0
  0
CLASS
  1
LAYOUT
  2
AcDbLayout
  3
ObjectDBX Classes
 90
        0
280
     0
281
     0
  0
ENDSEC
  0
SECTION
  2
TABLES
  0
TABLE
  2
VPORT
  5
8
330
0
100
AcDbSymbolTable
 70
     1
  0
VPORT
  5
57D
330
8
100
AcDbSymbolTableRecord
100
AcDbViewportTableRecord
  2
*Active
 70
     0
 10
0.0
 20
0.0
 11
1.0
 21
1.0
 12
-8.902435413016661
 22
1.15281679071884
 13
0.0
 23
0.0
 14
0.125
 24
0.125
 15
1.0
 25
1.0
 16
0.0
 26
0.0
 36
1.0
 17
73.94675206451703
 27
26.18381376503601
 37
0.0
 40
16.03893293945522
 41
1.8627648839556
 42
50.0
 43
0.0
 44
0.0
 50
0.0
 51
0.0
 71
     0
 72
   100
 73
     1
 74
     1
 75
     0
 76
     0
 77
     0
 78
     0
281
     0
 65
     0
110
0.0
120
0.0
130
0.0
111
1.0
121
0.0
131
0.0
112
0.0
122
1.0
132
0.0
 79
     0
146
0.0
  0
ENDTAB
  0
TABLE
  2
LTYPE
  5
5
330
0
100
AcDbSymbolTable
 70
    36
  0
LTYPE
  5
13
330
5
100
AcDbSymbolTableRecord
100
AcDbLinetypeTableRecord
  2
BYBLOCK
 70
     0
  3

 72
    65
 73
     0
 40
0.0
  0
LTYPE
  5
14
330
5
100
AcDbSymbolTableRecord
100
AcDbLinetypeTableRecord
  2
BYLAYER
 70
     0
  3

 72
    65
 73
     0
 40
0.0
  0
LTYPE
  5
15
330
5
100
AcDbSymbolTableRecord
100
AcDbLinetypeTableRecord
  2
CONTINUOUS
 70
     0
  3
Solid line
 72
    65
 73
     0
 40
0.0
  0
LTYPE
  5
8C
330
5
100
AcDbSymbolTableRecord
100
AcDbLinetypeTableRecord
  2
HIDDEN
 70
     0
  3
__ __ __ __ __ __ __ __ __ __ __ __ __ __ __ __
 72
    65
 73
     2
 40
0.375
 49
0.25
 74
     0
 49
-0.125
 74
     0
  0
LTYPE
  5
8E
330
5
100
AcDbSymbolTableRecord
100
AcDbLinetypeTableRecord
  2
PHANTOM2
 70
     0
  3
___ _ _ ___ _ _ ___ _ _ ___ _ _ ___ _ _ ___ _ _
 72
    65
 73
     6
 40
1.25
 49
0.625
 74
     0
 49
-0.125
 74
     0
 49
0.125
 74
     0
 49
-0.125
 74
     0
 49
0.125
 74
     0
 49
-0.125
 74
     0
  0
LTYPE
  5
99
330
5
100
AcDbSymbolTableRecord
100
AcDbLinetypeTableRecord
  2
CENTER
 70
     0
  3
____ _ ____ _ ____ _ ____ _ ____ _ ____ _ ____ 
 72
    65
 73
     4
 40
2.0
 49
1.25
 74
     0
 49
-0.25
 74
     0
 49
0.25
 74
     0
 49
-0.25
 74
     0
  0
LTYPE
  5
F2
330
5
100
AcDbSymbolTableRecord
100
AcDbLinetypeTableRecord
  2
ASULTYPE
 70
     0
  3
Solid line
 72
    65
 73
     2
 40
3.0
 49
2.5
 74
     0
 49
0.5
 74
     0
  0
LTYPE
  5
F3
330
5
100
AcDbSymbolTableRecord
100
AcDbLinetypeTableRecord
  2
ASVLTYPE
 70
     0
  3
__ __ __ __ __ __ __ __ __ __ __ __ __ __ __ __ __ __ __ __ __
 72
    65
 73
     2
 40
0.75
 49
0.5
 74
     0
 49
-0.25
 74
     0
  0
LTYPE
  5
15C
330
5
100
AcDbSymbolTableRecord
100
AcDbLinetypeTableRecord
  2
AM_ISO02W050
 70
     0
  3
__ __ __ __ __ __ __ __ __ __ __ __ __ __ __
 72
    65
 73
     2
 40
7.5
 49
6.0
 74
     0
 49
-1.5
 74
     0
  0
LTYPE
  5
15D
330
5
100
AcDbSymbolTableRecord
100
AcDbLinetypeTableRecord
  2
AM_ISO08W050
 70
     0
  3
____ . ____ . ____ . ____ . ____ . ____ . ____
 72
    65
 73
     4
 40
18.0
 49
12.0
 74
     0
 49
-1.5
 74
     0
 49
3.0
 74
     0
 49
-1.5
 74
     0
  0
LTYPE
  5
15E
330
5
100
AcDbSymbolTableRecord
100
AcDbLinetypeTableRecord
  2
AM_ISO09W050
 70
     0
  3
_____ . . _____ . . _____ . . ____ .. ____
 72
    65
 73
     6
 40
22.5
 49
12.0
 74
     0
 49
-1.5
 74
     0
 49
3.0
 74
     0
 49
-1.5
 74
     0
 49
3.0
 74
     0
 49
-1.5
 74
     0
  0
LTYPE
  5
15F
330
5
100
AcDbSymbolTableRecord
100
AcDbLinetypeTableRecord
  2
AM_ISO02W050x2
 70
     0
  3
 _ _ _ _ _ _ _ _ _ _ _ _
 72
    65
 73
     2
 40
3.75
 49
3.0
 74
     0
 49
-0.75
 74
     0
  0
LTYPE
  5
160
330
5
100
AcDbSymbolTableRecord
100
AcDbLinetypeTableRecord
  2
AM_ISO08W050x2
 70
     0
  3
__ . __ . __ . __ . __ . __
 72
    65
 73
     4
 40
9.0
 49
6.0
 74
     0
 49
-0.75
 74
     0
 49
1.5
 74
     0
 49
-0.75
 74
     0
  0
LTYPE
  5
163
330
5
100
AcDbSymbolTableRecord
100
AcDbLinetypeTableRecord
  2
amzigzag
 70
     0
  3
/\/-/\/-/\/-/\/-/\/-/\/
 72
    65
 73
     2
 40
11.0001
 49
0.0001
 74
     4
 75
   136
340
538
 46
0.04
 50
0.0
 44
0.0
 45
0.0
 49
-11.0
 74
     0
  0
LTYPE
  5
164
330
5
100
AcDbSymbolTableRecord
100
AcDbLinetypeTableRecord
  2
HIDDEN2
 70
     0
  3
Hidden (.5x) _ _ _ _ _ _ _ _ _ _ _ _ _ _ _ _ _
 72
    65
 73
     2
 40
0.1875
 49
0.125
 74
     0
 49
-0.0625
 74
     0
  0
LTYPE
  5
165
330
5
100
AcDbSymbolTableRecord
100
AcDbLinetypeTableRecord
  2
CENTER2
 70
     0
  3
Center (.5x) ___ _ ___ _ ___ _ ___ _ ___ _ ___
 72
    65
 73
     4
 40
1.125
 49
0.75
 74
     0
 49
-0.125
 74
     0
 49
0.125
 74
     0
 49
-0.125
 74
     0
  0
LTYPE
  5
2A6
330
5
100
AcDbSymbolTableRecord
100
AcDbLinetypeTableRecord
  2
Amconstr
 70
     0
  3
_______________________
 72
    65
 73
     2
 40
9999.0
 49
9999.0
 74
     0
 49
0.0
 74
     0
  0
LTYPE
  5
2B1
330
5
100
AcDbSymbolTableRecord
100
AcDbLinetypeTableRecord
  2
Amzigzag2
 70
     0
  3
/\/-/\/-/\/-/\/-/\/-/\/
 72
    65
 73
     2
 40
0.4401
 49
0.0001
 74
     4
 75
   136
340
538
 46
0.0016
 50
0.0
 44
0.0
 45
0.0
 49
-0.4400000000000002
 74
     0
  0
LTYPE
  5
2B2
330
5
100
AcDbSymbolTableRecord
100
AcDbLinetypeTableRecord
  2
AM_DIN_F_W050
 70
     0
  3
__ __ __ __ __ __ __ __ __ __ __ __ __ __ __
 72
    65
 73
     2
 40
6.25
 49
4.75
 74
     0
 49
-1.5
 74
     0
  0
LTYPE
  5
2B3
330
5
100
AcDbSymbolTableRecord
100
AcDbLinetypeTableRecord
  2
AM_DIN_G_W050
 70
     0
  3
____ . ____ . ____ . ____ . ____ . ____ . ____
 72
    65
 73
     4
 40
13.75
 49
9.75
 74
     0
 49
-1.5
 74
     0
 49
1.0
 74
     0
 49
-1.5
 74
     0
  0
LTYPE
  5
2B4
330
5
100
AcDbSymbolTableRecord
100
AcDbLinetypeTableRecord
  2
AM_DIN_K_W050
 70
     0
  3
_____ . . _____ . . _____ . . ____ .. ____
 72
    65
 73
     6
 40
16.25
 49
9.75
 74
     0
 49
-1.5
 74
     0
 49
1.0
 74
     0
 49
-1.5
 74
     0
 49
1.0
 74
     0
 49
-1.5
 74
     0
  0
LTYPE
  5
2B5
330
5
100
AcDbSymbolTableRecord
100
AcDbLinetypeTableRecord
  2
AM_DIN_G_W050x2
 70
     0
  3
__ . __ . __ . __ . __ . __
 72
    65
 73
     4
 40
6.875
 49
4.75
 74
     0
 49
-0.875
 74
     0
 49
0.375
 74
     0
 49
-0.875
 74
     0
  0
LTYPE
  5
2B6
330
5
100
AcDbSymbolTableRecord
100
AcDbLinetypeTableRecord
  2
AM_DIN_F_W050x2
 70
     0
  3
 _ _ _ _ _ _ _ _ _ _ _ _
 72
    65
 73
     2
 40
3.125
 49
2.25
 74
     0
 49
-0.875
 74
     0
  0
LTYPE
  5
2CC
330
5
100
AcDbSymbolTableRecord
100
AcDbLinetypeTableRecord
  2
ACANSTGBM
 70
     0
  3
__ . . __ . .
 72
    65
 73
     6
 40
9.0
 49
4.0
 74
     0
 49
-1.0
 74
     0
 49
1.0
 74
     0
 49
-1.0
 74
     0
 49
1.0
 74
     0
 49
-1.0
 74
     0
  0
LTYPE
  5
2CD
330
5
100
AcDbSymbolTableRecord
100
AcDbLinetypeTableRecord
  2
ACANSTGLM
 70
     0
  3
_ _ _ _ _
 72
    65
 73
     2
 40
3.0
 49
2.0
 74
     0
 49
-1.0
 74
     0
  0
LTYPE
  5
2E5
330
5
100
AcDbSymbolTableRecord
100
AcDbLinetypeTableRecord
  2
ACBSWELD
 70
     0
  3
_ _ _ _ _
 72
    65
 73
     2
 40
2.0
 49
2.0
 74
     0
 49
-1.0
 74
     0
  0
LTYPE
  5
2E8
330
5
100
AcDbSymbolTableRecord
100
AcDbLinetypeTableRecord
  2
ACBSITGB
 70
     0
  3
__ . . __ . .
 72
    65
 73
     6
 40
9.0
 49
4.0
 74
     0
 49
-1.0
 74
     0
 49
1.0
 74
     0
 49
-1.0
 74
     0
 49
1.0
 74
     0
 49
-1.0
 74
     0
  0
LTYPE
  5
2E9
330
5
100
AcDbSymbolTableRecord
100
AcDbLinetypeTableRecord
  2
ACBSITGL
 70
     0
  3
_ _ _ _ _
 72
    65
 73
     2
 40
3.0
 49
2.0
 74
     0
 49
-1.0
 74
     0
  0
LTYPE
  5
300
330
5
100
AcDbSymbolTableRecord
100
AcDbLinetypeTableRecord
  2
ACDINWELD
 70
     0
  3
_ _ _ _ _
 72
    65
 73
     2
 40
2.0
 49
2.0
 74
     0
 49
-1.0
 74
     0
  0
LTYPE
  5
303
330
5
100
AcDbSymbolTableRecord
100
AcDbLinetypeTableRecord
  2
ACDINTGB
 70
     0
  3
__ . . __ . .
 72
    65
 73
     6
 40
9.0
 49
4.0
 74
     0
 49
-1.0
 74
     0
 49
1.0
 74
     0
 49
-1.0
 74
     0
 49
1.0
 74
     0
 49
-1.0
 74
     0
  0
LTYPE
  5
304
330
5
100
AcDbSymbolTableRecord
100
AcDbLinetypeTableRecord
  2
ACDINTGL
 70
     0
  3
_ _ _ _ _
 72
    65
 73
     2
 40
3.0
 49
2.0
 74
     0
 49
-1.0
 74
     0
  0
LTYPE
  5
31A
330
5
100
AcDbSymbolTableRecord
100
AcDbLinetypeTableRecord
  2
ACISOWELD
 70
     0
  3
_ _ _ _ _
 72
    65
 73
     2
 40
2.0
 49
2.0
 74
     0
 49
-1.0
 74
     0
  0
LTYPE
  5
31D
330
5
100
AcDbSymbolTableRecord
100
AcDbLinetypeTableRecord
  2
ACISOTGB
 70
     0
  3
__ . . __ . .
 72
    65
 73
     6
 40
9.0
 49
4.0
 74
     0
 49
-1.0
 74
     0
 49
1.0
 74
     0
 49
-1.0
 74
     0
 49
1.0
 74
     0
 49
-1.0
 74
     0
  0
LTYPE
  5
31E
330
5
100
AcDbSymbolTableRecord
100
AcDbLinetypeTableRecord
  2
ACISOTGL
 70
     0
  3
_ _ _ _ _
 72
    65
 73
     2
 40
3.0
 49
2.0
 74
     0
 49
-1.0
 74
     0
  0
LTYPE
  5
337
330
5
100
AcDbSymbolTableRecord
100
AcDbLinetypeTableRecord
  2
ACJISTGB
 70
     0
  3
__ . . __ . .
 72
    65
 73
     6
 40
9.0
 49
4.0
 74
     0
 49
-1.0
 74
     0
 49
1.0
 74
     0
 49
-1.0
 74
     0
 49
1.0
 74
     0
 49
-1.0
 74
     0
  0
LTYPE
  5
338
330
5
100
AcDbSymbolTableRecord
100
AcDbLinetypeTableRecord
  2
ACJISTGL
 70
     0
  3
_ _ _ _ _
 72
    65
 73
     2
 40
3.0
 49
2.0
 74
     0
 49
-1.0
 74
     0
  0
LTYPE
  5
3A6
330
5
100
AcDbSymbolTableRecord
100
AcDbLinetypeTableRecord
  2
ACANSTGB
 70
     0
  3
__ . . __ . .
 72
    65
 73
     6
 40
0.35433070866
 49
0.15748031496
 74
     0
 49
-0.03937007874
 74
     0
 49
0.03937007874
 74
     0
 49
-0.03937007874
 74
     0
 49
0.03937007874
 74
     0
 49
-0.03937007874
 74
     0
  0
LTYPE
  5
3A7
330
5
100
AcDbSymbolTableRecord
100
AcDbLinetypeTableRecord
  2
ACANSTGL
 70
     0
  3
_ _ _ _ _
 72
    65
 73
     2
 40
0.11811023622
 49
0.07874015748
 74
     0
 49
-0.03937007874
 74
     0
  0
ENDTAB
  0
TABLE
  2
LAYER
  5
2
102
{ACAD_XDICTIONARY
360
44C
102
}
330
0
100
AcDbSymbolTable
 70
     8
  0
LAYER
  5
F
330
2
100
AcDbSymbolTableRecord
100
AcDbLayerTableRecord
  2
0
 70
     0
 62
     7
  6
CONTINUOUS
370
    -3
390
14F
  0
LAYER
  5
608
330
2
100
AcDbSymbolTableRecord
100
AcDbLayerTableRecord
  2
Defpoints
 70
     0
 62
     7
  6
CONTINUOUS
290
     0
370
    -3
390
14F
  0
LAYER
  5
BB3
330
2
100
AcDbSymbolTableRecord
100
AcDbLayerTableRecord
  2
Part
 70
     0
 62
     1
  6
CONTINUOUS
370
    -3
390
14F
1001
AcAecLayerStandard
1000

1000

  0
LAYER
  5
BB4
330
2
100
AcDbSymbolTableRecord
100
AcDbLayerTableRecord
  2
Dimensions
 70
     0
 62
     2
  6
CONTINUOUS
370
    -3
390
14F
1001
AcAecLayerStandard
1000

1000

  0
LAYER
  5
C3C
330
2
100
AcDbSymbolTableRecord
100
AcDbLayerTableRecord
  2
AM_0
 70
     0
 62
     7
  6
CONTINUOUS
370
    30
390
14F
1001
AcAecLayerStandard
1000

1000

  0
LAYER
  5
CB0
330
2
100
AcDbSymbolTableRecord
100
AcDbLayerTableRecord
  2
Notes
 70
     0
 62
     3
  6
CONTINUOUS
370
    -3
390
14F
1001
AcAecLayerStandard
1000

1000

  0
LAYER
  5
CB1
330
2
100
AcDbSymbolTableRecord
100
AcDbLayerTableRecord
  2
Label
 70
     0
 62
    30
  6
CONTINUOUS
370
    -3
390
14F
1001
AcAecLayerStandard
1000

1000

  0
LAYER
  5
1503
330
2
100
AcDbSymbolTableRecord
100
AcDbLayerTableRecord
  2
Schematics
 70
     0
 62
   220
  6
CONTINUOUS
370
    -3
390
14F
1001
AcAecLayerStandard
1000

1000

  0
ENDTAB
  0
TABLE
  2
STYLE
  5
3
330
0
100
AcDbSymbolTable
 70
    18
  0
STYLE
  5
10
330
3
100
AcDbSymbolTableRecord
100
AcDbTextStyleTableRecord
  2
STANDARD
 70
     0
 40
0.0
 41
1.0
 50
0.0
 71
     0
 42
0.12
  3
ARIAL.TTF
  4

1001
ACAD
1000
Arial
1071
       34
  0
STYLE
  5
11D
330
3
100
AcDbSymbolTableRecord
100
AcDbTextStyleTableRecord
  2
ADESK1
 70
     0
 40
0.0
 41
1.0
 50
0.0
 71
     0
 42
0.12
  3
romans.shx
  4

  0
STYLE
  5
162
330
3
100
AcDbSymbolTableRecord
100
AcDbTextStyleTableRecord
  2

 70
     1
 40
0.0
 41
1.0
 50
0.0
 71
     0
 42
0.12
  3
ltypeshp.shx
  4

  0
STYLE
  5
2C5
330
3
100
AcDbSymbolTableRecord
100
AcDbTextStyleTableRecord
  2
ACANSTSI
 70
     0
 40
1.0
 41
1.0
 50
0.0
 71
     0
 42
3.5
  3
romans.shx
  4

  0
STYLE
  5
2C8
330
3
100
AcDbSymbolTableRecord
100
AcDbTextStyleTableRecord
  2
ACANSGDT
 70
     0
 40
0.0
 41
1.0
 50
0.0
 71
     0
 42
3.5
  3
amgdt.shx
  4

  0
STYLE
  5
2E0
330
3
100
AcDbSymbolTableRecord
100
AcDbTextStyleTableRecord
  2
ACBSITS
 70
     0
 40
1.0
 41
1.0
 50
0.0
 71
     0
 42
3.5
  3
isocp.shx
  4

  0
STYLE
  5
2E3
330
3
100
AcDbSymbolTableRecord
100
AcDbTextStyleTableRecord
  2
ACBSIGDT
 70
     0
 40
0.0
 41
1.0
 50
0.0
 71
     0
 42
3.5
  3
amgdt.shx
  4

  0
STYLE
  5
2FA
330
3
100
AcDbSymbolTableRecord
100
AcDbTextStyleTableRecord
  2
ACDINTS
 70
     0
 40
1.0
 41
1.0
 50
0.0
 71
     0
 42
3.5
  3
isocp.shx
  4

  0
STYLE
  5
2FE
330
3
100
AcDbSymbolTableRecord
100
AcDbTextStyleTableRecord
  2
ACDINGDT
 70
     0
 40
0.0
 41
1.0
 50
0.0
 71
     0
 42
3.5
  3
amgdt.shx
  4

  0
STYLE
  5
315
330
3
100
AcDbSymbolTableRecord
100
AcDbTextStyleTableRecord
  2
ACISOTS
 70
     0
 40
1.0
 41
1.0
 50
0.0
 71
     0
 42
3.5
  3
isocp.shx
  4

  0
STYLE
  5
318
330
3
100
AcDbSymbolTableRecord
100
AcDbTextStyleTableRecord
  2
ACISOGDT
 70
     0
 40
0.0
 41
1.0
 50
0.0
 71
     0
 42
3.5
  3
amgdt.shx
  4

  0
STYLE
  5
330
330
3
100
AcDbSymbolTableRecord
100
AcDbTextStyleTableRecord
  2
ACJISTS
 70
     0
 40
1.0
 41
1.0
 50
0.0
 71
     0
 42
3.5
  3
isocp.shx
  4
bigfont.shx
  0
STYLE
  5
333
330
3
100
AcDbSymbolTableRecord
100
AcDbTextStyleTableRecord
  2
ACJISGDT
 70
     0
 40
0.0
 41
1.0
 50
0.0
 71
     0
 42
3.5
  3
amgdt.shx
  4

  0
STYLE
  5
39B
330
3
100
AcDbSymbolTableRecord
100
AcDbTextStyleTableRecord
  2
ACANSTS
 70
     0
 40
1.0
 41
1.0
 50
0.0
 71
     0
 42
0.12
  3
romans.shx
  4

  0
STYLE
  5
4F1
330
3
100
AcDbSymbolTableRecord
100
AcDbTextStyleTableRecord
  2
USER1
 70
     0
 40
0.0
 41
1.0
 50
0.0
 71
     0
 42
0.12
  3
TXT.SHX
  4

  0
STYLE
  5
4F2
330
3
100
AcDbSymbolTableRecord
100
AcDbTextStyleTableRecord
  2
USER2
 70
     0
 40
0.0
 41
1.0
 50
0.0
 71
     0
 42
0.12
  3
SIMPLEX.SHX
  4

  0
STYLE
  5
4F3
330
3
100
AcDbSymbolTableRecord
100
AcDbTextStyleTableRecord
  2
USER3
 70
     0
 40
0.0
 41
1.0
 50
0.0
 71
     0
 42
0.12
  3
ITALIC.SHX
  4

  0
STYLE
  5
538
330
3
100
AcDbSymbolTableRecord
100
AcDbTextStyleTableRecord
  2

 70
     1
 40
0.0
 41
1.0
 50
0.0
 71
     0
 42
0.12
  3
genltshp.shx
  4

  0
ENDTAB
  0
TABLE
  2
VIEW
  5
6
330
0
100
AcDbSymbolTable
 70
     3
  0
VIEW
  5
193
330
6
100
AcDbSymbolTableRecord
100
AcDbViewTableRecord
  2
AMDTVIEW1
 70
     0
 40
11.38251346627189
 10
7.263840830449826
 20
5.691256733135945
 41
14.52768166089965
 11
0.0
 21
0.0
 31
1.0
 12
0.0
 22
0.0
 32
0.0
 42
50.0
 43
0.0
 44
0.0
 50
0.0
 71
     0
281
     0
 72
     0
  0
VIEW
  5
194
330
6
100
AcDbSymbolTableRecord
100
AcDbViewTableRecord
  2
AMDTVIEW2
 70
     0
 40
11.38251346627189
 10
7.263840830449826
 20
5.691256733135945
 41
14.52768166089965
 11
0.0
 21
0.0
 31
1.0
 12
0.0
 22
0.0
 32
0.0
 42
50.0
 43
0.0
 44
0.0
 50
0.0
 71
     0
281
     0
 72
     0
  0
VIEW
  5
195
330
6
100
AcDbSymbolTableRecord
100
AcDbViewTableRecord
  2
AMDTVIEW3
 70
     0
 40
11.38251346627189
 10
7.263840830449826
 20
5.691256733135945
 41
14.52768166089965
 11
0.0
 21
0.0
 31
1.0
 12
0.0
 22
0.0
 32
0.0
 42
50.0
 43
0.0
 44
0.0
 50
0.0
 71
     0
281
     0
 72
     0
  0
ENDTAB
  0
TABLE
  2
UCS
  5
7
330
0
100
AcDbSymbolTable
 70
     0
  0
ENDTAB
  0
TABLE
  2
APPID
  5
9
330
0
100
AcDbSymbolTable
 70
    31
  0
APPID
  5
11
330
9
100
AcDbSymbolTableRecord
100
AcDbRegAppTableRecord
  2
ACAD
 70
     0
  0
APPID
  5
9C
330
9
100
AcDbSymbolTableRecord
100
AcDbRegAppTableRecord
  2
AD_DRAW
 70
     0
  0
APPID
  5
B6
330
9
100
AcDbSymbolTableRecord
100
AcDbRegAppTableRecord
  2
DESIGNERASSEMBLIES
 70
     0
  0
APPID
  5
BD
330
9
100
AcDbSymbolTableRecord
100
AcDbRegAppTableRecord
  2
MCAD_NO_VIS
 70
     0
  0
APPID
  5
F4
330
9
100
AcDbSymbolTableRecord
100
AcDbRegAppTableRecord
  2
ASURF_PCURVE_APPNAME
 70
     0
  0
APPID
  5
168
330
9
100
AcDbSymbolTableRecord
100
AcDbRegAppTableRecord
  2
ACAD_TEMP_GRAPHIC
 70
     0
  0
APPID
  5
172
330
9
100
AcDbSymbolTableRecord
100
AcDbRegAppTableRecord
  2
ACATTRIBSERVICES
 70
     0
  0
APPID
  5
18F
330
9
100
AcDbSymbolTableRecord
100
AcDbRegAppTableRecord
  2
ACADM_DIM_EDIT
 70
     0
  0
APPID
  5
19D
330
9
100
AcDbSymbolTableRecord
100
AcDbRegAppTableRecord
  2
GENIUS_GENDIM_13
 70
     0
  0
APPID
  5
19E
330
9
100
AcDbSymbolTableRecord
100
AcDbRegAppTableRecord
  2
GENIUS_GENDTOL_13
 70
     0
  0
APPID
  5
19F
330
9
100
AcDbSymbolTableRecord
100
AcDbRegAppTableRecord
  2
GENIUS_GE3DTOL_13
 70
     0
  0
APPID
  5
2A2
330
9
100
AcDbSymbolTableRecord
100
AcDbRegAppTableRecord
  2
AMG_3D2D_5.0
 70
     0
  0
APPID
  5
3EE
330
9
100
AcDbSymbolTableRecord
100
AcDbRegAppTableRecord
  2
AMDT_DM_ADJ
 70
     0
  0
APPID
  5
4AA
330
9
100
AcDbSymbolTableRecord
100
AcDbRegAppTableRecord
  2
ACAD_DSTYLE_DIMARC_LENGTH_SYMBOL
 70
     0
  0
APPID
  5
4AB
330
9
100
AcDbSymbolTableRecord
100
AcDbRegAppTableRecord
  2
ACAD_DSTYLE_DIMJOGGED_JOGANGLE_SYMBOL
 70
     0
  0
APPID
  5
5F8
330
9
100
AcDbSymbolTableRecord
100
AcDbRegAppTableRecord
  2
ACAD_EXEMPT_FROM_CAD_STANDARDS
 70
     0
  0
APPID
  5
686
330
9
100
AcDbSymbolTableRecord
100
AcDbRegAppTableRecord
  2
GEVID1206382153
 70
     0
  0
APPID
  5
687
330
9
100
AcDbSymbolTableRecord
100
AcDbRegAppTableRecord
  2
GEVDC
 70
     0
  0
APPID
  5
68A
330
9
100
AcDbSymbolTableRecord
100
AcDbRegAppTableRecord
  2
AcAecLayerStandard
 70
     0
  0
APPID
  5
68B
330
9
100
AcDbSymbolTableRecord
100
AcDbRegAppTableRecord
  2
GENIUS_GENBH_13
 70
     0
  0
APPID
  5
68D
330
9
100
AcDbSymbolTableRecord
100
AcDbRegAppTableRecord
  2
GENIUS_GENOENT_13
 70
     0
  0
APPID
  5
68E
330
9
100
AcDbSymbolTableRecord
100
AcDbRegAppTableRecord
  2
GENIUS_GENOBJ-NBEHI-BHF_13
 70
     0
  0
APPID
  5
68F
330
9
100
AcDbSymbolTableRecord
100
AcDbRegAppTableRecord
  2
GENIUS_GENODEF_13
 70
     0
  0
APPID
  5
690
330
9
100
AcDbSymbolTableRecord
100
AcDbRegAppTableRecord
  2
GENIUS_GENOLIS_13
 70
     0
  0
APPID
  5
691
330
9
100
AcDbSymbolTableRecord
100
AcDbRegAppTableRecord
  2
GENIUS_GENOREF_13
 70
     0
  0
APPID
  5
693
330
9
100
AcDbSymbolTableRecord
100
AcDbRegAppTableRecord
  2
GENIUS_GENOBJ-NBEHI-BHB_13
 70
     0
  0
APPID
  5
C42
330
9
100
AcDbSymbolTableRecord
100
AcDbRegAppTableRecord
  2
GENIUS_GENOBJ-N-HTC_13
 70
     0
  0
APPID
  5
C43
330
9
100
AcDbSymbolTableRecord
100
AcDbRegAppTableRecord
  2
GENIUS_GENHATCH_13
 70
     0
  0
APPID
  5
FFC
330
9
100
AcDbSymbolTableRecord
100
AcDbRegAppTableRecord
  2
ACAD_PSEXT
 70
     0
  0
APPID
  5
1287
330
9
100
AcDbSymbolTableRecord
100
AcDbRegAppTableRecord
  2
GENIUS_GENSCREG_15
 70
     0
  0
APPID
  5
1288
330
9
100
AcDbSymbolTableRecord
100
AcDbRegAppTableRecord
  2
GENIUS_GENOBJ-N-SDF_13
 70
     0
  0
ENDTAB
  0
TABLE
  2
DIMSTYLE
  5
A
330
0
100
AcDbSymbolTable
 70
    35
100
AcDbDimStyleTable
 71
     5
340
2D3
340
322
340
308
340
2ED
340
33C
  0
DIMSTYLE
105
1D
330
A
100
AcDbSymbolTableRecord
100
AcDbDimStyleTableRecord
  2
STANDARD
 70
     0
340
10
  0
DIMSTYLE
105
2D3
330
A
100
AcDbSymbolTableRecord
100
AcDbDimStyleTableRecord
  2
AM_ANSI
 70
     0
  4
mm
 41
0.1
 42
0.05
 43
0.5
 44
0.1
 47
0.1
 48
0.1
 78
     7
 79
     2
140
0.12
141
0.0
146
0.71
147
0.06
176
   256
177
   256
178
     2
274
     4
284
     7
340
10
371
    -1
372
    -1
1001
ACAD_DSTYLE_DIMJOGGED_JOGANGLE_SYMBOL
1070
   384
1040
0.7853981633974483
1001
ACAD_DSTYLE_DIMARC_LENGTH_SYMBOL
1070
   379
1070
     1
  0
DIMSTYLE
105
2D4
330
A
100
AcDbSymbolTableRecord
100
AcDbDimStyleTableRecord
  2
AM_ANSI$3
 70
     0
  4
mm
 41
0.1
 42
0.05
 43
0.5
 44
0.1
 47
0.1
 48
0.1
 78
     7
 79
     2
140
0.12
141
0.0
146
0.71
147
0.06
176
   256
177
   256
178
     2
274
     4
284
     7
288
     1
289
     0
340
10
371
    -1
372
    -1
1001
ACAD_DSTYLE_DIMJOGGED_JOGANGLE_SYMBOL
1070
   384
1040
0.7853981633974483
1001
ACAD_DSTYLE_DIMARC_LENGTH_SYMBOL
1070
   379
1070
     1
  0
DIMSTYLE
105
2D5
330
A
100
AcDbSymbolTableRecord
100
AcDbDimStyleTableRecord
  2
AM_ANSI$4
 70
     0
  4
mm
 41
0.1
 42
0.05
 43
0.5
 44
0.1
 47
0.1
 48
0.1
 78
     7
 79
     2
140
0.12
141
0.0
146
0.71
147
0.06
176
   256
177
   256
178
     2
274
     4
284
     7
288
     1
289
     0
340
10
371
    -1
372
    -1
1001
ACAD_DSTYLE_DIMJOGGED_JOGANGLE_SYMBOL
1070
   384
1040
0.7853981633974483
1001
ACAD_DSTYLE_DIMARC_LENGTH_SYMBOL
1070
   379
1070
     1
  0
DIMSTYLE
105
2D6
330
A
100
AcDbSymbolTableRecord
100
AcDbDimStyleTableRecord
  2
AM_ANSI$7
 70
     0
  4
mm
 41
0.1
 42
0.05
 43
0.5
 44
0.1
 47
0.1
 48
0.1
 78
     7
 79
     2
140
0.24
141
0.0
146
0.71
147
0.06
176
   256
177
   256
178
     2
274
     4
284
     7
340
10
371
    -1
372
    -1
1001
ACAD_DSTYLE_DIMJOGGED_JOGANGLE_SYMBOL
1070
   384
1040
0.7853981633974483
1001
ACAD_DSTYLE_DIMARC_LENGTH_SYMBOL
1070
   379
1070
     1
  0
DIMSTYLE
105
2D7
330
A
100
AcDbSymbolTableRecord
100
AcDbDimStyleTableRecord
  2
AM_ANSI$SF
 70
     0
  4
mm
 41
0.1
 42
0.05
 43
0.5
 44
0.1
 47
0.1
 48
0.1
 75
     1
 76
     1
 78
     7
 79
     2
140
0.12
141
0.0
146
0.71
147
0.06
176
   256
177
   256
178
     2
274
     4
284
     7
340
10
371
    -1
372
    -1
1001
ACAD_DSTYLE_DIMJOGGED_JOGANGLE_SYMBOL
1070
   384
1040
0.7853981633974483
1001
ACAD_DSTYLE_DIMARC_LENGTH_SYMBOL
1070
   379
1070
     1
  0
DIMSTYLE
105
2D8
330
A
100
AcDbSymbolTableRecord
100
AcDbDimStyleTableRecord
  2
AM_ANSI$SH
 70
     0
  4
mm
 41
0.1
 42
0.05
 43
0.5
 44
0.1
 47
0.1
 48
0.1
 75
     1
 76
     1
 78
     7
 79
     2
140
0.12
141
0.0
146
0.71
147
0.06
173
     1
176
   256
177
   256
178
     2
274
     4
284
     7
340
10
343
2AD
371
    -1
372
    -1
1001
ACAD_DSTYLE_DIMJOGGED_JOGANGLE_SYMBOL
1070
   384
1040
0.7853981633974483
1001
ACAD_DSTYLE_DIMARC_LENGTH_SYMBOL
1070
   379
1070
     1
  0
DIMSTYLE
105
2ED
330
A
100
AcDbSymbolTableRecord
100
AcDbDimStyleTableRecord
  2
AM_BSI
 70
     0
  4
mm
 41
0.1574803149606299
 42
0.05
 43
0.5
 44
0.1
 47
0.1
 48
0.1
 73
     0
 74
     0
 77
     1
 78
     7
 79
     2
140
0.12
141
0.0
146
0.71
147
0.06
172
     1
176
   256
177
   256
178
     2
274
     4
283
     0
284
     7
340
10
371
    -1
372
    -1
  0
DIMSTYLE
105
2EE
330
A
100
AcDbSymbolTableRecord
100
AcDbDimStyleTableRecord
  2
AM_BSI$3
 70
     0
  4
mm
 41
0.1574803149606299
 42
0.05
 43
0.5
 44
0.1
 47
0.1
 48
0.1
 73
     0
 77
     1
 78
     7
 79
     2
140
0.12
141
0.0
146
0.71
147
0.06
176
   256
177
   256
178
     2
274
     4
283
     0
284
     7
288
     1
289
     0
340
10
371
    -1
372
    -1
  0
DIMSTYLE
105
2EF
330
A
100
AcDbSymbolTableRecord
100
AcDbDimStyleTableRecord
  2
AM_BSI$4
 70
     0
  4
mm
 41
0.1574803149606299
 42
0.05
 43
0.5
 44
0.1
 47
0.1
 48
0.1
 73
     0
 77
     1
 78
     7
 79
     2
140
0.12
141
0.0
146
0.71
147
0.06
176
   256
177
   256
178
     2
274
     4
283
     0
284
     7
288
     1
289
     0
340
10
371
    -1
372
    -1
  0
DIMSTYLE
105
2F0
330
A
100
AcDbSymbolTableRecord
100
AcDbDimStyleTableRecord
  2
AM_BSI$6
 70
     0
  4
mm
 41
0.1574803149606299
 42
0.05
 43
0.5
 44
0.1
 47
0.1
 48
0.1
 73
     0
 74
     0
 78
     7
 79
     2
140
0.12
141
0.0
146
0.71
147
0.06
172
     1
176
   256
177
   256
178
     2
274
     4
283
     0
284
     7
340
10
371
    -1
372
    -1
  0
DIMSTYLE
105
2F1
330
A
100
AcDbSymbolTableRecord
100
AcDbDimStyleTableRecord
  2
AM_BSI$7
 70
     0
  4
mm
 41
0.1
 42
0.05
 43
0.5
 44
0.1
 47
0.1
 48
0.1
 73
     0
 74
     0
 77
     1
 78
     7
 79
     2
140
0.24
141
0.0
146
0.71
147
0.06
172
     1
176
   256
177
   256
178
     2
274
     4
283
     0
284
     7
340
10
371
    -1
372
    -1
  0
DIMSTYLE
105
2F2
330
A
100
AcDbSymbolTableRecord
100
AcDbDimStyleTableRecord
  2
AM_BSI$SF
 70
     0
  4
mm
 41
0.1574803149606299
 42
0.05
 43
0.5
 44
0.1
 47
0.1
 48
0.1
 73
     0
 74
     0
 75
     1
 76
     1
 77
     1
 78
     7
 79
     2
140
0.12
141
0.0
146
0.71
147
0.06
172
     1
176
   256
177
   256
178
     2
274
     4
283
     0
284
     7
340
10
371
    -1
372
    -1
  0
DIMSTYLE
105
2F3
330
A
100
AcDbSymbolTableRecord
100
AcDbDimStyleTableRecord
  2
AM_BSI$SH
 70
     0
  4
mm
 41
0.1574803149606299
 42
0.05
 43
0.5
 44
0.1
 47
0.1
 48
0.1
 73
     0
 74
     0
 75
     1
 76
     1
 77
     1
 78
     7
 79
     2
140
0.12
141
0.0
144
2.0
146
0.71
147
0.06
172
     1
173
     1
176
   256
177
   256
178
     2
274
     4
283
     0
284
     7
340
10
371
    -1
372
    -1
  0
DIMSTYLE
105
308
330
A
100
AcDbSymbolTableRecord
100
AcDbDimStyleTableRecord
  2
AM_DIN
 70
     0
  4
mm
 41
0.1
 42
0.05
 43
0.5
 44
0.1
 47
0.1
 48
0.1
 73
     0
 74
     0
 77
     1
 78
     7
 79
     2
140
0.12
141
0.0
146
0.71
147
0.06
172
     1
176
   256
177
   256
178
     2
274
     4
283
     0
284
     7
340
10
371
    -1
372
    -1
  0
DIMSTYLE
105
309
330
A
100
AcDbSymbolTableRecord
100
AcDbDimStyleTableRecord
  2
AM_DIN$3
 70
     0
  4
mm
 41
0.1
 42
0.05
 43
0.5
 44
0.1
 47
0.1
 48
0.1
 73
     0
 77
     1
 78
     7
 79
     2
140
0.12
141
0.0
146
0.71
147
0.06
176
   256
177
   256
178
     2
274
     4
283
     0
284
     7
288
     1
289
     0
340
10
371
    -1
372
    -1
  0
DIMSTYLE
105
30A
330
A
100
AcDbSymbolTableRecord
100
AcDbDimStyleTableRecord
  2
AM_DIN$4
 70
     0
  4
mm
 41
0.1
 42
0.05
 43
0.5
 44
0.1
 47
0.1
 48
0.1
 73
     0
 77
     1
 78
     7
 79
     2
140
0.12
141
0.0
146
0.71
147
0.06
176
   256
177
   256
178
     2
274
     4
283
     0
284
     7
288
     1
289
     0
340
10
371
    -1
372
    -1
  0
DIMSTYLE
105
30B
330
A
100
AcDbSymbolTableRecord
100
AcDbDimStyleTableRecord
  2
AM_DIN$6
 70
     0
  4
mm
 41
0.1
 42
0.05
 43
0.5
 44
0.1
 47
0.1
 48
0.1
 73
     0
 74
     0
 78
     7
 79
     2
140
0.12
141
0.0
146
0.71
147
0.06
172
     1
176
   256
177
   256
178
     2
274
     4
283
     0
284
     7
340
10
371
    -1
372
    -1
  0
DIMSTYLE
105
30C
330
A
100
AcDbSymbolTableRecord
100
AcDbDimStyleTableRecord
  2
AM_DIN$7
 70
     0
  4
mm
 41
0.1
 42
0.05
 43
0.5
 44
0.1
 47
0.1
 48
0.1
 73
     0
 74
     0
 77
     1
 78
     7
 79
     2
140
0.24
141
0.0
146
0.71
147
0.06
172
     1
176
   256
177
   256
178
     2
274
     4
283
     0
284
     7
340
10
371
    -1
372
    -1
  0
DIMSTYLE
105
30D
330
A
100
AcDbSymbolTableRecord
100
AcDbDimStyleTableRecord
  2
AM_DIN$SF
 70
     0
  4
mm
 41
0.1
 42
0.05
 43
0.5
 44
0.1
 47
0.1
 48
0.1
 73
     0
 74
     0
 75
     1
 76
     1
 77
     1
 78
     7
 79
     2
140
0.12
141
0.0
146
0.71
147
0.06
172
     1
176
   256
177
   256
178
     2
274
     4
283
     0
284
     7
340
10
371
    -1
372
    -1
  0
DIMSTYLE
105
30E
330
A
100
AcDbSymbolTableRecord
100
AcDbDimStyleTableRecord
  2
AM_DIN$SH
 70
     0
  4
mm
 41
0.1
 42
0.05
 43
0.5
 44
0.1
 47
0.1
 48
0.1
 73
     0
 74
     0
 75
     1
 76
     1
 77
     1
 78
     7
 79
     2
140
0.12
141
0.0
144
2.0
146
0.71
147
0.06
172
     1
173
     1
176
   256
177
   256
178
     2
274
     4
283
     0
284
     7
340
10
371
    -1
372
    -1
  0
DIMSTYLE
105
322
330
A
100
AcDbSymbolTableRecord
100
AcDbDimStyleTableRecord
  2
AM_ISO
 70
     0
  4
mm
 41
0.1
 42
0.05
 43
0.5
 44
0.1
 47
0.1
 48
0.1
 73
     0
 74
     0
 77
     1
 78
     7
 79
     2
140
0.12
141
0.0
146
0.71
147
0.06
172
     1
176
   256
177
   256
178
     2
274
     4
283
     0
284
     7
340
10
371
    -1
372
    -1
  0
DIMSTYLE
105
323
330
A
100
AcDbSymbolTableRecord
100
AcDbDimStyleTableRecord
  2
AM_ISO$3
 70
     0
  4
mm
 41
0.1
 42
0.05
 43
0.5
 44
0.1
 47
0.1
 48
0.1
 73
     0
 77
     1
 78
     7
 79
     2
140
0.12
141
0.0
146
0.71
147
0.06
176
   256
177
   256
178
     2
274
     4
283
     0
284
     7
288
     1
289
     0
340
10
371
    -1
372
    -1
  0
DIMSTYLE
105
324
330
A
100
AcDbSymbolTableRecord
100
AcDbDimStyleTableRecord
  2
AM_ISO$4
 70
     0
  4
mm
 41
0.1
 42
0.05
 43
0.5
 44
0.1
 47
0.1
 48
0.1
 73
     0
 77
     1
 78
     7
 79
     2
140
0.12
141
0.0
146
0.71
147
0.06
176
   256
177
   256
178
     2
274
     4
283
     0
284
     7
288
     1
289
     0
340
10
371
    -1
372
    -1
  0
DIMSTYLE
105
325
330
A
100
AcDbSymbolTableRecord
100
AcDbDimStyleTableRecord
  2
AM_ISO$6
 70
     0
  4
mm
 41
0.1
 42
0.05
 43
0.5
 44
0.1
 47
0.1
 48
0.1
 73
     0
 74
     0
 78
     7
 79
     2
140
0.12
141
0.0
146
0.71
147
0.06
172
     1
176
   256
177
   256
178
     2
274
     4
283
     0
284
     7
340
10
371
    -1
372
    -1
  0
DIMSTYLE
105
326
330
A
100
AcDbSymbolTableRecord
100
AcDbDimStyleTableRecord
  2
AM_ISO$7
 70
     0
  4
mm
 41
0.1
 42
0.05
 43
0.5
 44
0.1
 47
0.1
 48
0.1
 73
     0
 74
     0
 77
     1
 78
     7
 79
     2
140
0.24
141
0.0
146
0.71
147
0.06
172
     1
176
   256
177
   256
178
     2
274
     4
283
     0
284
     7
340
10
371
    -1
372
    -1
  0
DIMSTYLE
105
327
330
A
100
AcDbSymbolTableRecord
100
AcDbDimStyleTableRecord
  2
AM_ISO$SF
 70
     0
  4
mm
 41
0.1
 42
0.05
 43
0.5
 44
0.1
 47
0.1
 48
0.1
 73
     0
 74
     0
 75
     1
 76
     1
 77
     1
 78
     7
 79
     2
140
0.12
141
0.0
146
0.71
147
0.06
172
     1
176
   256
177
   256
178
     2
274
     4
283
     0
284
     7
340
10
371
    -1
372
    -1
  0
DIMSTYLE
105
328
330
A
100
AcDbSymbolTableRecord
100
AcDbDimStyleTableRecord
  2
AM_ISO$SH
 70
     0
  4
mm
 41
0.1
 42
0.05
 43
0.5
 44
0.1
 47
0.1
 48
0.1
 73
     0
 74
     0
 75
     1
 76
     1
 77
     1
 78
     7
 79
     2
140
0.12
141
0.0
144
2.0
146
0.71
147
0.06
172
     1
173
     1
176
   256
177
   256
178
     2
274
     4
283
     0
284
     7
340
10
371
    -1
372
    -1
  0
DIMSTYLE
105
33C
330
A
100
AcDbSymbolTableRecord
100
AcDbDimStyleTableRecord
  2
AM_JIS
 70
     0
  4
mm
 41
0.1
 42
0.05
 43
0.5
 44
0.1
 47
0.1
 48
0.1
 73
     0
 74
     0
 77
     3
 78
     7
 79
     2
140
0.12
141
0.0
146
0.71
147
0.06
172
     1
176
   256
177
   256
178
     2
274
     4
283
     0
284
     7
340
10
371
    -1
372
    -1
  0
DIMSTYLE
105
33D
330
A
100
AcDbSymbolTableRecord
100
AcDbDimStyleTableRecord
  2
AM_JIS$3
 70
     0
  4
mm
 41
0.1
 42
0.05
 43
0.5
 44
0.1
 47
0.1
 48
0.1
 73
     0
 77
     3
 78
     7
 79
     2
140
0.12
141
0.0
146
0.71
147
0.06
176
   256
177
   256
178
     2
274
     4
283
     0
284
     7
288
     1
289
     0
340
10
371
    -1
372
    -1
  0
DIMSTYLE
105
33E
330
A
100
AcDbSymbolTableRecord
100
AcDbDimStyleTableRecord
  2
AM_JIS$4
 70
     0
  4
mm
 41
0.1
 42
0.05
 43
0.5
 44
0.1
 47
0.1
 48
0.1
 73
     0
 77
     3
 78
     7
 79
     2
140
0.12
141
0.0
146
0.71
147
0.06
176
   256
177
   256
178
     2
274
     4
283
     0
284
     7
288
     1
289
     0
340
10
371
    -1
372
    -1
  0
DIMSTYLE
105
33F
330
A
100
AcDbSymbolTableRecord
100
AcDbDimStyleTableRecord
  2
AM_JIS$6
 70
     0
  4
mm
 41
0.1
 42
0.05
 43
0.5
 44
0.1
 47
0.1
 48
0.1
 73
     0
 74
     0
 78
     7
 79
     2
140
0.12
141
0.0
146
0.71
147
0.06
172
     1
176
   256
177
   256
178
     2
274
     4
283
     0
284
     7
340
10
371
    -1
372
    -1
  0
DIMSTYLE
105
340
330
A
100
AcDbSymbolTableRecord
100
AcDbDimStyleTableRecord
  2
AM_JIS$7
 70
     0
  4
mm
 41
0.1
 42
0.05
 43
0.5
 44
0.1
 47
0.1
 48
0.1
 73
     0
 74
     0
 77
     3
 78
     7
 79
     2
140
0.24
141
0.0
146
0.71
147
0.06
172
     1
176
   256
177
   256
178
     2
274
     4
283
     0
284
     7
340
10
371
    -1
372
    -1
  0
DIMSTYLE
105
341
330
A
100
AcDbSymbolTableRecord
100
AcDbDimStyleTableRecord
  2
AM_JIS$SF
 70
     0
  4
mm
 41
0.1
 42
0.05
 43
0.5
 44
0.1
 47
0.1
 48
0.1
 73
     0
 74
     0
 75
     1
 76
     1
 77
     3
 78
     7
 79
     2
140
0.12
141
0.0
146
0.71
147
0.06
172
     1
176
   256
177
   256
178
     2
274
     4
283
     0
284
     7
340
10
371
    -1
372
    -1
  0
DIMSTYLE
105
342
330
A
100
AcDbSymbolTableRecord
100
AcDbDimStyleTableRecord
  2
AM_JIS$SH
 70
     0
  4
mm
 41
0.1
 42
0.05
 43
0.5
 44
0.1
 47
0.1
 48
0.1
 73
     0
 74
     0
 75
     1
 76
     1
 77
     3
 78
     7
 79
     2
140
0.12
141
0.0
144
2.0
146
0.71
147
0.06
172
     1
173
     1
176
   256
177
   256
178
     2
274
     4
283
     0
284
     7
340
10
371
    -1
372
    -1
  0
ENDTAB
  0
TABLE
  2
BLOCK_RECORD
  5
1
330
0
100
AcDbSymbolTable
 70
    19
  0
BLOCK_RECORD
  5
19
102
{ACAD_XDICTIONARY
360
11F
102
}
330
1
100
AcDbSymbolTableRecord
100
AcDbBlockTableRecord
  2
*MODEL_SPACE
340
152
  0
BLOCK_RECORD
  5
16
330
1
100
AcDbSymbolTableRecord
100
AcDbBlockTableRecord
  2
*PAPER_SPACE
340
153
  0
BLOCK_RECORD
  5
2A7
330
1
100
AcDbSymbolTableRecord
100
AcDbBlockTableRecord
  2
_Open30
340
0
  0
BLOCK_RECORD
  5
2AD
330
1
100
AcDbSymbolTableRecord
100
AcDbBlockTableRecord
  2
GENAXEH
340
0
  0
BLOCK_RECORD
  5
CC0
102
{ACAD_XDICTIONARY
360
D12
102
}
330
1
100
AcDbSymbolTableRecord
100
AcDbBlockTableRecord
  2
rails
340
0
1001
ACAD
1000
DesignCenter Data
1002
{
1070
     1
1070
     1
1002
}
  0
BLOCK_RECORD
  5
137C
102
{ACAD_XDICTIONARY
360
140A
102
}
330
1
100
AcDbSymbolTableRecord
100
AcDbBlockTableRecord
  2
A$C31C915BA
340
0
102
{BLKREFS
331
140F
102
}
1001
ACAD
1000
DesignCenter Data
1002
{
1070
     1
1070
     1
1002
}
  0
BLOCK_RECORD
  5
1504
102
{ACAD_XDICTIONARY
360
151F
102
}
330
1
100
AcDbSymbolTableRecord
100
AcDbBlockTableRecord
  2
A$C17CD3A4F
340
0
1001
ACAD
1000
DesignCenter Data
1002
{
1070
     1
1070
     1
1002
}
  0
BLOCK_RECORD
  5
1562
102
{ACAD_XDICTIONARY
360
1567
102
}
330
1
100
AcDbSymbolTableRecord
100
AcDbBlockTableRecord
  2
A$C50BB7AE2
340
0
102
{BLKREFS
331
156C
102
}
1001
ACAD
1000
DesignCenter Data
1002
{
1070
     1
1070
     1
1002
}
  0
ENDTAB
  0
ENDSEC
  0
SECTION
  2
BLOCKS
  0
BLOCK
  5
1A
330
19
100
AcDbEntity
  8
0
100
AcDbBlockBegin
  2
*MODEL_SPACE
 70
     0
 10
0.0
 20
0.0
 30
0.0
  3
*MODEL_SPACE
  1

  0
ENDBLK
  5
1B
330
19
100
AcDbEntity
  8
0
100
AcDbBlockEnd
  0
BLOCK
  5
17
330
16
100
AcDbEntity
 67
     1
  8
0
100
AcDbBlockBegin
  2
*PAPER_SPACE
 70
     0
 10
0.0
 20
0.0
 30
0.0
  3
*PAPER_SPACE
  1

  0
ENDBLK
  5
18
330
16
100
AcDbEntity
 67
     1
  8
0
100
AcDbBlockEnd
  0
BLOCK
  5
2AB
330
2A7
100
AcDbEntity
  8
0
100
AcDbBlockBegin
  2
_Open30
 70
     0
 10
0.0
 20
0.0
 30
0.0
  3
_Open30
  1

  0
LINE
  5
2A8
330
2A7
100
AcDbEntity
  8
0
  6
ByBlock
 62
     0
370
    -2
100
AcDbLine
 10
-1.0
 20
0.26794919
 30
0.0
 11
0.0
 21
0.0
 31
0.0
  0
LINE
  5
2A9
330
2A7
100
AcDbEntity
  8
0
  6
ByBlock
 62
     0
370
    -2
100
AcDbLine
 10
0.0
 20
0.0
 30
0.0
 11
-1.0
 21
-0.26794919
 31
0.0
  0
LINE
  5
2AA
330
2A7
100
AcDbEntity
  8
0
  6
ByBlock
 62
     0
370
    -2
100
AcDbLine
 10
0.0
 20
0.0
 30
0.0
 11
-1.0
 21
0.0
 31
0.0
  0
ENDBLK
  5
2AC
330
2A7
100
AcDbEntity
  8
0
100
AcDbBlockEnd
  0
BLOCK
  5
2AF
330
2AD
100
AcDbEntity
  8
0
100
AcDbBlockBegin
  2
GENAXEH
 70
     0
 10
0.0
 20
0.0
 30
0.0
  3
GENAXEH
  1

  0
LINE
  5
2AE
330
2AD
100
AcDbEntity
  8
0
100
AcDbLine
 10
-1.0
 20
0.0
 30
0.0
 11
1.0
 21
0.0
 31
0.0
  0
ENDBLK
  5
2B0
330
2AD
100
AcDbEntity
  8
0
100
AcDbBlockEnd
  0
BLOCK
  5
D14
330
CC0
100
AcDbEntity
  8
0
100
AcDbBlockBegin
  2
rails
 70
     0
 10
0.0
 20
0.0
 30
0.0
  3
rails
  1

  0
LINE
  5
CC1
330
CC0
100
AcDbEntity
  8
0
100
AcDbLine
 10
70.05400170602086
 20
55.39585392592229
 30
0.0
 11
70.05400170602086
 21
55.6908539259223
 31
0.0
  0
LINE
  5
CC2
330
CC0
100
AcDbEntity
  8
0
100
AcDbLine
 10
33.91242535959012
 20
29.35995376912029
 30
0.0
 11
33.91242535959012
 21
29.16695376912029
 31
0.0
  0
LINE
  5
CC3
330
CC0
100
AcDbEntity
  8
0
100
AcDbLine
 10
33.96042535959012
 20
29.35995376912029
 30
0.0
 11
33.96042535959012
 21
29.21495376912029
 31
0.0
  0
LINE
  5
CC4
330
CC0
100
AcDbEntity
  8
0
100
AcDbLine
 10
34.20742535959012
 20
29.07995376912029
 30
0.0
 11
34.20742535959012
 21
28.25995376912029
 31
0.0
  0
LINE
  5
CC5
330
CC0
100
AcDbEntity
  8
0
100
AcDbLine
 10
34.15942535959013
 20
29.03195376912029
 30
0.0
 11
34.15942535959012
 21
28.30795376912028
 31
0.0
  0
LINE
  5
CC6
330
CC0
100
AcDbEntity
  8
0
100
AcDbLine
 10
34.01042535959013
 20
28.17495376912027
 30
0.0
 11
34.12242535959013
 21
28.17495376912028
 31
0.0
  0
LINE
  5
CC7
330
CC0
100
AcDbEntity
  8
0
100
AcDbLine
 10
33.91242535959012
 20
29.35995376912029
 30
0.0
 11
33.96042535959012
 21
29.35995376912029
 31
0.0
  0
LINE
  5
CC8
330
CC0
100
AcDbEntity
  8
0
100
AcDbLine
 10
34.01042535959013
 20
29.16495376912029
 30
0.0
 11
34.12242535959013
 21
29.16495376912029
 31
0.0
  0
LINE
  5
CC9
330
CC0
100
AcDbEntity
  8
0
100
AcDbLine
 10
33.96242535959012
 20
29.11695376912028
 30
0.0
 11
34.07442535959012
 21
29.11695376912028
 31
0.0
  0
LINE
  5
CCA
330
CC0
100
AcDbEntity
  8
0
100
AcDbLine
 10
33.96242535959012
 20
28.22295376912029
 30
0.0
 11
34.07442535959012
 21
28.22295376912029
 31
0.0
  0
LINE
  5
CCB
330
CC0
100
AcDbEntity
  8
0
100
AcDbLine
 10
33.91242535959012
 20
27.97995376912029
 30
0.0
 11
33.96042535959012
 21
27.97995376912029
 31
0.0
  0
LINE
  5
CCC
330
CC0
100
AcDbEntity
  8
0
100
AcDbLine
 10
33.91242535959012
 20
28.17295376912029
 30
0.0
 11
33.91242535959012
 21
27.97995376912029
 31
0.0
  0
LINE
  5
CCD
330
CC0
100
AcDbEntity
  8
0
100
AcDbLine
 10
33.96042535959012
 20
28.12495376912028
 30
0.0
 11
33.96042535959012
 21
27.97995376912029
 31
0.0
  0
ARC
  5
CCE
330
CC0
100
AcDbEntity
  8
0
100
AcDbCircle
 10
34.12242535959013
 20
28.25995376912029
 30
0.0
 40
0.085
100
AcDbArc
 50
270.0
 51
0.0
  0
ARC
  5
CCF
330
CC0
100
AcDbEntity
  8
0
100
AcDbCircle
 10
34.12242535959013
 20
29.07995376912029
 30
0.0
 40
0.085
100
AcDbArc
 50
0.0
 51
90.0
  0
ARC
  5
CD0
330
CC0
100
AcDbEntity
  8
0
100
AcDbCircle
 10
34.07442535959012
 20
29.03195376912029
 30
0.0
 40
0.085
100
AcDbArc
 50
0.0
 51
90.0
  0
ARC
  5
CD1
330
CC0
100
AcDbEntity
  8
0
100
AcDbCircle
 10
34.07442535959012
 20
28.30795376912028
 30
0.0
 40
0.085
100
AcDbArc
 50
269.9999999999984
 51
0.0
  0
ARC
  5
CD2
330
CC0
100
AcDbEntity
  8
0
100
AcDbCircle
 10
34.01042535959013
 20
28.12495376912028
 30
0.0
 40
0.05
100
AcDbArc
 50
89.99999999999753
 51
180.0
  0
ARC
  5
CD3
330
CC0
100
AcDbEntity
  8
0
100
AcDbCircle
 10
33.96242535959011
 20
28.17295376912029
 30
0.0
 40
0.05
100
AcDbArc
 50
89.99999999999753
 51
180.0
  0
ARC
  5
CD4
330
CC0
100
AcDbEntity
  8
0
100
AcDbCircle
 10
33.96242535959012
 20
29.16695376912029
 30
0.0
 40
0.05
100
AcDbArc
 50
180.0
 51
270.0
  0
ARC
  5
CD5
330
CC0
100
AcDbEntity
  8
0
100
AcDbCircle
 10
34.01042535959013
 20
29.21495376912029
 30
0.0
 40
0.05
100
AcDbArc
 50
180.0
 51
270.0
  0
LINE
  5
CD6
330
CC0
100
AcDbEntity
  8
0
100
AcDbLine
 10
34.26664402566991
 20
27.60894172136179
 30
0.0
 11
34.2666440256699
 21
26.5429417213618
 31
0.0
  0
ARC
  5
CD7
330
CC0
100
AcDbEntity
  8
0
100
AcDbCircle
 10
34.1666440256699
 20
27.60894172136179
 30
0.0
 40
0.1
100
AcDbArc
 50
0.000000000000007
 51
90.0
  0
LINE
  5
CD8
330
CC0
100
AcDbEntity
  8
0
100
AcDbLine
 10
34.2016440256699
 20
27.5789417213618
 30
0.0
 11
34.20164402566991
 21
26.5729417213618
 31
0.0
  0
ARC
  5
CD9
330
CC0
100
AcDbEntity
  8
0
100
AcDbCircle
 10
34.13664402566991
 20
26.5729417213618
 30
0.0
 40
0.065
100
AcDbArc
 50
270.0000000000008
 51
0.0000000000003887
  0
ARC
  5
CDA
330
CC0
100
AcDbEntity
  8
0
100
AcDbCircle
 10
34.1366440256699
 20
27.5789417213618
 30
0.0
 40
0.065
100
AcDbArc
 50
0.000000000000007
 51
89.99999999999756
  0
LINE
  5
CDB
330
CC0
100
AcDbEntity
  8
0
100
AcDbLine
 10
33.66164402566991
 20
26.87494172136179
 30
0.0
 11
33.66164402566991
 21
26.54294172136181
 31
0.0
  0
ARC
  5
CDC
330
CC0
100
AcDbEntity
  8
0
100
AcDbCircle
 10
33.76164402566991
 20
26.54294172136181
 30
0.0
 40
0.1
100
AcDbArc
 50
180.0
 51
270.0
  0
LINE
  5
CDD
330
CC0
100
AcDbEntity
  8
0
100
AcDbLine
 10
33.72664402566991
 20
26.87494172136179
 30
0.0
 11
33.7266440256699
 21
26.57294172136179
 31
0.0
  0
LINE
  5
CDE
330
CC0
100
AcDbEntity
  8
0
100
AcDbLine
 10
33.90464402566991
 20
27.60894172136179
 30
0.0
 11
33.90464402566991
 21
27.5169417213618
 31
0.0
  0
LINE
  5
CDF
330
CC0
100
AcDbEntity
  8
0
100
AcDbLine
 10
33.9696440256699
 20
27.57894172136181
 30
0.0
 11
33.9696440256699
 21
27.5169417213618
 31
0.0
  0
LINE
  5
CE0
330
CC0
100
AcDbEntity
  8
0
100
AcDbLine
 10
34.1666440256699
 20
26.4429417213618
 30
0.0
 11
33.76164402566991
 21
26.4429417213618
 31
0.0
  0
ARC
  5
CE1
330
CC0
100
AcDbEntity
  8
0
100
AcDbCircle
 10
34.1666440256699
 20
26.5429417213618
 30
0.0
 40
0.1
100
AcDbArc
 50
270.0
 51
0.000000000000007
  0
LINE
  5
CE2
330
CC0
100
AcDbEntity
  8
0
100
AcDbLine
 10
33.72664402566991
 20
26.87494172136179
 30
0.0
 11
33.66164402566991
 21
26.8749417213618
 31
0.0
  0
LINE
  5
CE3
330
CC0
100
AcDbEntity
  8
0
100
AcDbLine
 10
34.13664402566991
 20
26.5079417213618
 30
0.0
 11
33.7916440256699
 21
26.50794172136179
 31
0.0
  0
ARC
  5
CE4
330
CC0
100
AcDbEntity
  8
0
100
AcDbCircle
 10
33.7916440256699
 20
26.57294172136179
 30
0.0
 40
0.065
100
AcDbArc
 50
180.0
 51
270.0000000000008
  0
LINE
  5
CE5
330
CC0
100
AcDbEntity
  8
0
100
AcDbLine
 10
34.1666440256699
 20
27.70894172136179
 30
0.0
 11
34.00464402566991
 21
27.70894172136179
 31
0.0
  0
ARC
  5
CE6
330
CC0
100
AcDbEntity
  8
0
100
AcDbCircle
 10
34.00464402566991
 20
27.60894172136179
 30
0.0
 40
0.1
100
AcDbArc
 50
89.9999999999992
 51
180.0000000000021
  0
LINE
  5
CE7
330
CC0
100
AcDbEntity
  8
0
100
AcDbLine
 10
33.9696440256699
 20
27.5169417213618
 30
0.0
 11
33.9046440256699
 21
27.5169417213618
 31
0.0
  0
LINE
  5
CE8
330
CC0
100
AcDbEntity
  8
0
100
AcDbLine
 10
34.1366440256699
 20
27.6439417213618
 30
0.0
 11
34.03464402566989
 21
27.64394172136181
 31
0.0
  0
ARC
  5
CE9
330
CC0
100
AcDbEntity
  8
0
100
AcDbCircle
 10
34.03464402566989
 20
27.57894172136181
 30
0.0
 40
0.065
100
AcDbArc
 50
89.9999999999992
 51
180.0
  0
LINE
  5
CEA
330
CC0
100
AcDbEntity
  8
0
100
AcDbLine
 10
37.08508521899537
 20
29.35995376912029
 30
0.0
 11
37.08508521899537
 21
29.16695376912029
 31
0.0
  0
ARC
  5
CEB
330
CC0
100
AcDbEntity
  8
0
100
AcDbCircle
 10
37.03508521899536
 20
29.16695376912029
 30
0.0
 40
0.05
100
AcDbArc
 50
270.0
 51
0.000000000000007
  0
LINE
  5
CEC
330
CC0
100
AcDbEntity
  8
0
100
AcDbLine
 10
37.08508521899537
 20
28.17295376912029
 30
0.0
 11
37.08508521899537
 21
27.97995376912029
 31
0.0
  0
LINE
  5
CED
330
CC0
100
AcDbEntity
  8
0
100
AcDbLine
 10
36.79008521899536
 20
29.07995376912029
 30
0.0
 11
36.79008521899536
 21
28.25995376912029
 31
0.0
  0
ARC
  5
CEE
330
CC0
100
AcDbEntity
  8
0
100
AcDbCircle
 10
36.87508521899537
 20
29.07995376912029
 30
0.0
 40
0.085
100
AcDbArc
 50
90.0
 51
180.0
  0
ARC
  5
CEF
330
CC0
100
AcDbEntity
  8
0
100
AcDbCircle
 10
36.87508521899537
 20
28.25995376912029
 30
0.0
 40
0.085
100
AcDbArc
 50
180.0
 51
270.0
  0
LINE
  5
CF0
330
CC0
100
AcDbEntity
  8
0
100
AcDbLine
 10
36.83808521899536
 20
29.03195376912029
 30
0.0
 11
36.83808521899537
 21
28.30795376912028
 31
0.0
  0
ARC
  5
CF1
330
CC0
100
AcDbEntity
  8
0
100
AcDbCircle
 10
36.92308521899537
 20
28.30795376912028
 30
0.0
 40
0.085
100
AcDbArc
 50
180.0
 51
270.0000000000017
  0
ARC
  5
CF2
330
CC0
100
AcDbEntity
  8
0
100
AcDbCircle
 10
36.92308521899537
 20
29.03195376912029
 30
0.0
 40
0.085
100
AcDbArc
 50
90.0
 51
180.0
  0
LINE
  5
CF3
330
CC0
100
AcDbEntity
  8
0
100
AcDbLine
 10
37.03708521899539
 20
29.35995376912029
 30
0.0
 11
37.03708521899539
 21
29.21495376912029
 31
0.0
  0
ARC
  5
CF4
330
CC0
100
AcDbEntity
  8
0
100
AcDbCircle
 10
36.98708521899537
 20
29.21495376912029
 30
0.0
 40
0.05
100
AcDbArc
 50
270.0
 51
0.000000000000007
  0
LINE
  5
CF5
330
CC0
100
AcDbEntity
  8
0
100
AcDbLine
 10
37.03708521899539
 20
28.12495376912028
 30
0.0
 11
37.03708521899539
 21
27.97995376912029
 31
0.0
  0
LINE
  5
CF6
330
CC0
100
AcDbEntity
  8
0
100
AcDbLine
 10
36.98708521899536
 20
28.17495376912027
 30
0.0
 11
36.87508521899537
 21
28.17495376912028
 31
0.0
  0
ARC
  5
CF7
330
CC0
100
AcDbEntity
  8
0
100
AcDbCircle
 10
36.98708521899537
 20
28.12495376912028
 30
0.0
 40
0.05
100
AcDbArc
 50
0.000000000000007
 51
90.00000000000246
  0
LINE
  5
CF8
330
CC0
100
AcDbEntity
  8
0
100
AcDbLine
 10
37.03508521899536
 20
28.22295376912029
 30
0.0
 11
36.92308521899537
 21
28.22295376912029
 31
0.0
  0
ARC
  5
CF9
330
CC0
100
AcDbEntity
  8
0
100
AcDbCircle
 10
37.03508521899538
 20
28.17295376912029
 30
0.0
 40
0.05
100
AcDbArc
 50
0.000000000000007
 51
90.00000000000246
  0
LINE
  5
CFA
330
CC0
100
AcDbEntity
  8
0
100
AcDbLine
 10
37.08508521899537
 20
29.35995376912029
 30
0.0
 11
37.03708521899539
 21
29.35995376912029
 31
0.0
  0
LINE
  5
CFB
330
CC0
100
AcDbEntity
  8
0
100
AcDbLine
 10
36.98708521899537
 20
29.16495376912029
 30
0.0
 11
36.87508521899537
 21
29.16495376912029
 31
0.0
  0
LINE
  5
CFC
330
CC0
100
AcDbEntity
  8
0
100
AcDbLine
 10
37.03508521899536
 20
29.11695376912028
 30
0.0
 11
36.92308521899537
 21
29.11695376912028
 31
0.0
  0
LINE
  5
CFD
330
CC0
100
AcDbEntity
  8
0
100
AcDbLine
 10
37.08508521899537
 20
27.97995376912029
 30
0.0
 11
37.03708521899539
 21
27.97995376912029
 31
0.0
  0
LINE
  5
CFE
330
CC0
100
AcDbEntity
  8
0
100
AcDbLine
 10
36.73086655291559
 20
27.60894172136179
 30
0.0
 11
36.73086655291559
 21
26.5429417213618
 31
0.0
  0
ARC
  5
CFF
330
CC0
100
AcDbEntity
  8
0
100
AcDbCircle
 10
36.83086655291559
 20
27.60894172136179
 30
0.0
 40
0.1
100
AcDbArc
 50
90.0
 51
180.0
  0
LINE
  5
D00
330
CC0
100
AcDbEntity
  8
0
100
AcDbLine
 10
36.79586655291559
 20
27.5789417213618
 30
0.0
 11
36.79586655291558
 21
26.5729417213618
 31
0.0
  0
ARC
  5
D01
330
CC0
100
AcDbEntity
  8
0
100
AcDbCircle
 10
36.86086655291557
 20
26.5729417213618
 30
0.0
 40
0.065
100
AcDbArc
 50
179.9999999999996
 51
269.9999999999992
  0
ARC
  5
D02
330
CC0
100
AcDbEntity
  8
0
100
AcDbCircle
 10
36.8608665529156
 20
27.5789417213618
 30
0.0
 40
0.065
100
AcDbArc
 50
90.00000000000246
 51
180.0
  0
LINE
  5
D03
330
CC0
100
AcDbEntity
  8
0
100
AcDbLine
 10
37.33586655291559
 20
26.87494172136179
 30
0.0
 11
37.33586655291559
 21
26.54294172136181
 31
0.0
  0
ARC
  5
D04
330
CC0
100
AcDbEntity
  8
0
100
AcDbCircle
 10
37.23586655291557
 20
26.54294172136181
 30
0.0
 40
0.1
100
AcDbArc
 50
270.0
 51
0.000000000000007
  0
LINE
  5
D05
330
CC0
100
AcDbEntity
  8
0
100
AcDbLine
 10
37.2708665529156
 20
26.87494172136179
 30
0.0
 11
37.2708665529156
 21
26.57294172136179
 31
0.0
  0
LINE
  5
D06
330
CC0
100
AcDbEntity
  8
0
100
AcDbLine
 10
37.09286655291558
 20
27.60894172136179
 30
0.0
 11
37.09286655291558
 21
27.5169417213618
 31
0.0
  0
LINE
  5
D07
330
CC0
100
AcDbEntity
  8
0
100
AcDbLine
 10
37.02786655291561
 20
27.57894172136181
 30
0.0
 11
37.02786655291559
 21
27.5169417213618
 31
0.0
  0
LINE
  5
D08
330
CC0
100
AcDbEntity
  8
0
100
AcDbLine
 10
36.83086655291559
 20
26.4429417213618
 30
0.0
 11
37.23586655291557
 21
26.4429417213618
 31
0.0
  0
ARC
  5
D09
330
CC0
100
AcDbEntity
  8
0
100
AcDbCircle
 10
36.83086655291559
 20
26.5429417213618
 30
0.0
 40
0.1
100
AcDbArc
 50
180.0
 51
270.0
  0
LINE
  5
D0A
330
CC0
100
AcDbEntity
  8
0
100
AcDbLine
 10
37.2708665529156
 20
26.87494172136179
 30
0.0
 11
37.33586655291559
 21
26.8749417213618
 31
0.0
  0
LINE
  5
D0B
330
CC0
100
AcDbEntity
  8
0
100
AcDbLine
 10
36.86086655291557
 20
26.5079417213618
 30
0.0
 11
37.2058665529156
 21
26.50794172136179
 31
0.0
  0
ARC
  5
D0C
330
CC0
100
AcDbEntity
  8
0
100
AcDbCircle
 10
37.2058665529156
 20
26.57294172136179
 30
0.0
 40
0.065
100
AcDbArc
 50
269.9999999999992
 51
0.000000000000007
  0
LINE
  5
D0D
330
CC0
100
AcDbEntity
  8
0
100
AcDbLine
 10
36.83086655291559
 20
27.70894172136179
 30
0.0
 11
36.99286655291558
 21
27.70894172136179
 31
0.0
  0
ARC
  5
D0E
330
CC0
100
AcDbEntity
  8
0
100
AcDbCircle
 10
36.99286655291558
 20
27.60894172136179
 30
0.0
 40
0.1
100
AcDbArc
 50
359.9999999999978
 51
90.00000000000083
  0
LINE
  5
D0F
330
CC0
100
AcDbEntity
  8
0
100
AcDbLine
 10
37.02786655291559
 20
27.5169417213618
 30
0.0
 11
37.0928665529156
 21
27.5169417213618
 31
0.0
  0
LINE
  5
D10
330
CC0
100
AcDbEntity
  8
0
100
AcDbLine
 10
36.8608665529156
 20
27.6439417213618
 30
0.0
 11
36.9628665529156
 21
27.64394172136181
 31
0.0
  0
ARC
  5
D11
330
CC0
100
AcDbEntity
  8
0
100
AcDbCircle
 10
36.9628665529156
 20
27.57894172136181
 30
0.0
 40
0.065
100
AcDbArc
 50
0.000000000000007
 51
90.00000000000083
  0
ENDBLK
  5
D15
330
CC0
100
AcDbEntity
  8
0
100
AcDbBlockEnd
  0
BLOCK
  5
140C
330
137C
100
AcDbEntity
  8
0
100
AcDbBlockBegin
  2
A$C31C915BA
 70
     0
 10
0.0
 20
0.0
 30
0.0
  3
A$C31C915BA
  1

  0
LINE
  5
137D
330
137C
100
AcDbEntity
  8
Part
100
AcDbLine
 10
-2.342126000000007
 20
1.842728000000001
 30
0.0
 11
-2.342126000000007
 21
1.917550999999996
 31
0.0
  0
LINE
  5
137E
330
137C
100
AcDbEntity
  8
Part
100
AcDbLine
 10
-2.319506000000004
 20
1.941911999999994
 30
0.0
 11
-2.319506000000004
 21
1.901890000000001
 31
0.0
  0
LINE
  5
137F
330
137C
100
AcDbEntity
  8
Part
100
AcDbLine
 10
-2.217438000000001
 20
2.179999999999999
 30
0.0
 11
-2.217438000000001
 21
3.149999999999998
 31
0.0
  0
LINE
  5
1380
330
137C
100
AcDbEntity
  8
Part
100
AcDbLine
 10
-2.216842000000006
 20
2.117657999999998
 30
0.0
 11
-2.216842000000006
 21
2.179999999999999
 31
0.0
  0
LINE
  5
1381
330
137C
100
AcDbEntity
  8
Part
100
AcDbLine
 10
-2.112438000000004
 20
0.0
 30
0.0
 11
-2.112438000000004
 21
0.050461999999996
 31
0.0
  0
LINE
  5
1382
330
137C
100
AcDbEntity
  8
Part
100
AcDbLine
 10
-2.112438000000004
 20
0.0991840000000011
 30
0.0
 11
-2.112438000000004
 21
0.1496459999999971
 31
0.0
  0
LINE
  5
1383
330
137C
100
AcDbEntity
  8
Part
100
AcDbLine
 10
-2.112438000000004
 20
0.2001069999999956
 30
0.0
 11
-2.112438000000004
 21
0.2505689999999987
 31
0.0
  0
LINE
  5
1384
330
137C
100
AcDbEntity
  8
Part
100
AcDbLine
 10
-2.112438000000004
 20
0.304510999999998
 30
0.0
 11
-2.112438000000004
 21
0.6438240000000022
 31
0.0
  0
LINE
  5
1385
330
137C
100
AcDbEntity
  8
Part
100
AcDbLine
 10
-2.112438000000004
 20
0.7795489999999959
 30
0.0
 11
-2.112438000000004
 21
0.8195699999999987
 31
0.0
  0
LINE
  5
1386
330
137C
100
AcDbEntity
  8
Part
100
AcDbLine
 10
-2.107438000000001
 20
0.0
 30
0.0
 11
-2.107438000000001
 21
0.6499999999999986
 31
0.0
  0
LINE
  5
1387
330
137C
100
AcDbEntity
  8
Part
100
AcDbLine
 10
-2.067438000000002
 20
1.380000000000002
 30
0.0
 11
-2.067438000000002
 21
2.179999999999999
 31
0.0
  0
LINE
  5
1388
330
137C
100
AcDbEntity
  8
Part
100
AcDbLine
 10
-2.058688000000003
 20
2.9555
 30
0.0
 11
-2.058688000000003
 21
2.924500000000001
 31
0.0
  0
LINE
  5
1389
330
137C
100
AcDbEntity
  8
Part
100
AcDbLine
 10
-2.058496000000005
 20
1.296348000000001
 30
0.0
 11
-2.058496000000005
 21
1.345069999999999
 31
0.0
  0
LINE
  5
138A
330
137C
100
AcDbEntity
  8
Part
100
AcDbLine
 10
-2.017938
 20
2.996249999999996
 30
0.0
 11
-2.017938
 21
2.9555
 31
0.0
  0
LINE
  5
138B
330
137C
100
AcDbEntity
  8
Part
100
AcDbLine
 10
-2.017938
 20
2.924500000000001
 30
0.0
 11
-2.017938
 21
2.883749999999999
 31
0.0
  0
LINE
  5
138C
330
137C
100
AcDbEntity
  8
Part
100
AcDbLine
 10
-1.987438000000004
 20
0.7699999999999961
 30
0.0
 11
-1.987438000000004
 21
1.299999999999997
 31
0.0
  0
LINE
  5
138D
330
137C
100
AcDbEntity
  8
Part
100
AcDbLine
 10
-1.986938000000002
 20
2.883749999999999
 30
0.0
 11
-1.986938000000002
 21
2.924500000000001
 31
0.0
  0
LINE
  5
138E
330
137C
100
AcDbEntity
  8
Part
100
AcDbLine
 10
-1.986938000000002
 20
2.9555
 30
0.0
 11
-1.986938000000002
 21
2.996249999999996
 31
0.0
  0
LINE
  5
138F
330
137C
100
AcDbEntity
  8
Part
100
AcDbLine
 10
-1.946188000000006
 20
2.924500000000001
 30
0.0
 11
-1.946188000000006
 21
2.9555
 31
0.0
  0
LINE
  5
1390
330
137C
100
AcDbEntity
  8
Part
100
AcDbLine
 10
-2.073444000000002
 20
1.941911999999994
 30
0.0
 11
-2.112438000000004
 21
2.157679999999999
 31
0.0
  0
LINE
  5
1391
330
137C
100
AcDbEntity
  8
Part
100
AcDbLine
 10
-1.933688000000003
 20
1.995499999999999
 30
0.0
 11
-1.933688000000003
 21
1.964500000000001
 31
0.0
  0
LINE
  5
1392
330
137C
100
AcDbEntity
  8
Part
100
AcDbLine
 10
-1.933688000000003
 20
0.2254999999999967
 30
0.0
 11
-1.933688000000003
 21
0.1944999999999979
 31
0.0
  0
LINE
  5
1393
330
137C
100
AcDbEntity
  8
Part
100
AcDbLine
 10
-1.892938
 20
2.036250000000002
 30
0.0
 11
-1.892938
 21
1.995499999999999
 31
0.0
  0
LINE
  5
1394
330
137C
100
AcDbEntity
  8
Part
100
AcDbLine
 10
-1.892938
 20
1.964500000000001
 30
0.0
 11
-1.892938
 21
1.923749999999998
 31
0.0
  0
LINE
  5
1395
330
137C
100
AcDbEntity
  8
Part
100
AcDbLine
 10
-1.892938
 20
0.2662499999999994
 30
0.0
 11
-1.892938
 21
0.2254999999999967
 31
0.0
  0
LINE
  5
1396
330
137C
100
AcDbEntity
  8
Part
100
AcDbLine
 10
-1.892938
 20
0.1944999999999979
 30
0.0
 11
-1.892938
 21
0.1537499999999952
 31
0.0
  0
LINE
  5
1397
330
137C
100
AcDbEntity
  8
Part
100
AcDbLine
 10
-1.861938000000002
 20
0.1537499999999952
 30
0.0
 11
-1.861938000000002
 21
0.1944999999999979
 31
0.0
  0
LINE
  5
1398
330
137C
100
AcDbEntity
  8
Part
100
AcDbLine
 10
-1.861938000000002
 20
0.2254999999999967
 30
0.0
 11
-1.861938000000002
 21
0.2662499999999994
 31
0.0
  0
LINE
  5
1399
330
137C
100
AcDbEntity
  8
Part
100
AcDbLine
 10
-1.861938000000002
 20
1.923749999999998
 30
0.0
 11
-1.861938000000002
 21
1.964500000000001
 31
0.0
  0
LINE
  5
139A
330
137C
100
AcDbEntity
  8
Part
100
AcDbLine
 10
-1.861938000000002
 20
1.995499999999999
 30
0.0
 11
-1.861938000000002
 21
2.036250000000002
 31
0.0
  0
LINE
  5
139B
330
137C
100
AcDbEntity
  8
Part
100
AcDbLine
 10
-1.821188000000006
 20
0.1944999999999979
 30
0.0
 11
-1.821188000000006
 21
0.2254999999999967
 31
0.0
  0
LINE
  5
139C
330
137C
100
AcDbEntity
  8
Part
100
AcDbLine
 10
-1.821188000000006
 20
1.964500000000001
 30
0.0
 11
-1.821188000000006
 21
1.995499999999999
 31
0.0
  0
LINE
  5
139D
330
137C
100
AcDbEntity
  8
Part
100
AcDbLine
 10
-2.342126000000007
 20
1.917550999999996
 30
0.0
 11
-2.319506000000004
 21
1.941911999999994
 31
0.0
  0
LINE
  5
139E
330
137C
100
AcDbEntity
  8
Part
100
AcDbLine
 10
-1.987438000000004
 20
1.299999999999997
 30
0.0
 11
-2.067438000000002
 21
1.380000000000002
 31
0.0
  0
LINE
  5
139F
330
137C
100
AcDbEntity
  8
Part
100
AcDbLine
 10
2.112437999999997
 20
0.0
 30
0.0
 11
-2.112438000000004
 21
0.0
 31
0.0
  0
LINE
  5
13A0
330
137C
100
AcDbEntity
  8
Part
100
AcDbLine
 10
2.102561999999991
 20
0.0400209999999959
 30
0.0
 11
2.112437999999997
 21
0.0400209999999959
 31
0.0
  0
LINE
  5
13A1
330
137C
100
AcDbEntity
  8
Part
100
AcDbLine
 10
-2.112438000000004
 20
0.050461999999996
 30
0.0
 11
-2.107438000000001
 21
0.050461999999996
 31
0.0
  0
LINE
  5
13A2
330
137C
100
AcDbEntity
  8
Part
100
AcDbLine
 10
-2.107438000000001
 20
0.0991840000000011
 30
0.0
 11
-2.112438000000004
 21
0.0991840000000011
 31
0.0
  0
LINE
  5
13A3
330
137C
100
AcDbEntity
  8
Part
100
AcDbLine
 10
-2.112438000000004
 20
0.1496459999999971
 30
0.0
 11
-2.107438000000001
 21
0.1496459999999971
 31
0.0
  0
LINE
  5
13A4
330
137C
100
AcDbEntity
  8
Part
100
AcDbLine
 10
-1.892938
 20
0.1537499999999952
 30
0.0
 11
-1.861938000000002
 21
0.1537499999999952
 31
0.0
  0
LINE
  5
13A5
330
137C
100
AcDbEntity
  8
Part
100
AcDbLine
 10
1.782061999999996
 20
0.1537499999999952
 30
0.0
 11
1.813061999999995
 21
0.1537499999999952
 31
0.0
  0
LINE
  5
13A6
330
137C
100
AcDbEntity
  8
Part
100
AcDbLine
 10
-1.933688000000003
 20
0.1944999999999979
 30
0.0
 11
-1.892938
 21
0.1944999999999979
 31
0.0
  0
LINE
  5
13A7
330
137C
100
AcDbEntity
  8
Part
100
AcDbLine
 10
-1.861938000000002
 20
0.1944999999999979
 30
0.0
 11
-1.821188000000006
 21
0.1944999999999979
 31
0.0
  0
LINE
  5
13A8
330
137C
100
AcDbEntity
  8
Part
100
AcDbLine
 10
1.741311999999993
 20
0.1944999999999979
 30
0.0
 11
1.782061999999996
 21
0.1944999999999979
 31
0.0
  0
LINE
  5
13A9
330
137C
100
AcDbEntity
  8
Part
100
AcDbLine
 10
1.813061999999995
 20
0.1944999999999979
 30
0.0
 11
1.853811999999997
 21
0.1944999999999979
 31
0.0
  0
LINE
  5
13AA
330
137C
100
AcDbEntity
  8
Part
100
AcDbLine
 10
-2.107438000000001
 20
0.2001069999999956
 30
0.0
 11
-2.112438000000004
 21
0.2001069999999956
 31
0.0
  0
LINE
  5
13AB
330
137C
100
AcDbEntity
  8
Part
100
AcDbLine
 10
1.853811999999997
 20
0.2254999999999967
 30
0.0
 11
1.813061999999995
 21
0.2254999999999967
 31
0.0
  0
LINE
  5
13AC
330
137C
100
AcDbEntity
  8
Part
100
AcDbLine
 10
1.782061999999996
 20
0.2254999999999967
 30
0.0
 11
1.741311999999993
 21
0.2254999999999967
 31
0.0
  0
LINE
  5
13AD
330
137C
100
AcDbEntity
  8
Part
100
AcDbLine
 10
-1.821188000000006
 20
0.2254999999999967
 30
0.0
 11
-1.861938000000002
 21
0.2254999999999967
 31
0.0
  0
LINE
  5
13AE
330
137C
100
AcDbEntity
  8
Part
100
AcDbLine
 10
-1.892938
 20
0.2254999999999967
 30
0.0
 11
-1.933688000000003
 21
0.2254999999999967
 31
0.0
  0
LINE
  5
13AF
330
137C
100
AcDbEntity
  8
Part
100
AcDbLine
 10
-2.112438000000004
 20
0.2505689999999987
 30
0.0
 11
-2.107438000000001
 21
0.2505689999999987
 31
0.0
  0
LINE
  5
13B0
330
137C
100
AcDbEntity
  8
Part
100
AcDbLine
 10
1.813061999999995
 20
0.2662499999999994
 30
0.0
 11
1.782061999999996
 21
0.2662499999999994
 31
0.0
  0
LINE
  5
13B1
330
137C
100
AcDbEntity
  8
Part
100
AcDbLine
 10
-1.861938000000002
 20
0.2662499999999994
 30
0.0
 11
-1.892938
 21
0.2662499999999994
 31
0.0
  0
LINE
  5
13B2
330
137C
100
AcDbEntity
  8
Part
100
AcDbLine
 10
-2.107438000000001
 20
0.304510999999998
 30
0.0
 11
-2.112438000000004
 21
0.304510999999998
 31
0.0
  0
LINE
  5
13B3
330
137C
100
AcDbEntity
  8
Part
100
AcDbLine
 10
-2.107438000000001
 20
0.6499999999999986
 30
0.0
 11
-1.987438000000004
 21
0.7699999999999961
 31
0.0
  0
LINE
  5
13B4
330
137C
100
AcDbEntity
  8
Part
100
AcDbLine
 10
-2.112438000000004
 20
0.6438240000000022
 30
0.0
 11
-2.107357619400005
 21
0.6438908446000014
 31
0.0
  0
LINE
  5
13B5
330
137C
100
AcDbEntity
  8
Part
100
AcDbLine
 10
1.852061999999996
 20
0.7787499999999952
 30
0.0
 11
1.883061999999995
 21
0.7787499999999952
 31
0.0
  0
LINE
  5
13B6
330
137C
100
AcDbEntity
  8
Part
100
AcDbLine
 10
-1.987438000000004
 20
0.7795489999999959
 30
0.0
 11
-2.112438000000004
 21
0.7795489999999959
 31
0.0
  0
LWPOLYLINE
  5
13B7
330
137C
100
AcDbEntity
  8
Part
  6
HIDDEN
 62
     0
 48
0.25
100
AcDbPolyline
 90
       20
 70
     1
 43
0.0
 10
-2.363230393700007
 20
2.000199684999998
 42
0.4142135623730951
 10
-2.422285511800005
 20
1.9411445669
 10
-2.422285511800005
 20
0.9962626772000007
 42
0.4142135623730951
 10
-2.363230393700007
 20
0.9372075590999955
 10
-2.186065039400006
 20
0.9372075591000026
 42
-0.4142135623730951
 10
-2.166380000000003
 20
0.9175225197000003
 10
-2.166380000000003
 20
0.7797272441000019
 10
-2.127009921300007
 20
0.7797272441000019
 10
-2.127009921300007
 20
0.9175225197000003
 42
0.4142135623730951
 10
-2.186065039400006
 20
0.9765776377999983
 10
-2.363230393700007
 20
0.9765776377999983
 42
-0.4142135623730951
 10
-2.382915433100009
 20
0.9962626772000007
 10
-2.382915433100002
 20
1.9411445669
 42
-0.4142135623730951
 10
-2.363230393700007
 20
1.960829606300002
 10
-2.186065039400006
 20
1.960829606300002
 42
0.4142135623730951
 10
-2.127009921300007
 20
2.0198847244
 10
-2.127009921300007
 20
2.157679999999999
 10
-2.166380000000003
 20
2.157679999999999
 10
-2.166380000000003
 20
2.0198847244
 42
-0.4142135623730951
 10
-2.186065039400006
 20
2.000199684999998
  0
LINE
  5
13B8
330
137C
100
AcDbEntity
  8
Part
100
AcDbLine
 10
1.811311999999993
 20
0.8194999999999978
 30
0.0
 11
1.852061999999996
 21
0.8194999999999978
 31
0.0
  0
LINE
  5
13B9
330
137C
100
AcDbEntity
  8
Part
100
AcDbLine
 10
1.883061999999995
 20
0.8194999999999978
 30
0.0
 11
1.923811999999998
 21
0.8194999999999978
 31
0.0
  0
LINE
  5
13BA
330
137C
100
AcDbEntity
  8
Part
100
AcDbLine
 10
-2.112438000000004
 20
0.8195699999999987
 30
0.0
 11
-1.997594000000006
 21
0.8195699999999987
 31
0.0
  0
LINE
  5
13BB
330
137C
100
AcDbEntity
  8
Part
100
AcDbLine
 10
1.923811999999998
 20
0.8504999999999967
 30
0.0
 11
1.883061999999995
 21
0.8504999999999967
 31
0.0
  0
LINE
  5
13BC
330
137C
100
AcDbEntity
  8
Part
100
AcDbLine
 10
1.852061999999996
 20
0.8504999999999967
 30
0.0
 11
1.811311999999993
 21
0.8504999999999967
 31
0.0
  0
LINE
  5
13BD
330
137C
100
AcDbEntity
  8
Part
100
AcDbLine
 10
1.883061999999995
 20
0.8912499999999994
 30
0.0
 11
1.852061999999996
 21
0.8912499999999994
 31
0.0
  0
LINE
  5
13BE
330
137C
100
AcDbEntity
  8
Part
100
AcDbLine
 10
-1.997594000000006
 20
1.160623000000001
 30
0.0
 11
-1.987438000000004
 21
1.160623000000001
 31
0.0
  0
LINE
  5
13BF
330
137C
100
AcDbEntity
  8
Part
100
AcDbLine
 10
-1.987438000000004
 20
1.296348000000001
 30
0.0
 11
-2.058496000000005
 21
1.296348000000001
 31
0.0
  0
LINE
  5
13C0
330
137C
100
AcDbEntity
  8
Part
100
AcDbLine
 10
-2.058496000000005
 20
1.345069999999999
 30
0.0
 11
-2.032508000000007
 21
1.345069999999999
 31
0.0
  0
LINE
  5
13C1
330
137C
100
AcDbEntity
  8
Part
100
AcDbLine
 10
-2.067438000000002
 20
1.842728000000001
 30
0.0
 11
-2.342126000000007
 21
1.842728000000001
 31
0.0
  0
LINE
  5
13C2
330
137C
100
AcDbEntity
  8
Part
100
AcDbLine
 10
-1.892938
 20
1.923749999999998
 30
0.0
 11
-1.861938000000002
 21
1.923749999999998
 31
0.0
  0
LINE
  5
13C3
330
137C
100
AcDbEntity
  8
Part
100
AcDbLine
 10
-2.233814472500007
 20
1.941911999999994
 30
0.0
 11
-2.073444000000002
 21
1.941911999999994
 31
0.0
  0
LINE
  5
13C4
330
137C
100
AcDbEntity
  8
Part
100
AcDbLine
 10
-1.933688000000003
 20
1.964500000000001
 30
0.0
 11
-1.892938
 21
1.964500000000001
 31
0.0
  0
LINE
  5
13C5
330
137C
100
AcDbEntity
  8
Part
100
AcDbLine
 10
-1.861938000000002
 20
1.964500000000001
 30
0.0
 11
-1.821188000000006
 21
1.964500000000001
 31
0.0
  0
LINE
  5
13C6
330
137C
100
AcDbEntity
  8
Part
100
AcDbLine
 10
-1.821188000000006
 20
1.995499999999999
 30
0.0
 11
-1.861938000000002
 21
1.995499999999999
 31
0.0
  0
LINE
  5
13C7
330
137C
100
AcDbEntity
  8
Part
100
AcDbLine
 10
-1.892938
 20
1.995499999999999
 30
0.0
 11
-1.933688000000003
 21
1.995499999999999
 31
0.0
  0
LINE
  5
13C8
330
137C
100
AcDbEntity
  8
Part
100
AcDbLine
 10
-1.861938000000002
 20
2.036250000000002
 30
0.0
 11
-1.892938
 21
2.036250000000002
 31
0.0
  0
LINE
  5
13C9
330
137C
100
AcDbEntity
  8
Part
100
AcDbLine
 10
-2.166380000000003
 20
2.117657999999998
 30
0.0
 11
-2.216842000000006
 21
2.117657999999998
 31
0.0
  0
LINE
  5
13CA
330
137C
100
AcDbEntity
  8
Part
100
AcDbLine
 10
-2.217438000000001
 20
2.179999999999999
 30
0.0
 11
-2.067438000000002
 21
2.179999999999999
 31
0.0
  0
LINE
  5
13CB
330
137C
100
AcDbEntity
  8
Part
100
AcDbLine
 10
1.852061999999996
 20
2.193750000000001
 30
0.0
 11
1.883061999999995
 21
2.193750000000001
 31
0.0
  0
LINE
  5
13CC
330
137C
100
AcDbEntity
  8
Part
100
AcDbLine
 10
1.811311999999993
 20
2.234499999999997
 30
0.0
 11
1.852061999999996
 21
2.234499999999997
 31
0.0
  0
LINE
  5
13CD
330
137C
100
AcDbEntity
  8
Part
100
AcDbLine
 10
1.883061999999995
 20
2.234499999999997
 30
0.0
 11
1.923811999999998
 21
2.234499999999997
 31
0.0
  0
LINE
  5
13CE
330
137C
100
AcDbEntity
  8
Part
100
AcDbLine
 10
1.923811999999998
 20
2.265499999999995
 30
0.0
 11
1.883061999999995
 21
2.265499999999995
 31
0.0
  0
LINE
  5
13CF
330
137C
100
AcDbEntity
  8
Part
100
AcDbLine
 10
1.852061999999996
 20
2.265499999999995
 30
0.0
 11
1.811311999999993
 21
2.265499999999995
 31
0.0
  0
LINE
  5
13D0
330
137C
100
AcDbEntity
  8
Part
100
AcDbLine
 10
1.883061999999995
 20
2.306249999999998
 30
0.0
 11
1.852061999999996
 21
2.306249999999998
 31
0.0
  0
LINE
  5
13D1
330
137C
100
AcDbEntity
  8
Part
100
AcDbLine
 10
-2.017938
 20
2.883749999999999
 30
0.0
 11
-1.986938000000002
 21
2.883749999999999
 31
0.0
  0
LINE
  5
13D2
330
137C
100
AcDbEntity
  8
Part
100
AcDbLine
 10
1.782061999999996
 20
2.883749999999999
 30
0.0
 11
1.813061999999995
 21
2.883749999999999
 31
0.0
  0
LINE
  5
13D3
330
137C
100
AcDbEntity
  8
Part
100
AcDbLine
 10
-2.058688000000003
 20
2.924500000000001
 30
0.0
 11
-2.017938
 21
2.924500000000001
 31
0.0
  0
LINE
  5
13D4
330
137C
100
AcDbEntity
  8
Part
100
AcDbLine
 10
-1.986938000000002
 20
2.924500000000001
 30
0.0
 11
-1.946188000000006
 21
2.924500000000001
 31
0.0
  0
LINE
  5
13D5
330
137C
100
AcDbEntity
  8
Part
100
AcDbLine
 10
1.741311999999993
 20
2.924500000000001
 30
0.0
 11
1.782061999999996
 21
2.924500000000001
 31
0.0
  0
LINE
  5
13D6
330
137C
100
AcDbEntity
  8
Part
100
AcDbLine
 10
1.813061999999995
 20
2.924500000000001
 30
0.0
 11
1.853811999999997
 21
2.924500000000001
 31
0.0
  0
LINE
  5
13D7
330
137C
100
AcDbEntity
  8
Part
100
AcDbLine
 10
1.853811999999997
 20
2.9555
 30
0.0
 11
1.813061999999995
 21
2.9555
 31
0.0
  0
LINE
  5
13D8
330
137C
100
AcDbEntity
  8
Part
100
AcDbLine
 10
1.782061999999996
 20
2.9555
 30
0.0
 11
1.741311999999993
 21
2.9555
 31
0.0
  0
LINE
  5
13D9
330
137C
100
AcDbEntity
  8
Part
100
AcDbLine
 10
-1.946188000000006
 20
2.9555
 30
0.0
 11
-1.986938000000002
 21
2.9555
 31
0.0
  0
LINE
  5
13DA
330
137C
100
AcDbEntity
  8
Part
100
AcDbLine
 10
-2.017938
 20
2.9555
 30
0.0
 11
-2.058688000000003
 21
2.9555
 31
0.0
  0
LINE
  5
13DB
330
137C
100
AcDbEntity
  8
Part
100
AcDbLine
 10
1.813061999999995
 20
2.996249999999996
 30
0.0
 11
1.782061999999996
 21
2.996249999999996
 31
0.0
  0
LINE
  5
13DC
330
137C
100
AcDbEntity
  8
Part
100
AcDbLine
 10
-1.986938000000002
 20
2.996249999999996
 30
0.0
 11
-2.017938
 21
2.996249999999996
 31
0.0
  0
LINE
  5
13DD
330
137C
100
AcDbEntity
  8
Part
100
AcDbLine
 10
1.741311999999993
 20
2.9555
 30
0.0
 11
1.741311999999993
 21
2.924500000000001
 31
0.0
  0
LINE
  5
13DE
330
137C
100
AcDbEntity
  8
Part
100
AcDbLine
 10
1.741311999999993
 20
0.2254999999999967
 30
0.0
 11
1.741311999999993
 21
0.1944999999999979
 31
0.0
  0
LINE
  5
13DF
330
137C
100
AcDbEntity
  8
Part
100
AcDbLine
 10
1.782061999999996
 20
2.996249999999996
 30
0.0
 11
1.782061999999996
 21
2.9555
 31
0.0
  0
LINE
  5
13E0
330
137C
100
AcDbEntity
  8
Part
100
AcDbLine
 10
1.782061999999996
 20
2.924500000000001
 30
0.0
 11
1.782061999999996
 21
2.883749999999999
 31
0.0
  0
LINE
  5
13E1
330
137C
100
AcDbEntity
  8
Part
100
AcDbLine
 10
1.782061999999996
 20
0.2662499999999994
 30
0.0
 11
1.782061999999996
 21
0.2254999999999967
 31
0.0
  0
LINE
  5
13E2
330
137C
100
AcDbEntity
  8
Part
100
AcDbLine
 10
1.782061999999996
 20
0.1944999999999979
 30
0.0
 11
1.782061999999996
 21
0.1537499999999952
 31
0.0
  0
LINE
  5
13E3
330
137C
100
AcDbEntity
  8
Part
100
AcDbLine
 10
-2.217438000000001
 20
3.149999999999998
 30
0.0
 11
2.102561999999991
 21
3.149999999999998
 31
0.0
  0
LINE
  5
13E4
330
137C
100
AcDbEntity
  8
Part
100
AcDbLine
 10
1.811311999999993
 20
2.265499999999995
 30
0.0
 11
1.811311999999993
 21
2.234499999999997
 31
0.0
  0
LINE
  5
13E5
330
137C
100
AcDbEntity
  8
Part
100
AcDbLine
 10
1.811311999999993
 20
0.8504999999999967
 30
0.0
 11
1.811311999999993
 21
0.8194999999999978
 31
0.0
  0
LINE
  5
13E6
330
137C
100
AcDbEntity
  8
Part
100
AcDbLine
 10
1.813061999999995
 20
0.1537499999999952
 30
0.0
 11
1.813061999999995
 21
0.1944999999999979
 31
0.0
  0
LINE
  5
13E7
330
137C
100
AcDbEntity
  8
Part
100
AcDbLine
 10
1.813061999999995
 20
0.2254999999999967
 30
0.0
 11
1.813061999999995
 21
0.2662499999999994
 31
0.0
  0
LINE
  5
13E8
330
137C
100
AcDbEntity
  8
Part
100
AcDbLine
 10
1.813061999999995
 20
2.883749999999999
 30
0.0
 11
1.813061999999995
 21
2.924500000000001
 31
0.0
  0
LINE
  5
13E9
330
137C
100
AcDbEntity
  8
Part
100
AcDbLine
 10
1.813061999999995
 20
2.9555
 30
0.0
 11
1.813061999999995
 21
2.996249999999996
 31
0.0
  0
LINE
  5
13EA
330
137C
100
AcDbEntity
  8
Part
100
AcDbLine
 10
1.852061999999996
 20
2.306249999999998
 30
0.0
 11
1.852061999999996
 21
2.265499999999995
 31
0.0
  0
LINE
  5
13EB
330
137C
100
AcDbEntity
  8
Part
100
AcDbLine
 10
1.852061999999996
 20
2.234499999999997
 30
0.0
 11
1.852061999999996
 21
2.193750000000001
 31
0.0
  0
LINE
  5
13EC
330
137C
100
AcDbEntity
  8
Part
100
AcDbLine
 10
1.852061999999996
 20
0.8912499999999994
 30
0.0
 11
1.852061999999996
 21
0.8504999999999967
 31
0.0
  0
LINE
  5
13ED
330
137C
100
AcDbEntity
  8
Part
100
AcDbLine
 10
1.852061999999996
 20
0.8194999999999978
 30
0.0
 11
1.852061999999996
 21
0.7787499999999952
 31
0.0
  0
LINE
  5
13EE
330
137C
100
AcDbEntity
  8
Part
100
AcDbLine
 10
1.853811999999997
 20
0.1944999999999979
 30
0.0
 11
1.853811999999997
 21
0.2254999999999967
 31
0.0
  0
LINE
  5
13EF
330
137C
100
AcDbEntity
  8
Part
100
AcDbLine
 10
1.853811999999997
 20
2.924500000000001
 30
0.0
 11
1.853811999999997
 21
2.9555
 31
0.0
  0
LINE
  5
13F0
330
137C
100
AcDbEntity
  8
Part
100
AcDbLine
 10
1.883061999999995
 20
0.7787499999999952
 30
0.0
 11
1.883061999999995
 21
0.8194999999999978
 31
0.0
  0
LINE
  5
13F1
330
137C
100
AcDbEntity
  8
Part
100
AcDbLine
 10
1.883061999999995
 20
0.8504999999999967
 30
0.0
 11
1.883061999999995
 21
0.8912499999999994
 31
0.0
  0
LINE
  5
13F2
330
137C
100
AcDbEntity
  8
Part
100
AcDbLine
 10
1.883061999999995
 20
2.193750000000001
 30
0.0
 11
1.883061999999995
 21
2.234499999999997
 31
0.0
  0
LINE
  5
13F3
330
137C
100
AcDbEntity
  8
Part
100
AcDbLine
 10
1.883061999999995
 20
2.265499999999995
 30
0.0
 11
1.883061999999995
 21
2.306249999999998
 31
0.0
  0
LINE
  5
13F4
330
137C
100
AcDbEntity
  8
Part
100
AcDbLine
 10
1.923811999999998
 20
0.8194999999999978
 30
0.0
 11
1.923811999999998
 21
0.8504999999999967
 31
0.0
  0
LINE
  5
13F5
330
137C
100
AcDbEntity
  8
Part
100
AcDbLine
 10
1.923811999999998
 20
2.234499999999997
 30
0.0
 11
1.923811999999998
 21
2.265499999999995
 31
0.0
  0
LINE
  5
13F6
330
137C
100
AcDbEntity
  8
Part
100
AcDbLine
 10
2.102561999999991
 20
3.149999999999998
 30
0.0
 11
2.102561999999991
 21
0.0
 31
0.0
  0
LINE
  5
13F7
330
137C
100
AcDbEntity
  8
Part
100
AcDbLine
 10
2.112437999999997
 20
0.0400209999999959
 30
0.0
 11
2.112437999999997
 21
0.0
 31
0.0
  0
CIRCLE
  5
13F8
330
137C
100
AcDbEntity
  8
Part
100
AcDbCircle
 10
-1.877438000000005
 20
0.2100000000000008
 30
0.0
 40
0.1125
  0
CIRCLE
  5
13F9
330
137C
100
AcDbEntity
  8
Part
100
AcDbCircle
 10
-1.877438000000005
 20
0.2100000000000008
 30
0.0
 40
0.1125
  0
CIRCLE
  5
13FA
330
137C
100
AcDbEntity
  8
Part
100
AcDbCircle
 10
-1.877438000000005
 20
1.979999999999996
 30
0.0
 40
0.1125
  0
CIRCLE
  5
13FB
330
137C
100
AcDbEntity
  8
Part
100
AcDbCircle
 10
-2.002438000000005
 20
2.939999999999997
 30
0.0
 40
0.1125
  0
CIRCLE
  5
13FC
330
137C
100
AcDbEntity
  8
Part
100
AcDbCircle
 10
-2.002438000000005
 20
2.939999999999997
 30
0.0
 40
0.1125
  0
CIRCLE
  5
13FD
330
137C
100
AcDbEntity
  8
Part
100
AcDbCircle
 10
-1.877438000000005
 20
1.979999999999996
 30
0.0
 40
0.1125
  0
LWPOLYLINE
  5
13FE
330
137C
100
AcDbEntity
  8
Label
  6
PHANTOM2
 48
0.125
100
AcDbPolyline
 90
       21
 70
     0
 43
0.0
 10
-2.292869590500004
 20
1.960945118099999
 42
0.4142135623730951
 10
-2.371609748000004
 20
2.0396852756
 10
-2.450349905500004
 20
2.0396852756
 42
0.4142135623730951
 10
-2.529090063000005
 20
1.960945118099999
 10
-2.529090063000005
 20
0.9766931495999955
 42
0.4142135623730951
 10
-2.450349905500004
 20
0.8979529920999951
 10
-2.135389275600005
 20
0.8979529920999951
 42
0.4142135623730951
 10
-2.056649118100004
 20
0.9766931495999955
 10
-2.056649118100004
 20
1.252283700799999
 10
-1.997594000000006
 20
1.252283700799999
 10
-1.997594000000006
 20
0.9766931495999955
 42
-0.4142135623730951
 10
-2.135389275600005
 20
0.838897873999997
 10
-2.450349905500004
 20
0.838897873999997
 42
-0.4142135623730951
 10
-2.588145181100003
 20
0.9766931495999955
 10
-2.588145181100003
 20
1.960945118099999
 42
-0.4142135623730951
 10
-2.450349905500004
 20
2.098740393699998
 10
-2.371609748000004
 20
2.098740393699998
 42
-0.4142135623730951
 10
-2.233814472500007
 20
1.960945118099999
 10
-2.233814472500007
 20
1.901890000000001
 10
-2.292869590600005
 20
1.901890000000001
 10
-2.292869590600005
 20
1.960945118099999
  0
CIRCLE
  5
13FF
330
137C
100
AcDbEntity
  8
Part
100
AcDbCircle
 10
1.867561999999992
 20
0.8350000000000008
 30
0.0
 40
0.1125
  0
CIRCLE
  5
1400
330
137C
100
AcDbEntity
  8
Part
100
AcDbCircle
 10
1.797561999999999
 20
0.2100000000000008
 30
0.0
 40
0.1125
  0
CIRCLE
  5
1401
330
137C
100
AcDbEntity
  8
Part
100
AcDbCircle
 10
1.797561999999999
 20
0.2100000000000008
 30
0.0
 40
0.1125
  0
CIRCLE
  5
1402
330
137C
100
AcDbEntity
  8
Part
100
AcDbCircle
 10
1.867561999999992
 20
0.8350000000000008
 30
0.0
 40
0.1125
  0
CIRCLE
  5
1403
330
137C
100
AcDbEntity
  8
Part
100
AcDbCircle
 10
1.797561999999999
 20
2.939999999999997
 30
0.0
 40
0.1125
  0
CIRCLE
  5
1404
330
137C
100
AcDbEntity
  8
Part
100
AcDbCircle
 10
1.867561999999992
 20
2.25
 30
0.0
 40
0.1125
  0
CIRCLE
  5
1405
330
137C
100
AcDbEntity
  8
Part
100
AcDbCircle
 10
1.797561999999999
 20
2.939999999999997
 30
0.0
 40
0.1125
  0
CIRCLE
  5
1406
330
137C
100
AcDbEntity
  8
Part
100
AcDbCircle
 10
1.867561999999992
 20
2.25
 30
0.0
 40
0.1125
  0
LINE
  5
1407
330
137C
100
AcDbEntity
  8
Dimensions
100
AcDbLine
 10
-2.127009921300007
 20
2.157679999999999
 30
0.0
 11
-2.112438000000004
 21
2.157679999999999
 31
0.0
  0
LINE
  5
1408
330
137C
100
AcDbEntity
  8
Part
100
AcDbLine
 10
-1.997594000000006
 20
0.9766931495999955
 30
0.0
 11
-1.997594000000006
 21
0.8195699999999987
 31
0.0
  0
LINE
  5
1409
330
137C
100
AcDbEntity
  8
Dimensions
100
AcDbLine
 10
-2.292869590600005
 20
1.901890000000001
 30
0.0
 11
-2.319506000000004
 21
1.901890000000001
 31
0.0
  0
ENDBLK
  5
140D
330
137C
100
AcDbEntity
  8
0
100
AcDbBlockEnd
  0
BLOCK
  5
1521
330
1504
100
AcDbEntity
  8
0
100
AcDbBlockBegin
  2
A$C17CD3A4F
 70
     0
 10
0.0
 20
0.0
 30
0.0
  3
A$C17CD3A4F
  1

  0
LINE
  5
1505
330
1504
100
AcDbEntity
  8
Schematics
100
AcDbLine
 10
-0.4879999999999996
 20
3.157999999999994
 30
0.0
 11
0.4879999999999996
 21
3.158000000000001
 31
0.0
  0
LINE
  5
1506
330
1504
100
AcDbEntity
  8
Schematics
100
AcDbLine
 10
0.4880000000000067
 20
3.158000000000001
 30
0.0
 11
0.4880000000000067
 21
0.0
 31
0.0
  0
LINE
  5
1507
330
1504
100
AcDbEntity
  8
Schematics
100
AcDbLine
 10
-0.4880000000000067
 20
3.158000000000001
 30
0.0
 11
-0.4880000000000067
 21
0.0
 31
0.0
  0
LINE
  5
1508
330
1504
100
AcDbEntity
  8
Schematics
100
AcDbLine
 10
-0.4880000000000067
 20
0.0
 30
0.0
 11
0.4879999999999996
 21
0.0
 31
0.0
  0
ARC
  5
1509
330
1504
100
AcDbEntity
  8
Schematics
100
AcDbCircle
 10
-0.125
 20
2.577891723291457
 30
0.0
 40
0.125
100
AcDbArc
 50
180.0
 51
0.0
  0
LINE
  5
150A
330
1504
100
AcDbEntity
  8
Schematics
100
AcDbLine
 10
0.0
 20
3.158000000000001
 30
0.0
 11
0.0
 21
2.577891723291457
 31
0.0
  0
ARC
  5
150B
330
1504
100
AcDbEntity
  8
Schematics
100
AcDbCircle
 10
0.125
 20
2.577891723291457
 30
0.0
 40
0.125
100
AcDbArc
 50
180.0
 51
0.0
  0
MTEXT
  5
150C
330
1504
100
AcDbEntity
  8
Label
100
AcDbMText
 10
-0.1290829163640694
 20
2.611285168855474
 30
0.0
 40
0.1007893249948842
 41
0.5039625306483284
 71
     4
 72
     5
  1
+IN
 11
0.0000000000000001
 21
1.0
 31
0.0
 73
     1
 44
1.0
1001
ACAD
1000
MTEXTBEGIN
1070
    73
1070
     1
1070
    44
1040
1.0
1070
    74
1070
     0
1000
MTEXTEND
  0
MTEXT
  5
150D
330
1504
100
AcDbEntity
  8
Label
100
AcDbMText
 10
0.1209170836359306
 20
2.611285168855474
 30
0.0
 40
0.1007893249948842
 41
0.5039625306483284
 71
     4
 72
     5
  1
-IN
 11
0.0000000000000001
 21
1.0
 31
0.0
 73
     1
 44
1.0
1001
ACAD
1000
MTEXTBEGIN
1070
    73
1070
     1
1070
    44
1040
1.0
1070
    74
1070
     0
1000
MTEXTEND
  0
LINE
  5
150E
330
1504
100
AcDbEntity
  8
Schematics
100
AcDbLine
 10
0.0
 20
0.5520079417036073
 30
0.0
 11
0.0
 21
0.0
 31
0.0
  0
ARC
  5
150F
330
1504
100
AcDbEntity
  8
Schematics
100
AcDbCircle
 10
-0.125
 20
0.5520079417036073
 30
0.0
 40
0.125
100
AcDbArc
 50
0.0
 51
180.0
  0
LINE
  5
1510
330
1504
100
AcDbEntity
  8
Schematics
100
AcDbLine
 10
0.0
 20
0.5520079417036073
 30
0.0
 11
0.0
 21
0.0
 31
0.0
  0
ARC
  5
1511
330
1504
100
AcDbEntity
  8
Schematics
100
AcDbCircle
 10
0.125
 20
0.5520079417036073
 30
0.0
 40
0.125
100
AcDbArc
 50
0.0
 51
180.0
  0
MTEXT
  5
1512
330
1504
100
AcDbEntity
  8
Label
100
AcDbMText
 10
-0.1245983053161197
 20
0.5699477825390887
 30
0.0
 40
0.0743232945665465
 41
0.4373405661196319
 71
     4
 72
     5
  1
PS +
 11
-0.0000000000000002
 21
-1.0
 31
0.0
 73
     1
 44
1.0
1001
ACAD
1000
MTEXTBEGIN
1070
    73
1070
     1
1070
    44
1040
1.0
1070
    74
1070
     0
1000
MTEXTEND
1000
ACAD_MTEXT_DEFINED_HEIGHT_BEGIN
1070
    46
1040
0.5150739750458305
1000
ACAD_MTEXT_DEFINED_HEIGHT_END
  0
LINE
  5
1513
330
1504
100
AcDbEntity
  8
Schematics
100
AcDbLine
 10
0.25
 20
0.5520079417036073
 30
0.0
 11
0.25
 21
0.0
 31
0.0
  0
LINE
  5
1514
330
1504
100
AcDbEntity
  8
Schematics
100
AcDbLine
 10
0.25
 20
0.5520079417036073
 30
0.0
 11
0.25
 21
0.0
 31
0.0
  0
LINE
  5
1515
330
1504
100
AcDbEntity
  8
Schematics
100
AcDbLine
 10
-0.25
 20
0.5520079417036073
 30
0.0
 11
-0.25
 21
0.0
 31
0.0
  0
LINE
  5
1516
330
1504
100
AcDbEntity
  8
Schematics
100
AcDbLine
 10
-0.25
 20
0.5520079417036073
 30
0.0
 11
-0.25
 21
0.0
 31
0.0
  0
LINE
  5
1517
330
1504
100
AcDbEntity
  8
Schematics
100
AcDbLine
 10
0.25
 20
3.158000000000001
 30
0.0
 11
0.25
 21
2.577891723291457
 31
0.0
  0
LINE
  5
1518
330
1504
100
AcDbEntity
  8
Schematics
100
AcDbLine
 10
-0.25
 20
3.158000000000001
 30
0.0
 11
-0.25
 21
2.577891723291457
 31
0.0
  0
MTEXT
  5
1519
330
1504
100
AcDbEntity
  8
Label
100
AcDbMText
 10
0.0215422528191951
 20
1.873118297925806
 30
0.0
 40
0.234952584375
 41
0.67555
 71
     5
 72
     5
  1
TRY
 73
     1
 44
1.0
1001
ACAD
1000
MTEXTBEGIN
1070
    73
1070
     1
1070
    44
1040
1.0
1070
    74
1070
     0
1000
MTEXTEND
  0
MTEXT
  5
151A
330
1504
100
AcDbEntity
  8
Label
100
AcDbMText
 10
0.1221211423969351
 20
0.5699908380474313
 30
0.0
 40
0.0743232945665465
 41
0.4373405661196319
 71
     4
 72
     5
  1
PS -
 11
-0.0000000000000002
 21
-1.0
 31
0.0
 73
     1
 44
1.0
1001
ACAD
1000
MTEXTBEGIN
1070
    73
1070
     1
1070
    44
1040
1.0
1070
    74
1070
     0
1000
MTEXTEND
1000
ACAD_MTEXT_DEFINED_HEIGHT_BEGIN
1070
    46
1040
0.5150739750458305
1000
ACAD_MTEXT_DEFINED_HEIGHT_END
  0
ARC
  5
151B
330
1504
100
AcDbEntity
  8
Schematics
100
AcDbCircle
 10
0.375
 20
2.577891723291457
 30
0.0
 40
0.125
100
AcDbArc
 50
180.0
 51
334.6889348445221
  0
ARC
  5
151C
330
1504
100
AcDbEntity
  8
Schematics
100
AcDbCircle
 10
-0.375
 20
2.577891723291457
 30
0.0
 40
0.125
100
AcDbArc
 50
205.3110651554852
 51
0.0
  0
ARC
  5
151D
330
1504
100
AcDbEntity
  8
Schematics
100
AcDbCircle
 10
0.375
 20
0.5520079417036073
 30
0.0
 40
0.125
100
AcDbArc
 50
25.31106515547791
 51
180.0
  0
ARC
  5
151E
330
1504
100
AcDbEntity
  8
Schematics
100
AcDbCircle
 10
-0.375
 20
0.5520079417036073
 30
0.0
 40
0.125
100
AcDbArc
 50
0.0
 51
154.6889348445148
  0
ENDBLK
  5
1522
330
1504
100
AcDbEntity
  8
0
100
AcDbBlockEnd
  0
BLOCK
  5
1569
330
1562
100
AcDbEntity
  8
0
100
AcDbBlockBegin
  2
A$C50BB7AE2
 70
     0
 10
0.0
 20
0.0
 30
0.0
  3
A$C50BB7AE2
  1

  0
MTEXT
  5
1563
330
1562
100
AcDbEntity
  8
0
100
AcDbMText
 10
-5.432856659127594
 20
-0.8054141030540371
 30
0.0
 40
0.125
 41
0.6342866817448503
 71
     5
 72
     5
  1
2
 73
     1
 44
1.0
1001
ACAD
1000
MTEXTBEGIN
1070
    73
1070
     1
1070
    44
1040
1.0
1070
    74
1070
     0
1000
MTEXTEND
1000
ACAD_MTEXT_DEFINED_HEIGHT_BEGIN
1070
    46
1040
0.2499999999999993
1000
ACAD_MTEXT_DEFINED_HEIGHT_END
  0
MTEXT
  5
1564
330
1562
100
AcDbEntity
  8
0
100
AcDbMText
 10
-2.936205634979057
 20
-0.8024753000454261
 30
0.0
 40
0.125
 41
4.359015366552219
 71
     5
 72
     5
  1
DIMENSIONS REMOVED, TERMINAL \PDESIGNATION CORRECTED
 73
     1
 44
1.0
1001
ACAD
1000
MTEXTBEGIN
1070
    73
1070
     1
1070
    44
1040
1.0
1070
    74
1070
     0
1000
MTEXTEND
1000
ACAD_MTEXT_DEFINED_HEIGHT_BEGIN
1070
    46
1040
0.1292633015006892
1000
ACAD_MTEXT_DEFINED_HEIGHT_END
  0
MTEXT
  5
1565
330
1562
100
AcDbEntity
  8
0
100
AcDbMText
 10
-0.3783489758514875
 20
-0.8054141030540371
 30
0.0
 40
0.125
 41
0.7566979517029218
 71
     5
 72
     5
  1
11/08
 73
     1
 44
1.0
1001
ACAD
1000
MTEXTBEGIN
1070
    73
1070
     1
1070
    44
1040
1.0
1070
    74
1070
     0
1000
MTEXTEND
1000
ACAD_MTEXT_DEFINED_HEIGHT_BEGIN
1070
    46
1040
0.25
1000
ACAD_MTEXT_DEFINED_HEIGHT_END
  0
LINE
  5
1566
330
1562
100
AcDbEntity
  8
0
100
AcDbLine
 10
-5.750000000000014
 20
-1.066462658222352
 30
0.0
 11
-0.0000000000000178
 21
-1.066462658222352
 31
0.0
  0
ENDBLK
  5
156A
330
1562
100
AcDbEntity
  8
0
100
AcDbBlockEnd
  0
ENDSEC
  0
SECTION
  2
ENTITIES
  0
LINE
  5
5FE
330
19
100
AcDbEntity
  8
Part
100
AcDbLine
 10
69.02099795206886
 20
26.94046750552749
 30
0.0
 11
69.02099795206886
 21
23.79046750552749
 31
0.0
  0
LINE
  5
5FF
330
19
100
AcDbEntity
  8
Part
100
AcDbLine
 10
69.02099795206885
 20
23.79046750552749
 30
0.0
 11
69.05599795206886
 21
23.79046750552749
 31
0.0
  0
LINE
  5
600
102
{ACAD_REACTORS
330
6A2
102
}
330
19
100
AcDbEntity
  8
Part
100
AcDbLine
 10
69.06599795206886
 20
23.79046750552749
 30
0.0
 11
69.06599795206886
 21
26.94046750552749
 31
0.0
  0
LINE
  5
601
330
19
100
AcDbEntity
  8
Part
100
AcDbLine
 10
69.05599795206886
 20
26.94046750552749
 30
0.0
 11
69.02099795206885
 21
26.94046750552749
 31
0.0
  0
LINE
  5
604
102
{ACAD_REACTORS
330
6A2
102
}
330
19
100
AcDbEntity
  8
Part
100
AcDbLine
 10
69.95599795206885
 20
26.94046750552749
 30
0.0
 11
69.95599795206885
 21
23.79046750552749
 31
0.0
  0
LINE
  5
605
330
19
100
AcDbEntity
  8
Part
100
AcDbLine
 10
70.00099795206885
 20
23.79046750552749
 30
0.0
 11
70.00099795206885
 21
26.94046750552749
 31
0.0
  0
LINE
  5
606
330
19
100
AcDbEntity
  8
Part
100
AcDbLine
 10
70.00099795206885
 20
26.94046750552749
 30
0.0
 11
69.95599795206885
 21
26.94046750552749
 31
0.0
  0
LINE
  5
616
330
19
100
AcDbEntity
  8
Part
100
AcDbLine
 10
69.05599795206886
 20
26.94046750552749
 30
0.0
 11
69.96599795206886
 21
26.94046750552749
 31
0.0
  0
LINE
  5
617
330
19
100
AcDbEntity
  8
Part
100
AcDbLine
 10
69.05599795206886
 20
23.79046750552749
 30
0.0
 11
70.00099795206885
 21
23.79046750552749
 31
0.0
  0
LINE
  5
618
102
{ACAD_REACTORS
330
6A2
102
}
330
19
100
AcDbEntity
  8
Part
100
AcDbLine
 10
69.06599795206888
 20
23.84046750552751
 30
0.0
 11
69.95599795206887
 21
23.84046750552751
 31
0.0
  0
LINE
  5
61D
102
{ACAD_REACTORS
330
6A2
102
}
330
19
100
AcDbEntity
  8
Part
100
AcDbLine
 10
69.06599795206888
 20
24.02546750552751
 30
0.0
 11
69.95599795206887
 21
24.02546750552751
 31
0.0
  0
LINE
  5
61E
330
19
100
AcDbEntity
  8
Part
100
AcDbLine
 10
69.06599795206888
 20
24.07546750552751
 30
0.0
 11
69.95599795206887
 21
24.07546750552751
 31
0.0
  0
LINE
  5
61F
330
19
100
AcDbEntity
  8
Part
100
AcDbLine
 10
69.06599795206888
 20
26.89546750552749
 30
0.0
 11
69.95599795206887
 21
26.89546750552749
 31
0.0
  0
LINE
  5
620
330
19
100
AcDbEntity
  8
Part
100
AcDbLine
 10
69.06599795206888
 20
26.70046750552749
 30
0.0
 11
69.95599795206887
 21
26.70046750552749
 31
0.0
  0
LINE
  5
621
330
19
100
AcDbEntity
  8
Part
100
AcDbLine
 10
69.06599795206888
 20
26.6404675055275
 30
0.0
 11
69.95599795206887
 21
26.6404675055275
 31
0.0
  0
POINT
  5
692
330
19
100
AcDbEntity
  8
0
 60
     1
100
AcDbPoint
 10
0.0
 20
0.0
 30
0.0
1001
GENIUS_GENOENT_13
1002
{
1000
MYREF
1005
692
1002
}
1002
{
1000
GRP
1005
0
1002
}
1001
GENIUS_GENODEF_13
1002
{
1000
HIER
1070
     1
1002
}
1002
{
1000
MANEDIT
1070
     0
1002
}
1002
{
1000
NOSEL
1070
     1
1002
}
1002
{
1000
BEHIND
1070
     0
1002
}
1002
{
1000
OTHER
1070
     1
1002
}
1002
{
1000
REACTOR
1002
}
1001
GENIUS_GENOLIS_13
1002
{
1000
ENT
1002
}
1001
GENIUS_GENOBJ-NBEHI-BHB_13
1002
{
1000
OWNER
1000
genbehi
1002
}
1001
GENIUS_GENBH_13
1002
{
1000
FGO
1005
68C
1002
}
  0
HATCH
  5
6A2
330
19
100
AcDbEntity
  8
Part
100
AcDbHatch
 10
0.0
 20
0.0
 30
0.0
210
0.0
220
0.0
230
1.0
  2
SOLID
 70
     1
 71
     1
 91
        1
 92
        7
 72
     0
 73
     1
 93
        4
 10
69.95599795206885
 20
23.84046750552751
 10
69.95599795206885
 20
24.0254675055275
 10
69.06599795206886
 20
24.02546750552751
 10
69.06599795206886
 20
23.84046750552751
 97
        4
330
61D
330
600
330
618
330
604
 75
     0
 76
     1
 47
0.0077315124762133
 98
        1
 10
69.32910524563843
 20
23.91548357477486
1001
ACAD
1010
0.0
1020
0.0
1030
0.0
  0
LINE
  5
6A3
330
19
100
AcDbEntity
  8
Part
100
AcDbLine
 10
69.29599795206886
 20
25.0904675055275
 30
0.0
 11
69.42599795206885
 21
25.09046750552748
 31
0.0
  0
LINE
  5
6A4
330
19
100
AcDbEntity
  8
Part
100
AcDbLine
 10
69.58599795206886
 20
25.0904675055275
 30
0.0
 11
69.58599795206886
 21
25.36046750552749
 31
0.0
  0
LINE
  5
6A5
330
19
100
AcDbEntity
  8
Part
100
AcDbLine
 10
69.58599795206886
 20
25.36046750552749
 30
0.0
 11
69.45599795206885
 21
25.3604675055275
 31
0.0
  0
LINE
  5
6A6
330
19
100
AcDbEntity
  8
Part
100
AcDbLine
 10
69.29599795206886
 20
25.3604675055275
 30
0.0
 11
69.29599795206886
 21
25.0904675055275
 31
0.0
  0
LINE
  5
6A8
330
19
100
AcDbEntity
  8
Part
100
AcDbLine
 10
69.45599795206885
 20
25.0904675055275
 30
0.0
 11
69.45599795206885
 21
25.151982813244
 31
0.0
  0
LINE
  5
6A9
330
19
100
AcDbEntity
  8
Part
100
AcDbLine
 10
69.42599795206885
 20
25.0904675055275
 30
0.0
 11
69.42599795206887
 21
25.151982813244
 31
0.0
  0
LINE
  5
6AA
330
19
100
AcDbEntity
  8
Part
100
AcDbLine
 10
69.42599795206885
 20
25.3604675055275
 30
0.0
 11
69.29599795206886
 21
25.3604675055275
 31
0.0
  0
LINE
  5
6AB
330
19
100
AcDbEntity
  8
Part
100
AcDbLine
 10
69.45599795206887
 20
25.0904675055275
 30
0.0
 11
69.58599795206886
 21
25.0904675055275
 31
0.0
  0
CIRCLE
  5
6B4
330
19
100
AcDbEntity
  8
Part
100
AcDbCircle
 10
69.44099795206887
 20
25.22546750552749
 30
0.0
 40
0.075
  0
CIRCLE
  5
6B8
330
19
100
AcDbEntity
  8
Part
100
AcDbCircle
 10
69.44099795206887
 20
25.22546750552749
 30
0.0
 40
0.06
  0
LINE
  5
6B9
330
19
100
AcDbEntity
  8
Part
100
AcDbLine
 10
69.42599795206885
 20
25.29895219781099
 30
0.0
 11
69.42599795206885
 21
25.36046750552749
 31
0.0
  0
LINE
  5
6BA
330
19
100
AcDbEntity
  8
Part
100
AcDbLine
 10
69.45599795206885
 20
25.29895219781099
 30
0.0
 11
69.45599795206885
 21
25.3604675055275
 31
0.0
  0
HATCH
  5
6CC
330
19
100
AcDbEntity
  8
Part
100
AcDbHatch
 10
0.0
 20
0.0
 30
0.0
210
0.0
220
0.0
230
1.0
  2
SOLID
 70
     1
 71
     0
 91
        2
 92
        7
 72
     1
 73
     1
 93
        7
 10
69.51599795206885
 20
25.22546750552749
 42
-0.3563939586926024
 10
69.45599795206885
 20
25.151982813244
 42
0.0
 10
69.45599795206885
 20
25.0904675055275
 42
0.0
 10
69.58599795206886
 20
25.0904675055275
 42
0.0
 10
69.58599795206886
 20
25.3604675055275
 42
0.0
 10
69.45599795206885
 20
25.3604675055275
 42
0.0
 10
69.45599795206885
 20
25.29895219781099
 42
-0.3563939586926133
 97
        0
 92
        7
 72
     1
 73
     1
 93
        7
 10
69.29599795206886
 20
25.36046750552749
 42
0.0
 10
69.29599795206886
 20
25.0904675055275
 42
0.0
 10
69.42599795206885
 20
25.09046750552748
 42
0.0
 10
69.42599795206887
 20
25.151982813244
 42
-0.3563939586926133
 10
69.36599795206887
 20
25.22546750552749
 42
-0.3563939586926024
 10
69.42599795206885
 20
25.29895219781099
 42
0.0
 10
69.42599795206885
 20
25.3604675055275
 42
0.0
 97
        0
 75
     0
 76
     1
 47
0.0008288708422339
 98
        2
 10
69.52555753096314
 20
25.30031304971693
 10
69.37214084112786
 20
25.33098127957376
1001
ACAD
1010
0.0
1020
0.0
1030
0.0
  0
CIRCLE
  5
6CE
330
19
100
AcDbEntity
  8
Part
100
AcDbCircle
 10
69.44099795206887
 20
25.22546750552749
 30
0.0
 40
0.0533124684197297
  0
LINE
  5
6D1
330
19
100
AcDbEntity
  8
Part
100
AcDbLine
 10
69.46881541298694
 20
25.17998775006339
 30
0.0
 11
69.40161262412511
 21
25.26139820593491
 31
0.0
  0
LINE
  5
6D2
330
19
100
AcDbEntity
  8
Part
100
AcDbLine
 10
69.48038328001263
 20
25.18953680512009
 30
0.0
 11
69.41318049115078
 21
25.27094726099162
 31
0.0
  0
HATCH
  5
6D7
330
19
100
AcDbEntity
  8
Part
100
AcDbHatch
 10
0.0
 20
0.0
 30
0.0
210
0.0
220
0.0
230
1.0
  2
SOLID
 70
     1
 71
     0
 91
        1
 92
        7
 72
     1
 73
     1
 93
        4
 10
69.46881541298694
 20
25.17998775006339
 42
0.0706915278379923
 10
69.48038328001263
 20
25.18953680512009
 42
0.0
 10
69.41318049115078
 20
25.27094726099162
 42
0.0706915278379923
 10
69.40161262412511
 20
25.26139820593491
 42
0.0
 97
        0
 75
     0
 76
     1
 47
0.0008232588311789
 98
        1
 10
69.44920303966679
 20
25.21671066640169
1001
ACAD
1010
0.0
1020
0.0
1030
0.0
  0
HATCH
  5
6D8
330
19
100
AcDbEntity
  8
Part
100
AcDbHatch
 10
0.0
 20
0.0
 30
0.0
210
0.0
220
0.0
230
1.0
  2
SOLID
 70
     1
 71
     0
 91
        2
 92
        7
 72
     1
 73
     1
 93
        7
 10
69.51599795206885
 20
25.5254675055275
 42
-0.3563939586926024
 10
69.45599795206885
 20
25.451982813244
 42
0.0
 10
69.45599795206885
 20
25.3904675055275
 42
0.0
 10
69.58599795206886
 20
25.3904675055275
 42
0.0
 10
69.58599795206886
 20
25.6604675055275
 42
0.0
 10
69.45599795206885
 20
25.6604675055275
 42
0.0
 10
69.45599795206885
 20
25.59895219781099
 42
-0.3563939586926133
 97
        0
 92
        7
 72
     1
 73
     1
 93
        7
 10
69.29599795206886
 20
25.6604675055275
 42
0.0
 10
69.29599795206886
 20
25.3904675055275
 42
0.0
 10
69.42599795206885
 20
25.39046750552749
 42
0.0
 10
69.42599795206887
 20
25.451982813244
 42
-0.3563939586926133
 10
69.36599795206887
 20
25.5254675055275
 42
-0.3563939586926024
 10
69.42599795206885
 20
25.59895219781099
 42
0.0
 10
69.42599795206885
 20
25.6604675055275
 42
0.0
 97
        0
 75
     0
 76
     1
 47
0.0008288708422339
 98
        2
 10
69.52555753096314
 20
25.60031304971693
 10
69.37214084112786
 20
25.63098127957376
1001
ACAD
1010
0.0
1020
0.0
1030
0.0
  0
LINE
  5
6D9
330
19
100
AcDbEntity
  8
Part
100
AcDbLine
 10
69.29599795206886
 20
25.3904675055275
 30
0.0
 11
69.42599795206885
 21
25.39046750552749
 31
0.0
  0
LINE
  5
6DA
330
19
100
AcDbEntity
  8
Part
100
AcDbLine
 10
69.45599795206887
 20
25.3904675055275
 30
0.0
 11
69.58599795206886
 21
25.3904675055275
 31
0.0
  0
LINE
  5
6DB
330
19
100
AcDbEntity
  8
Part
100
AcDbLine
 10
69.58599795206886
 20
25.3904675055275
 30
0.0
 11
69.58599795206886
 21
25.6604675055275
 31
0.0
  0
LINE
  5
6DC
330
19
100
AcDbEntity
  8
Part
100
AcDbLine
 10
69.58599795206886
 20
25.6604675055275
 30
0.0
 11
69.45599795206885
 21
25.6604675055275
 31
0.0
  0
LINE
  5
6DD
330
19
100
AcDbEntity
  8
Part
100
AcDbLine
 10
69.42599795206885
 20
25.6604675055275
 30
0.0
 11
69.29599795206886
 21
25.6604675055275
 31
0.0
  0
LINE
  5
6DE
330
19
100
AcDbEntity
  8
Part
100
AcDbLine
 10
69.29599795206886
 20
25.6604675055275
 30
0.0
 11
69.29599795206886
 21
25.3904675055275
 31
0.0
  0
LINE
  5
6DF
330
19
100
AcDbEntity
  8
Part
100
AcDbLine
 10
69.45599795206885
 20
25.3904675055275
 30
0.0
 11
69.45599795206885
 21
25.451982813244
 31
0.0
  0
LINE
  5
6E0
330
19
100
AcDbEntity
  8
Part
100
AcDbLine
 10
69.45599795206885
 20
25.59895219781099
 30
0.0
 11
69.45599795206885
 21
25.6604675055275
 31
0.0
  0
LINE
  5
6E1
330
19
100
AcDbEntity
  8
Part
100
AcDbLine
 10
69.42599795206885
 20
25.3904675055275
 30
0.0
 11
69.42599795206887
 21
25.451982813244
 31
0.0
  0
LINE
  5
6E2
330
19
100
AcDbEntity
  8
Part
100
AcDbLine
 10
69.42599795206885
 20
25.59895219781099
 30
0.0
 11
69.42599795206885
 21
25.6604675055275
 31
0.0
  0
CIRCLE
  5
6E3
330
19
100
AcDbEntity
  8
Part
100
AcDbCircle
 10
69.44099795206887
 20
25.5254675055275
 30
0.0
 40
0.075
  0
CIRCLE
  5
6E4
330
19
100
AcDbEntity
  8
Part
100
AcDbCircle
 10
69.44099795206887
 20
25.5254675055275
 30
0.0
 40
0.06
  0
HATCH
  5
6E5
330
19
100
AcDbEntity
  8
Part
100
AcDbHatch
 10
0.0
 20
0.0
 30
0.0
210
0.0
220
0.0
230
1.0
  2
SOLID
 70
     1
 71
     0
 91
        1
 92
        7
 72
     1
 73
     1
 93
        4
 10
69.46881541298694
 20
25.47998775006338
 42
0.0706915278379923
 10
69.48038328001263
 20
25.48953680512009
 42
0.0
 10
69.41318049115078
 20
25.57094726099162
 42
0.0706915278379923
 10
69.40161262412511
 20
25.56139820593491
 42
0.0
 97
        0
 75
     0
 76
     1
 47
0.0008232588311789
 98
        1
 10
69.44920303966679
 20
25.5167106664017
1001
ACAD
1010
0.0
1020
0.0
1030
0.0
  0
CIRCLE
  5
6E6
330
19
100
AcDbEntity
  8
Part
100
AcDbCircle
 10
69.44099795206887
 20
25.5254675055275
 30
0.0
 40
0.0533124684197297
  0
LINE
  5
6E7
330
19
100
AcDbEntity
  8
Part
100
AcDbLine
 10
69.48038328001263
 20
25.48953680512009
 30
0.0
 11
69.41318049115078
 21
25.57094726099162
 31
0.0
  0
LINE
  5
6E8
330
19
100
AcDbEntity
  8
Part
100
AcDbLine
 10
69.46881541298694
 20
25.47998775006338
 30
0.0
 11
69.40161262412511
 21
25.56139820593491
 31
0.0
  0
MTEXT
  5
6ED
330
19
100
AcDbEntity
  8
Label
100
AcDbMText
 10
69.62852614219312
 20
25.2663751687298
 30
0.0
 40
0.08
 41
0.5849266859975586
 71
     1
 72
     5
  1
{\fArial Narrow|b0|i0|c0|p34;ZERO}
  7
ADESK1
 73
     1
 44
1.0
1001
ACAD
1000
MTEXTBEGIN
1070
    73
1070
     1
1070
    44
1040
1.0
1070
    74
1070
     0
1000
MTEXTEND
  0
MTEXT
  5
6EE
330
19
100
AcDbEntity
  8
Label
100
AcDbMText
 10
69.62852614219312
 20
25.5663751687298
 30
0.0
 40
0.08
 41
0.5849266859975586
 71
     1
 72
     5
  1
{\fArial Narrow|b0|i0|c0|p34;SPAN}
  7
ADESK1
 73
     1
 44
1.0
1001
ACAD
1000
MTEXTBEGIN
1070
    73
1070
     1
1070
    44
1040
1.0
1070
    74
1070
     0
1000
MTEXTEND
  0
LINE
  5
718
330
19
100
AcDbEntity
  8
Part
100
AcDbLine
 10
69.95599795206887
 20
26.21046750552749
 30
0.0
 11
69.06599795206888
 21
26.21046750552749
 31
0.0
  0
LINE
  5
719
330
19
100
AcDbEntity
  8
Part
100
AcDbLine
 10
69.90099795206886
 20
26.64046750552749
 30
0.0
 11
69.12099795206886
 21
26.6404675055275
 31
0.0
  0
LINE
  5
71A
330
19
100
AcDbEntity
  8
Part
100
AcDbLine
 10
69.90099795206886
 20
26.21046750552749
 30
0.0
 11
69.90099795206886
 21
26.64046750552749
 31
0.0
  0
LINE
  5
71B
330
19
100
AcDbEntity
  8
Part
100
AcDbLine
 10
69.12099795206886
 20
26.2104675055275
 30
0.0
 11
69.12099795206886
 21
26.6404675055275
 31
0.0
  0
CIRCLE
  5
71D
330
19
100
AcDbEntity
  8
Part
100
AcDbCircle
 10
69.79599795206886
 20
26.48046750552749
 30
0.0
 40
0.0775
  0
CIRCLE
  5
71E
330
19
100
AcDbEntity
  8
Part
100
AcDbCircle
 10
69.60099795206886
 20
26.48046750552749
 30
0.0
 40
0.0775
  0
CIRCLE
  5
71F
330
19
100
AcDbEntity
  8
Part
100
AcDbCircle
 10
69.41099795206887
 20
26.4804675055275
 30
0.0
 40
0.0775
  0
CIRCLE
  5
720
330
19
100
AcDbEntity
  8
Part
100
AcDbCircle
 10
69.21599795206886
 20
26.4804675055275
 30
0.0
 40
0.0775
  0
CIRCLE
  5
73D
330
19
100
AcDbEntity
  8
Part
100
AcDbCircle
 10
69.21599795206886
 20
26.4804675055275
 30
0.0
 40
0.0708831602286928
  0
LINE
  5
73F
330
19
100
AcDbEntity
  8
Part
100
AcDbLine
 10
69.28000449815971
 20
26.51092377682796
 30
0.0
 11
69.16304665011065
 21
26.43334445357905
 31
0.0
  0
LINE
  5
740
330
19
100
AcDbEntity
  8
Part
100
AcDbLine
 10
69.26894925402709
 20
26.52759055747595
 30
0.0
 11
69.15199140597801
 21
26.45001123422704
 31
0.0
  0
HATCH
  5
745
330
19
100
AcDbEntity
  8
Part
100
AcDbHatch
 10
0.0
 20
0.0
 30
0.0
210
0.0
220
0.0
230
1.0
  2
SOLID
 70
     1
 71
     0
 91
        1
 92
        7
 72
     1
 73
     1
 93
        4
 10
69.28000449815971
 20
26.51092377682796
 42
0.0708931312326795
 10
69.26894925402709
 20
26.52759055747595
 42
0.0
 10
69.15199140597801
 20
26.45001123422704
 42
0.0708931312327049
 10
69.16304665011065
 20
26.43334445357905
 42
0.0
 97
        0
 75
     0
 76
     1
 47
0.0006301257202986
 98
        1
 10
69.22610917902233
 20
26.48660859927135
1001
ACAD
1010
0.0
1020
0.0
1030
0.0
  0
HATCH
  5
746
330
19
100
AcDbEntity
  8
Part
100
AcDbHatch
 10
0.0
 20
0.0
 30
0.0
210
0.0
220
0.0
230
1.0
  2
SOLID
 70
     1
 71
     0
 91
        1
 92
        7
 72
     1
 73
     1
 93
        4
 10
69.44954756985717
 20
26.42098347933238
 42
0.0708931312326795
 10
69.46462890334608
 20
26.43411943686108
 42
0.0
 10
69.37244833428055
 20
26.53995153172262
 42
0.0708931312327049
 10
69.35736700079161
 20
26.5268155741939
 42
0.0
 97
        0
 75
     0
 76
     1
 47
0.0006301257202986
 98
        1
 10
69.41840619069636
 20
26.47124427706275
1001
ACAD
1010
0.0
1020
0.0
1030
0.0
  0
LINE
  5
747
330
19
100
AcDbEntity
  8
Part
100
AcDbLine
 10
69.46462890334608
 20
26.43411943686108
 30
0.0
 11
69.37244833428055
 21
26.53995153172262
 31
0.0
  0
LINE
  5
748
330
19
100
AcDbEntity
  8
Part
100
AcDbLine
 10
69.44954756985717
 20
26.42098347933238
 30
0.0
 11
69.35736700079161
 21
26.5268155741939
 31
0.0
  0
HATCH
  5
749
330
19
100
AcDbEntity
  8
Part
100
AcDbHatch
 10
0.0
 20
0.0
 30
0.0
210
0.0
220
0.0
230
1.0
  2
SOLID
 70
     1
 71
     0
 91
        1
 92
        7
 72
     1
 73
     1
 93
        4
 10
69.64032427798191
 20
26.53944091050114
 42
0.0708931312326795
 10
69.62228568124245
 20
26.54807856224633
 42
0.0
 10
69.5616716261558
 20
26.42149410055385
 42
0.0708931312327049
 10
69.57971022289526
 20
26.41285644880866
 42
0.0
 97
        0
 75
     0
 76
     1
 47
0.0006301257202986
 98
        1
 10
69.60652833445266
 20
26.49092526884304
1001
ACAD
1010
0.0
1020
0.0
1030
0.0
  0
LINE
  5
74A
330
19
100
AcDbEntity
  8
Part
100
AcDbLine
 10
69.62228568124245
 20
26.54807856224633
 30
0.0
 11
69.5616716261558
 21
26.42149410055385
 31
0.0
  0
LINE
  5
74B
330
19
100
AcDbEntity
  8
Part
100
AcDbLine
 10
69.64032427798191
 20
26.53944091050114
 30
0.0
 11
69.57971022289526
 21
26.41285644880866
 31
0.0
  0
HATCH
  5
74C
330
19
100
AcDbEntity
  8
Part
100
AcDbHatch
 10
0.0
 20
0.0
 30
0.0
210
0.0
220
0.0
230
1.0
  2
SOLID
 70
     1
 71
     0
 91
        1
 92
        7
 72
     1
 73
     1
 93
        4
 10
69.85916828581975
 20
26.44831270280987
 42
0.0708931312326795
 10
69.86563563676485
 20
26.46723817167468
 42
0.0
 10
69.73282761831796
 20
26.51262230824509
 42
0.0708931312327049
 10
69.72636026737287
 20
26.49369683938028
 42
0.0
 97
        0
 75
     0
 76
     1
 47
0.0006301257202986
 98
        1
 10
69.8070310492602
 20
26.47619893325547
1001
ACAD
1010
0.0
1020
0.0
1030
0.0
  0
LINE
  5
74D
330
19
100
AcDbEntity
  8
Part
100
AcDbLine
 10
69.86563563676485
 20
26.46723817167468
 30
0.0
 11
69.73282761831796
 21
26.51262230824509
 31
0.0
  0
LINE
  5
74E
330
19
100
AcDbEntity
  8
Part
100
AcDbLine
 10
69.85916828581975
 20
26.44831270280987
 30
0.0
 11
69.72636026737287
 21
26.49369683938028
 31
0.0
  0
CIRCLE
  5
74F
330
19
100
AcDbEntity
  8
Part
100
AcDbCircle
 10
69.41099795206887
 20
26.4804675055275
 30
0.0
 40
0.0708831602286928
  0
CIRCLE
  5
750
330
19
100
AcDbEntity
  8
Part
100
AcDbCircle
 10
69.60099795206886
 20
26.48046750552749
 30
0.0
 40
0.0708831602286928
  0
CIRCLE
  5
751
330
19
100
AcDbEntity
  8
Part
100
AcDbCircle
 10
69.79599795206886
 20
26.48046750552749
 30
0.0
 40
0.0708831602286928
  0
LINE
  5
752
330
19
100
AcDbEntity
  8
Part
100
AcDbLine
 10
69.90099795206886
 20
26.38283515490644
 30
0.0
 11
69.12099795206886
 21
26.38283515490646
 31
0.0
  0
LINE
  5
7DC
330
19
100
AcDbEntity
  8
Part
100
AcDbLine
 10
57.63088167138068
 20
26.94046750552749
 30
0.0
 11
57.63088167138068
 21
23.79046750552749
 31
0.0
  0
LINE
  5
7DD
330
19
100
AcDbEntity
  8
Part
100
AcDbLine
 10
57.67588167138068
 20
23.79046750552749
 30
0.0
 11
57.67588167138068
 21
26.94046750552749
 31
0.0
  0
LINE
  5
7DE
330
19
100
AcDbEntity
  8
Part
100
AcDbLine
 10
58.56588167138067
 20
26.94046750552749
 30
0.0
 11
58.56588167138067
 21
23.79046750552749
 31
0.0
  0
LINE
  5
7DF
330
19
100
AcDbEntity
  8
Part
100
AcDbLine
 10
58.61088167138068
 20
23.79046750552749
 30
0.0
 11
58.61088167138068
 21
26.94046750552749
 31
0.0
  0
LINE
  5
7E0
330
19
100
AcDbEntity
  8
Part
100
AcDbLine
 10
57.63088167138068
 20
26.9404675055275
 30
0.0
 11
58.61088167138068
 21
26.9404675055275
 31
0.0
  0
LINE
  5
7E1
330
19
100
AcDbEntity
  8
Part
100
AcDbLine
 10
57.67588167138068
 20
26.89546750552749
 30
0.0
 11
58.56588167138067
 21
26.89546750552749
 31
0.0
  0
LINE
  5
7E2
330
19
100
AcDbEntity
  8
Part
100
AcDbLine
 10
57.63088167138068
 20
23.7904675055275
 30
0.0
 11
58.61088167138068
 21
23.79046750552749
 31
0.0
  0
MTEXT
  5
7E4
330
19
100
AcDbEntity
  8
Label
100
AcDbMText
 10
69.13910860197018
 20
25.95183069101664
 30
0.0
 40
0.15
 41
0.5849266859975586
 71
     1
 72
     5
  1
{\fArial Narrow|b1|i0|c0|p34;SIX}
  7
ADESK1
 73
     1
 44
1.0
1001
ACAD
1000
MTEXTBEGIN
1070
    73
1070
     1
1070
    44
1040
1.0
1070
    74
1070
     0
1000
MTEXTEND
  0
MTEXT
  5
7EA
330
19
100
AcDbEntity
  8
Label
100
AcDbMText
 10
69.44739039809086
 20
25.96057530659962
 30
0.0
 40
0.06
 41
0.5849266859975586
 71
     1
 72
     5
  1
{\fArial Narrow|b0|i0|c0|p34;SIGNAL\PISOLATOR}
  7
ADESK1
 73
     1
 44
1.0
1001
ACAD
1000
MTEXTBEGIN
1070
    73
1070
     1
1070
    44
1040
1.0
1070
    74
1070
     0
1000
MTEXTEND
  0
MTEXT
  5
7EB
330
19
100
AcDbEntity
  8
Label
100
AcDbMText
 10
69.16065358214095
 20
26.07012589401922
 30
0.0
 40
0.06
 41
0.7654371056957494
 71
     1
 72
     5
  1
{\fArial Narrow|b0|i0|c0|p34;+IN     -IN    +PS    -PS}
  7
ADESK1
 73
     1
 44
1.0
1001
ACAD
1000
MTEXTBEGIN
1070
    73
1070
     1
1070
    44
1040
1.0
1070
    74
1070
     0
1000
MTEXTEND
  0
ARC
  5
8FD
330
19
100
AcDbEntity
  8
Part
100
AcDbCircle
 10
64.81652988282147
 20
26.64179183431308
 30
0.0
 40
0.065
100
AcDbArc
 50
26.26900417577997
 51
35.09245574732526
  0
HATCH
  5
92C
330
19
100
AcDbEntity
  8
Part
100
AcDbHatch
 10
0.0
 20
0.0
 30
0.0
210
0.0
220
0.0
230
1.0
  2
SOLID
 70
     1
 71
     0
 91
        2
 92
        7
 72
     0
 73
     1
 93
        8
 10
65.92862195552706
 20
26.21046750552749
 10
66.07862195552707
 20
26.21046750552749
 10
66.07862195552707
 20
26.24546750552748
 10
65.96362195552707
 20
26.24546750552749
 10
65.9636219555271
 20
26.66546750552749
 10
66.07862195552707
 20
26.66546750552749
 10
66.07862195552707
 20
26.70046750552749
 10
65.92862195552706
 20
26.70046750552749
 97
        0
 92
        7
 72
     0
 73
     1
 93
       11
 10
66.56362195552708
 20
26.24546750552749
 10
66.56362195552707
 20
26.2104675055275
 10
66.62362195552707
 20
26.21046750552749
 10
66.62362195552707
 20
26.64046750552749
 10
66.56362195552707
 20
26.6404675055275
 10
66.56362195552707
 20
26.58546750552749
 10
66.29453104643616
 20
26.66546750552749
 10
66.07862195552707
 20
26.66546750552749
 10
65.9636219555271
 20
26.66546750552749
 10
65.9636219555271
 20
26.24546750552748
 10
66.07862195552707
 20
26.24546750552749
 97
        0
 75
     0
 76
     1
 47
0.0045914184288575
 98
        2
 10
65.93781828332557
 20
26.39425100874283
 10
66.20425181703708
 20
26.40343383969709
1001
ACAD
1010
0.0
1020
0.0
1030
0.0
  0
LINE
  5
92D
330
19
100
AcDbEntity
  8
Part
100
AcDbLine
 10
65.92862195552706
 20
26.70046750552749
 30
0.0
 11
66.07862195552707
 21
26.70046750552749
 31
0.0
  0
LINE
  5
92E
330
19
100
AcDbEntity
  8
Part
100
AcDbLine
 10
66.07862195552707
 20
26.66546750552749
 30
0.0
 11
66.29453104643616
 21
26.66546750552749
 31
0.0
  0
LINE
  5
92F
330
19
100
AcDbEntity
  8
Part
100
AcDbLine
 10
66.62362195552707
 20
26.64046750552749
 30
0.0
 11
66.62362195552707
 21
26.21046750552749
 31
0.0
  0
LINE
  5
930
330
19
100
AcDbEntity
  8
Part
100
AcDbLine
 10
66.07862195552707
 20
26.24546750552749
 30
0.0
 11
66.07862195552707
 21
26.21046750552749
 31
0.0
  0
LINE
  5
931
330
19
100
AcDbEntity
  8
Part
100
AcDbLine
 10
65.92862195552706
 20
26.70046750552749
 30
0.0
 11
65.92862195552706
 21
26.21046750552749
 31
0.0
  0
LINE
  5
932
330
19
100
AcDbEntity
  8
Part
100
AcDbLine
 10
65.9636219555271
 20
26.66546750552749
 30
0.0
 11
65.9636219555271
 21
26.24546750552749
 31
0.0
  0
LINE
  5
933
330
19
100
AcDbEntity
  8
Part
100
AcDbLine
 10
66.56362195552707
 20
26.64046750552749
 30
0.0
 11
66.56362195552707
 21
26.58546750552749
 31
0.0
  0
LINE
  5
934
330
19
100
AcDbEntity
  8
Part
100
AcDbLine
 10
66.62362195552707
 20
26.21046750552749
 30
0.0
 11
66.56362195552707
 21
26.21046750552749
 31
0.0
  0
LINE
  5
935
330
19
100
AcDbEntity
  8
Part
100
AcDbLine
 10
66.56362195552707
 20
26.24546750552749
 30
0.0
 11
66.07862195552707
 21
26.24546750552749
 31
0.0
  0
LINE
  5
936
330
19
100
AcDbEntity
  8
Part
100
AcDbLine
 10
66.56362195552707
 20
26.58546750552749
 30
0.0
 11
66.29453104643615
 21
26.66546750552749
 31
0.0
  0
LINE
  5
937
330
19
100
AcDbEntity
  8
Part
100
AcDbLine
 10
66.62362195552707
 20
26.64046750552749
 30
0.0
 11
66.56362195552707
 21
26.64046750552749
 31
0.0
  0
LINE
  5
938
330
19
100
AcDbEntity
  8
Part
100
AcDbLine
 10
66.56362195552708
 20
26.24546750552749
 30
0.0
 11
66.56362195552707
 21
26.21046750552749
 31
0.0
  0
LINE
  5
939
330
19
100
AcDbEntity
  8
Part
100
AcDbLine
 10
66.07862195552707
 20
26.21046750552749
 30
0.0
 11
65.92862195552706
 21
26.21046750552749
 31
0.0
  0
LINE
  5
93A
330
19
100
AcDbEntity
  8
Part
100
AcDbLine
 10
66.07862195552707
 20
26.66546750552749
 30
0.0
 11
65.9636219555271
 21
26.66546750552749
 31
0.0
  0
LINE
  5
93B
330
19
100
AcDbEntity
  8
Part
100
AcDbLine
 10
66.07862195552707
 20
26.24546750552749
 30
0.0
 11
65.96362195552707
 21
26.24546750552749
 31
0.0
  0
LINE
  5
93C
330
19
100
AcDbEntity
  8
Part
100
AcDbLine
 10
66.07862195552707
 20
26.70046750552749
 30
0.0
 11
66.07862195552707
 21
26.66546750552748
 31
0.0
  0
LINE
  5
94D
330
19
100
AcDbEntity
  8
Part
100
AcDbLine
 10
65.93862195552707
 20
30.24134598634592
 30
0.0
 11
61.60862195552707
 21
30.24134598634592
 31
0.0
  0
LINE
  5
94E
102
{ACAD_REACTORS
330
1334
330
1375
102
}
330
19
100
AcDbEntity
  8
Part
100
AcDbLine
 10
61.48393395552706
 20
30.19634598634592
 30
0.0
 11
65.93862195552707
 21
30.19634598634592
 31
0.0
  0
LINE
  5
94F
102
{ACAD_REACTORS
330
1334
330
1375
102
}
330
19
100
AcDbEntity
  8
Part
100
AcDbLine
 10
65.93862195552707
 20
29.30634598634592
 30
0.0
 11
61.48393395552706
 21
29.30634598634592
 31
0.0
  0
LINE
  5
950
330
19
100
AcDbEntity
  8
Part
100
AcDbLine
 10
61.60862195552707
 20
29.26134598634592
 30
0.0
 11
65.93862195552707
 21
29.26134598634592
 31
0.0
  0
LINE
  5
951
330
19
100
AcDbEntity
  8
Part
100
AcDbLine
 10
65.93862195552709
 20
30.24134598634592
 30
0.0
 11
65.93862195552707
 21
29.26134598634592
 31
0.0
  0
LINE
  5
952
102
{ACAD_REACTORS
330
1375
102
}
330
19
100
AcDbEntity
  8
Part
100
AcDbLine
 10
65.68862195552707
 20
30.19634598634592
 30
0.0
 11
65.68862195552707
 21
29.30634598634592
 31
0.0
  0
LINE
  5
954
102
{ACAD_REACTORS
330
1375
102
}
330
19
100
AcDbEntity
  8
Part
100
AcDbLine
 10
65.58862195552707
 20
30.19634598634592
 30
0.0
 11
65.58862195552707
 21
29.30634598634592
 31
0.0
  0
LINE
  5
955
102
{ACAD_REACTORS
330
1375
102
}
330
19
100
AcDbEntity
  8
Part
100
AcDbLine
 10
65.53862195552703
 20
30.19634598634592
 30
0.0
 11
65.53862195552705
 21
29.30634598634592
 31
0.0
  0
LINE
  5
956
102
{ACAD_REACTORS
330
1375
102
}
330
19
100
AcDbEntity
  8
Part
100
AcDbLine
 10
65.48862195552707
 20
30.19634598634592
 30
0.0
 11
65.48862195552707
 21
29.30634598634592
 31
0.0
  0
LINE
  5
957
102
{ACAD_REACTORS
330
1375
102
}
330
19
100
AcDbEntity
  8
Part
100
AcDbLine
 10
65.43862195552707
 20
30.19634598634592
 30
0.0
 11
65.43862195552705
 21
29.30634598634592
 31
0.0
  0
LINE
  5
958
102
{ACAD_REACTORS
330
1375
102
}
330
19
100
AcDbEntity
  8
Part
100
AcDbLine
 10
65.38862195552704
 20
30.19634598634592
 30
0.0
 11
65.38862195552706
 21
29.30634598634592
 31
0.0
  0
LINE
  5
959
102
{ACAD_REACTORS
330
1375
102
}
330
19
100
AcDbEntity
  8
Part
100
AcDbLine
 10
65.33862195552707
 20
30.19634598634592
 30
0.0
 11
65.33862195552707
 21
29.30634598634592
 31
0.0
  0
LINE
  5
95A
102
{ACAD_REACTORS
330
1375
102
}
330
19
100
AcDbEntity
  8
Part
100
AcDbLine
 10
65.28862195552708
 20
30.19634598634592
 30
0.0
 11
65.28862195552708
 21
29.30634598634592
 31
0.0
  0
LINE
  5
95B
102
{ACAD_REACTORS
330
1375
102
}
330
19
100
AcDbEntity
  8
Part
100
AcDbLine
 10
65.23862195552706
 20
30.19634598634592
 30
0.0
 11
65.23862195552706
 21
29.30634598634592
 31
0.0
  0
LINE
  5
95C
102
{ACAD_REACTORS
330
1375
102
}
330
19
100
AcDbEntity
  8
Part
100
AcDbLine
 10
65.18862195552706
 20
30.19634598634592
 30
0.0
 11
65.18862195552706
 21
29.30634598634592
 31
0.0
  0
LINE
  5
95D
102
{ACAD_REACTORS
330
1375
102
}
330
19
100
AcDbEntity
  8
Part
100
AcDbLine
 10
65.13862195552706
 20
30.19634598634592
 30
0.0
 11
65.13862195552706
 21
29.30634598634592
 31
0.0
  0
LINE
  5
95F
102
{ACAD_REACTORS
330
1375
102
}
330
19
100
AcDbEntity
  8
Part
100
AcDbLine
 10
65.08862195552706
 20
30.19634598634592
 30
0.0
 11
65.08862195552705
 21
29.30634598634592
 31
0.0
  0
LINE
  5
960
102
{ACAD_REACTORS
330
1375
102
}
330
19
100
AcDbEntity
  8
Part
100
AcDbLine
 10
65.03862195552703
 20
30.19634598634592
 30
0.0
 11
65.03862195552705
 21
29.30634598634592
 31
0.0
  0
LINE
  5
961
102
{ACAD_REACTORS
330
1375
102
}
330
19
100
AcDbEntity
  8
Part
100
AcDbLine
 10
64.98862195552705
 20
30.19634598634592
 30
0.0
 11
64.98862195552705
 21
29.30634598634592
 31
0.0
  0
LINE
  5
962
102
{ACAD_REACTORS
330
1375
102
}
330
19
100
AcDbEntity
  8
Part
100
AcDbLine
 10
64.93862195552705
 20
30.19634598634592
 30
0.0
 11
64.93862195552705
 21
29.30634598634592
 31
0.0
  0
LINE
  5
963
102
{ACAD_REACTORS
330
1375
102
}
330
19
100
AcDbEntity
  8
Part
100
AcDbLine
 10
64.88862195552705
 20
30.19634598634592
 30
0.0
 11
64.88862195552705
 21
29.30634598634592
 31
0.0
  0
LINE
  5
964
102
{ACAD_REACTORS
330
1375
102
}
330
19
100
AcDbEntity
  8
Part
100
AcDbLine
 10
64.83862195552706
 20
30.19634598634592
 30
0.0
 11
64.83862195552706
 21
29.30634598634592
 31
0.0
  0
LINE
  5
965
102
{ACAD_REACTORS
330
1375
102
}
330
19
100
AcDbEntity
  8
Part
100
AcDbLine
 10
64.78862195552707
 20
30.19634598634592
 30
0.0
 11
64.78862195552707
 21
29.30634598634592
 31
0.0
  0
LINE
  5
966
102
{ACAD_REACTORS
330
1375
102
}
330
19
100
AcDbEntity
  8
Part
100
AcDbLine
 10
64.73862195552704
 20
30.19634598634592
 30
0.0
 11
64.73862195552704
 21
29.30634598634592
 31
0.0
  0
LINE
  5
967
102
{ACAD_REACTORS
330
1375
102
}
330
19
100
AcDbEntity
  8
Part
100
AcDbLine
 10
64.68862195552704
 20
30.19634598634592
 30
0.0
 11
64.68862195552704
 21
29.30634598634592
 31
0.0
  0
LINE
  5
969
102
{ACAD_REACTORS
330
1375
102
}
330
19
100
AcDbEntity
  8
Part
100
AcDbLine
 10
64.63862195552706
 20
30.19634598634592
 30
0.0
 11
64.63862195552706
 21
29.30634598634592
 31
0.0
  0
LINE
  5
96A
102
{ACAD_REACTORS
330
1375
102
}
330
19
100
AcDbEntity
  8
Part
100
AcDbLine
 10
64.58862195552704
 20
30.19634598634592
 30
0.0
 11
64.58862195552704
 21
29.30634598634592
 31
0.0
  0
LINE
  5
96B
102
{ACAD_REACTORS
330
1375
102
}
330
19
100
AcDbEntity
  8
Part
100
AcDbLine
 10
64.53862195552705
 20
30.19634598634592
 30
0.0
 11
64.53862195552705
 21
29.30634598634592
 31
0.0
  0
LINE
  5
96C
102
{ACAD_REACTORS
330
1375
102
}
330
19
100
AcDbEntity
  8
Part
100
AcDbLine
 10
64.48862195552705
 20
30.19634598634592
 30
0.0
 11
64.48862195552703
 21
29.30634598634592
 31
0.0
  0
LINE
  5
96D
102
{ACAD_REACTORS
330
1375
102
}
330
19
100
AcDbEntity
  8
Part
100
AcDbLine
 10
64.43862195552705
 20
30.19634598634592
 30
0.0
 11
64.43862195552705
 21
29.30634598634592
 31
0.0
  0
LINE
  5
96E
102
{ACAD_REACTORS
330
1375
102
}
330
19
100
AcDbEntity
  8
Part
100
AcDbLine
 10
64.38862195552705
 20
30.19634598634592
 30
0.0
 11
64.38862195552705
 21
29.30634598634592
 31
0.0
  0
LINE
  5
96F
102
{ACAD_REACTORS
330
1375
102
}
330
19
100
AcDbEntity
  8
Part
100
AcDbLine
 10
64.33862195552705
 20
30.19634598634592
 30
0.0
 11
64.33862195552705
 21
29.30634598634592
 31
0.0
  0
LINE
  5
970
102
{ACAD_REACTORS
330
1375
102
}
330
19
100
AcDbEntity
  8
Part
100
AcDbLine
 10
64.28862195552705
 20
30.19634598634592
 30
0.0
 11
64.28862195552705
 21
29.30634598634592
 31
0.0
  0
LINE
  5
971
102
{ACAD_REACTORS
330
1375
102
}
330
19
100
AcDbEntity
  8
Part
100
AcDbLine
 10
64.23862195552704
 20
30.19634598634592
 30
0.0
 11
64.23862195552704
 21
29.30634598634592
 31
0.0
  0
LINE
  5
9A8
102
{ACAD_REACTORS
330
1375
102
}
330
19
100
AcDbEntity
  8
Part
100
AcDbLine
 10
64.18862195552704
 20
30.19634598634592
 30
0.0
 11
64.18862195552704
 21
29.30634598634592
 31
0.0
  0
LINE
  5
9A9
102
{ACAD_REACTORS
330
1375
102
}
330
19
100
AcDbEntity
  8
Part
100
AcDbLine
 10
64.13862195552704
 20
30.19634598634592
 30
0.0
 11
64.13862195552702
 21
29.30634598634592
 31
0.0
  0
LINE
  5
9AA
102
{ACAD_REACTORS
330
1375
102
}
330
19
100
AcDbEntity
  8
Part
100
AcDbLine
 10
64.08862195552704
 20
30.19634598634592
 30
0.0
 11
64.08862195552704
 21
29.30634598634592
 31
0.0
  0
LINE
  5
9AD
330
19
100
AcDbEntity
  8
Part
100
AcDbLine
 10
61.60862195552708
 20
29.26134598634592
 30
0.0
 11
61.60862195552707
 21
29.29634598634592
 31
0.0
  0
LINE
  5
9AE
330
19
100
AcDbEntity
  8
Part
100
AcDbLine
 10
61.60862195552707
 20
30.20634598634592
 30
0.0
 11
61.60862195552708
 21
30.24134598634593
 31
0.0
  0
LINE
  5
A2D
330
19
100
AcDbEntity
  8
Part
100
AcDbLine
 10
61.60862195552707
 20
30.20634598634592
 30
0.0
 11
61.60862195552707
 21
29.29634598634592
 31
0.0
  0
LINE
  5
A32
330
19
100
AcDbEntity
  8
Part
100
AcDbLine
 10
61.76862195552708
 20
30.19634598634592
 30
0.0
 11
61.76862195552708
 21
29.30634598634592
 31
0.0
  0
LINE
  5
A33
102
{ACAD_REACTORS
330
1334
102
}
330
19
100
AcDbEntity
  8
Part
100
AcDbLine
 10
63.21762195552707
 20
30.19634598634592
 30
0.0
 11
63.21762195552706
 21
29.30634598634592
 31
0.0
  0
CIRCLE
  5
A36
330
19
100
AcDbEntity
  8
Part
100
AcDbCircle
 10
63.52862195552707
 20
29.87734598634592
 30
0.0
 40
0.1035
  0
LINE
  5
A38
330
19
100
AcDbEntity
  8
Part
100
AcDbLine
 10
63.50962195552707
 20
29.97908707932216
 30
0.0
 11
63.50962195552708
 21
29.77560489336968
 31
0.0
  0
LINE
  5
A39
330
19
100
AcDbEntity
  8
Part
100
AcDbLine
 10
63.54762195552707
 20
29.97908707932216
 30
0.0
 11
63.54762195552707
 21
29.77560489336968
 31
0.0
  0
LINE
  5
A3A
102
{ACAD_REACTORS
330
1334
102
}
330
19
100
AcDbEntity
  8
Part
100
AcDbLine
 10
61.81962195552707
 20
30.19634598634592
 30
0.0
 11
61.81962195552707
 21
29.30634598634592
 31
0.0
  0
LINE
  5
A3B
330
19
100
AcDbEntity
  8
Part
100
AcDbLine
 10
61.87562195552708
 20
30.19634598634592
 30
0.0
 11
61.87562195552707
 21
29.30634598634592
 31
0.0
  0
LINE
  5
A3C
102
{ACAD_REACTORS
330
1334
102
}
330
19
100
AcDbEntity
  8
Part
100
AcDbLine
 10
61.87562195552708
 20
30.19634598634592
 30
0.0
 11
61.87562195552707
 21
29.30634598634592
 31
0.0
  0
LINE
  5
A3D
330
19
100
AcDbEntity
  8
Part
100
AcDbLine
 10
61.93162195552707
 20
30.19634598634592
 30
0.0
 11
61.93162195552707
 21
29.30634598634592
 31
0.0
  0
LINE
  5
A3E
102
{ACAD_REACTORS
330
1334
102
}
330
19
100
AcDbEntity
  8
Part
100
AcDbLine
 10
61.93162195552707
 20
30.19634598634592
 30
0.0
 11
61.93162195552707
 21
29.30634598634592
 31
0.0
  0
LINE
  5
A3F
330
19
100
AcDbEntity
  8
Part
100
AcDbLine
 10
61.98762195552707
 20
30.19634598634592
 30
0.0
 11
61.98762195552706
 21
29.30634598634592
 31
0.0
  0
LINE
  5
A40
102
{ACAD_REACTORS
330
1334
102
}
330
19
100
AcDbEntity
  8
Part
100
AcDbLine
 10
61.98762195552707
 20
30.19634598634592
 30
0.0
 11
61.98762195552706
 21
29.30634598634592
 31
0.0
  0
LINE
  5
A41
330
19
100
AcDbEntity
  8
Part
100
AcDbLine
 10
62.04362195552707
 20
30.19634598634592
 30
0.0
 11
62.04362195552707
 21
29.30634598634592
 31
0.0
  0
LINE
  5
A42
102
{ACAD_REACTORS
330
1334
102
}
330
19
100
AcDbEntity
  8
Part
100
AcDbLine
 10
62.04362195552707
 20
30.19634598634592
 30
0.0
 11
62.04362195552707
 21
29.30634598634592
 31
0.0
  0
LINE
  5
A43
330
19
100
AcDbEntity
  8
Part
100
AcDbLine
 10
62.09962195552707
 20
30.19634598634592
 30
0.0
 11
62.09962195552707
 21
29.30634598634592
 31
0.0
  0
LINE
  5
A44
102
{ACAD_REACTORS
330
1334
102
}
330
19
100
AcDbEntity
  8
Part
100
AcDbLine
 10
62.09962195552707
 20
30.19634598634592
 30
0.0
 11
62.09962195552707
 21
29.30634598634592
 31
0.0
  0
LINE
  5
A45
330
19
100
AcDbEntity
  8
Part
100
AcDbLine
 10
62.15562195552709
 20
30.19634598634592
 30
0.0
 11
62.15562195552708
 21
29.30634598634592
 31
0.0
  0
LINE
  5
A46
102
{ACAD_REACTORS
330
1334
102
}
330
19
100
AcDbEntity
  8
Part
100
AcDbLine
 10
62.15562195552709
 20
30.19634598634592
 30
0.0
 11
62.15562195552708
 21
29.30634598634592
 31
0.0
  0
LINE
  5
A47
330
19
100
AcDbEntity
  8
Part
100
AcDbLine
 10
62.21162195552707
 20
30.19634598634592
 30
0.0
 11
62.21162195552707
 21
29.30634598634592
 31
0.0
  0
LINE
  5
A48
102
{ACAD_REACTORS
330
1334
102
}
330
19
100
AcDbEntity
  8
Part
100
AcDbLine
 10
62.21162195552707
 20
30.19634598634592
 30
0.0
 11
62.21162195552707
 21
29.30634598634592
 31
0.0
  0
LINE
  5
A49
330
19
100
AcDbEntity
  8
Part
100
AcDbLine
 10
62.26762195552707
 20
30.19634598634592
 30
0.0
 11
62.26762195552707
 21
29.30634598634592
 31
0.0
  0
LINE
  5
A4A
102
{ACAD_REACTORS
330
1334
102
}
330
19
100
AcDbEntity
  8
Part
100
AcDbLine
 10
62.26762195552707
 20
30.19634598634592
 30
0.0
 11
62.26762195552707
 21
29.30634598634592
 31
0.0
  0
LINE
  5
A4B
330
19
100
AcDbEntity
  8
Part
100
AcDbLine
 10
62.32362195552709
 20
30.19634598634592
 30
0.0
 11
62.32362195552707
 21
29.30634598634592
 31
0.0
  0
LINE
  5
A4C
102
{ACAD_REACTORS
330
1334
102
}
330
19
100
AcDbEntity
  8
Part
100
AcDbLine
 10
62.32362195552709
 20
30.19634598634592
 30
0.0
 11
62.32362195552707
 21
29.30634598634592
 31
0.0
  0
LINE
  5
A4D
330
19
100
AcDbEntity
  8
Part
100
AcDbLine
 10
62.37962195552708
 20
30.19634598634592
 30
0.0
 11
62.37962195552708
 21
29.30634598634592
 31
0.0
  0
LINE
  5
A4E
102
{ACAD_REACTORS
330
1334
102
}
330
19
100
AcDbEntity
  8
Part
100
AcDbLine
 10
62.37962195552708
 20
30.19634598634592
 30
0.0
 11
62.37962195552708
 21
29.30634598634592
 31
0.0
  0
LINE
  5
A4F
330
19
100
AcDbEntity
  8
Part
100
AcDbLine
 10
62.43562195552708
 20
30.19634598634592
 30
0.0
 11
62.43562195552707
 21
29.30634598634592
 31
0.0
  0
LINE
  5
A50
102
{ACAD_REACTORS
330
1334
102
}
330
19
100
AcDbEntity
  8
Part
100
AcDbLine
 10
62.43562195552708
 20
30.19634598634592
 30
0.0
 11
62.43562195552707
 21
29.30634598634592
 31
0.0
  0
LINE
  5
A51
330
19
100
AcDbEntity
  8
Part
100
AcDbLine
 10
62.49162195552708
 20
30.19634598634592
 30
0.0
 11
62.49162195552708
 21
29.30634598634592
 31
0.0
  0
LINE
  5
A52
102
{ACAD_REACTORS
330
1334
102
}
330
19
100
AcDbEntity
  8
Part
100
AcDbLine
 10
62.49162195552708
 20
30.19634598634592
 30
0.0
 11
62.49162195552708
 21
29.30634598634592
 31
0.0
  0
LINE
  5
A53
330
19
100
AcDbEntity
  8
Part
100
AcDbLine
 10
62.54762195552711
 20
30.19634598634592
 30
0.0
 11
62.54762195552709
 21
29.30634598634592
 31
0.0
  0
LINE
  5
A54
102
{ACAD_REACTORS
330
1334
102
}
330
19
100
AcDbEntity
  8
Part
100
AcDbLine
 10
62.54762195552711
 20
30.19634598634592
 30
0.0
 11
62.54762195552709
 21
29.30634598634592
 31
0.0
  0
LINE
  5
A55
330
19
100
AcDbEntity
  8
Part
100
AcDbLine
 10
62.60362195552708
 20
30.19634598634592
 30
0.0
 11
62.60362195552708
 21
29.30634598634592
 31
0.0
  0
LINE
  5
A56
102
{ACAD_REACTORS
330
1334
102
}
330
19
100
AcDbEntity
  8
Part
100
AcDbLine
 10
62.60362195552708
 20
30.19634598634592
 30
0.0
 11
62.60362195552708
 21
29.30634598634592
 31
0.0
  0
LINE
  5
A57
330
19
100
AcDbEntity
  8
Part
100
AcDbLine
 10
62.65962195552708
 20
30.19634598634592
 30
0.0
 11
62.65962195552708
 21
29.30634598634592
 31
0.0
  0
LINE
  5
A58
102
{ACAD_REACTORS
330
1334
102
}
330
19
100
AcDbEntity
  8
Part
100
AcDbLine
 10
62.65962195552708
 20
30.19634598634592
 30
0.0
 11
62.65962195552708
 21
29.30634598634592
 31
0.0
  0
LINE
  5
A59
330
19
100
AcDbEntity
  8
Part
100
AcDbLine
 10
62.7156219555271
 20
30.19634598634592
 30
0.0
 11
62.7156219555271
 21
29.30634598634592
 31
0.0
  0
LINE
  5
A5A
102
{ACAD_REACTORS
330
1334
102
}
330
19
100
AcDbEntity
  8
Part
100
AcDbLine
 10
62.7156219555271
 20
30.19634598634592
 30
0.0
 11
62.7156219555271
 21
29.30634598634592
 31
0.0
  0
LINE
  5
A5B
330
19
100
AcDbEntity
  8
Part
100
AcDbLine
 10
62.7716219555271
 20
30.19634598634592
 30
0.0
 11
62.77162195552709
 21
29.30634598634592
 31
0.0
  0
LINE
  5
A5C
102
{ACAD_REACTORS
330
1334
102
}
330
19
100
AcDbEntity
  8
Part
100
AcDbLine
 10
62.7716219555271
 20
30.19634598634592
 30
0.0
 11
62.77162195552709
 21
29.30634598634592
 31
0.0
  0
LINE
  5
A5D
330
19
100
AcDbEntity
  8
Part
100
AcDbLine
 10
62.82762195552709
 20
30.19634598634592
 30
0.0
 11
62.82762195552707
 21
29.30634598634592
 31
0.0
  0
LINE
  5
A5E
102
{ACAD_REACTORS
330
1334
102
}
330
19
100
AcDbEntity
  8
Part
100
AcDbLine
 10
62.82762195552709
 20
30.19634598634592
 30
0.0
 11
62.82762195552707
 21
29.30634598634592
 31
0.0
  0
LINE
  5
A5F
330
19
100
AcDbEntity
  8
Part
100
AcDbLine
 10
62.88362195552711
 20
30.19634598634592
 30
0.0
 11
62.8836219555271
 21
29.30634598634592
 31
0.0
  0
LINE
  5
A60
102
{ACAD_REACTORS
330
1334
102
}
330
19
100
AcDbEntity
  8
Part
100
AcDbLine
 10
62.88362195552711
 20
30.19634598634592
 30
0.0
 11
62.8836219555271
 21
29.30634598634592
 31
0.0
  0
LINE
  5
A61
330
19
100
AcDbEntity
  8
Part
100
AcDbLine
 10
62.9396219555271
 20
30.19634598634592
 30
0.0
 11
62.9396219555271
 21
29.30634598634592
 31
0.0
  0
LINE
  5
A62
102
{ACAD_REACTORS
330
1334
102
}
330
19
100
AcDbEntity
  8
Part
100
AcDbLine
 10
62.9396219555271
 20
30.19634598634592
 30
0.0
 11
62.9396219555271
 21
29.30634598634592
 31
0.0
  0
LINE
  5
A63
330
19
100
AcDbEntity
  8
Part
100
AcDbLine
 10
62.9956219555271
 20
30.19634598634592
 30
0.0
 11
62.99562195552709
 21
29.30634598634592
 31
0.0
  0
LINE
  5
A64
102
{ACAD_REACTORS
330
1334
102
}
330
19
100
AcDbEntity
  8
Part
100
AcDbLine
 10
62.9956219555271
 20
30.19634598634592
 30
0.0
 11
62.99562195552709
 21
29.30634598634592
 31
0.0
  0
LINE
  5
A65
330
19
100
AcDbEntity
  8
Part
100
AcDbLine
 10
63.05162195552711
 20
30.19634598634592
 30
0.0
 11
63.05162195552711
 21
29.30634598634592
 31
0.0
  0
LINE
  5
A66
102
{ACAD_REACTORS
330
1334
102
}
330
19
100
AcDbEntity
  8
Part
100
AcDbLine
 10
63.05162195552711
 20
30.19634598634592
 30
0.0
 11
63.05162195552711
 21
29.30634598634592
 31
0.0
  0
LINE
  5
A67
330
19
100
AcDbEntity
  8
Part
100
AcDbLine
 10
63.1076219555271
 20
30.19634598634592
 30
0.0
 11
63.1076219555271
 21
29.30634598634592
 31
0.0
  0
LINE
  5
A68
102
{ACAD_REACTORS
330
1334
102
}
330
19
100
AcDbEntity
  8
Part
100
AcDbLine
 10
63.1076219555271
 20
30.19634598634592
 30
0.0
 11
63.1076219555271
 21
29.30634598634592
 31
0.0
  0
LINE
  5
A69
330
19
100
AcDbEntity
  8
Part
100
AcDbLine
 10
63.16362195552709
 20
30.19634598634592
 30
0.0
 11
63.16362195552709
 21
29.30634598634592
 31
0.0
  0
LINE
  5
A6A
102
{ACAD_REACTORS
330
1334
102
}
330
19
100
AcDbEntity
  8
Part
100
AcDbLine
 10
63.16362195552709
 20
30.19634598634592
 30
0.0
 11
63.16362195552709
 21
29.30634598634592
 31
0.0
  0
LINE
  5
A6B
330
19
100
AcDbEntity
  8
Part
100
AcDbLine
 10
63.2196219555271
 20
30.19634598634592
 30
0.0
 11
63.2196219555271
 21
29.30634598634592
 31
0.0
  0
LINE
  5
AA1
330
19
100
AcDbEntity
  8
Part
100
AcDbLine
 10
65.93862195552707
 20
19.98764123429628
 30
0.0
 11
61.60862195552706
 21
19.98764123429628
 31
0.0
  0
LINE
  5
AA4
102
{ACAD_REACTORS
330
14C0
330
14FD
102
}
330
19
100
AcDbEntity
  8
Part
100
AcDbLine
 10
61.48393395552706
 20
20.03264123429629
 30
0.0
 11
65.93862195552706
 21
20.03264123429629
 31
0.0
  0
LINE
  5
AA5
102
{ACAD_REACTORS
330
14C0
330
14FD
102
}
330
19
100
AcDbEntity
  8
Part
100
AcDbLine
 10
65.93862195552706
 20
20.92264123429628
 30
0.0
 11
61.48393395552706
 21
20.92264123429628
 31
0.0
  0
LINE
  5
AA6
330
19
100
AcDbEntity
  8
Part
100
AcDbLine
 10
61.60862195552706
 20
20.96764123429628
 30
0.0
 11
65.93862195552706
 21
20.96764123429628
 31
0.0
  0
LINE
  5
AA7
330
19
100
AcDbEntity
  8
Part
100
AcDbLine
 10
65.93862195552707
 20
19.98764123429628
 30
0.0
 11
65.93862195552707
 21
20.96764123429628
 31
0.0
  0
LINE
  5
AA8
330
19
100
AcDbEntity
  8
Part
100
AcDbLine
 10
65.68862195552705
 20
20.03264123429628
 30
0.0
 11
65.68862195552705
 21
20.92264123429628
 31
0.0
  0
LINE
  5
AA9
330
19
100
AcDbEntity
  8
Part
100
AcDbLine
 10
65.58862195552705
 20
20.03264123429628
 30
0.0
 11
65.58862195552705
 21
20.92264123429628
 31
0.0
  0
LINE
  5
AAA
102
{ACAD_REACTORS
330
14FD
102
}
330
19
100
AcDbEntity
  8
Part
100
AcDbLine
 10
65.53862195552705
 20
20.03264123429628
 30
0.0
 11
65.53862195552705
 21
20.92264123429628
 31
0.0
  0
LINE
  5
AAB
102
{ACAD_REACTORS
330
14FD
102
}
330
19
100
AcDbEntity
  8
Part
100
AcDbLine
 10
65.48862195552705
 20
20.03264123429628
 30
0.0
 11
65.48862195552705
 21
20.92264123429628
 31
0.0
  0
LINE
  5
AAC
102
{ACAD_REACTORS
330
14FD
102
}
330
19
100
AcDbEntity
  8
Part
100
AcDbLine
 10
65.43862195552705
 20
20.03264123429628
 30
0.0
 11
65.43862195552705
 21
20.92264123429628
 31
0.0
  0
LINE
  5
AAD
102
{ACAD_REACTORS
330
14FD
102
}
330
19
100
AcDbEntity
  8
Part
100
AcDbLine
 10
65.38862195552706
 20
20.03264123429628
 30
0.0
 11
65.38862195552706
 21
20.92264123429628
 31
0.0
  0
LINE
  5
AAE
102
{ACAD_REACTORS
330
14FD
102
}
330
19
100
AcDbEntity
  8
Part
100
AcDbLine
 10
65.33862195552704
 20
20.03264123429628
 30
0.0
 11
65.33862195552704
 21
20.92264123429628
 31
0.0
  0
LINE
  5
AAF
102
{ACAD_REACTORS
330
14FD
102
}
330
19
100
AcDbEntity
  8
Part
100
AcDbLine
 10
65.28862195552704
 20
20.03264123429628
 30
0.0
 11
65.28862195552704
 21
20.92264123429628
 31
0.0
  0
LINE
  5
AB0
102
{ACAD_REACTORS
330
14FD
102
}
330
19
100
AcDbEntity
  8
Part
100
AcDbLine
 10
65.23862195552705
 20
20.03264123429628
 30
0.0
 11
65.23862195552706
 21
20.92264123429628
 31
0.0
  0
LINE
  5
AB1
102
{ACAD_REACTORS
330
14FD
102
}
330
19
100
AcDbEntity
  8
Part
100
AcDbLine
 10
65.18862195552704
 20
20.03264123429628
 30
0.0
 11
65.18862195552704
 21
20.92264123429628
 31
0.0
  0
LINE
  5
AB2
102
{ACAD_REACTORS
330
14FD
102
}
330
19
100
AcDbEntity
  8
Part
100
AcDbLine
 10
65.13862195552704
 20
20.03264123429628
 30
0.0
 11
65.13862195552704
 21
20.92264123429628
 31
0.0
  0
LINE
  5
AB3
102
{ACAD_REACTORS
330
14FD
102
}
330
19
100
AcDbEntity
  8
Part
100
AcDbLine
 10
65.08862195552705
 20
20.03264123429628
 30
0.0
 11
65.08862195552705
 21
20.92264123429628
 31
0.0
  0
LINE
  5
AB4
102
{ACAD_REACTORS
330
14FD
102
}
330
19
100
AcDbEntity
  8
Part
100
AcDbLine
 10
65.03862195552705
 20
20.03264123429628
 30
0.0
 11
65.03862195552705
 21
20.92264123429628
 31
0.0
  0
LINE
  5
AB5
102
{ACAD_REACTORS
330
14FD
102
}
330
19
100
AcDbEntity
  8
Part
100
AcDbLine
 10
64.98862195552705
 20
20.03264123429628
 30
0.0
 11
64.98862195552705
 21
20.92264123429628
 31
0.0
  0
LINE
  5
AB6
102
{ACAD_REACTORS
330
14FD
102
}
330
19
100
AcDbEntity
  8
Part
100
AcDbLine
 10
64.93862195552704
 20
20.03264123429628
 30
0.0
 11
64.93862195552704
 21
20.92264123429628
 31
0.0
  0
LINE
  5
AB7
102
{ACAD_REACTORS
330
14FD
102
}
330
19
100
AcDbEntity
  8
Part
100
AcDbLine
 10
64.88862195552704
 20
20.03264123429628
 30
0.0
 11
64.88862195552704
 21
20.92264123429628
 31
0.0
  0
LINE
  5
AB8
102
{ACAD_REACTORS
330
14FD
102
}
330
19
100
AcDbEntity
  8
Part
100
AcDbLine
 10
64.83862195552704
 20
20.03264123429628
 30
0.0
 11
64.83862195552704
 21
20.92264123429628
 31
0.0
  0
LINE
  5
AB9
102
{ACAD_REACTORS
330
14FD
102
}
330
19
100
AcDbEntity
  8
Part
100
AcDbLine
 10
64.78862195552704
 20
20.03264123429628
 30
0.0
 11
64.78862195552704
 21
20.92264123429628
 31
0.0
  0
LINE
  5
ABA
102
{ACAD_REACTORS
330
14FD
102
}
330
19
100
AcDbEntity
  8
Part
100
AcDbLine
 10
64.73862195552704
 20
20.03264123429628
 30
0.0
 11
64.73862195552704
 21
20.92264123429628
 31
0.0
  0
LINE
  5
ABB
102
{ACAD_REACTORS
330
14FD
102
}
330
19
100
AcDbEntity
  8
Part
100
AcDbLine
 10
64.68862195552704
 20
20.03264123429628
 30
0.0
 11
64.68862195552704
 21
20.92264123429628
 31
0.0
  0
LINE
  5
ABC
102
{ACAD_REACTORS
330
14FD
102
}
330
19
100
AcDbEntity
  8
Part
100
AcDbLine
 10
64.63862195552704
 20
20.03264123429628
 30
0.0
 11
64.63862195552704
 21
20.92264123429628
 31
0.0
  0
LINE
  5
ABD
102
{ACAD_REACTORS
330
14FD
102
}
330
19
100
AcDbEntity
  8
Part
100
AcDbLine
 10
64.58862195552704
 20
20.03264123429628
 30
0.0
 11
64.58862195552703
 21
20.92264123429628
 31
0.0
  0
LINE
  5
ABE
102
{ACAD_REACTORS
330
14FD
102
}
330
19
100
AcDbEntity
  8
Part
100
AcDbLine
 10
64.53862195552703
 20
20.03264123429628
 30
0.0
 11
64.53862195552703
 21
20.92264123429628
 31
0.0
  0
LINE
  5
ABF
102
{ACAD_REACTORS
330
14FD
102
}
330
19
100
AcDbEntity
  8
Part
100
AcDbLine
 10
64.48862195552703
 20
20.03264123429629
 30
0.0
 11
64.48862195552703
 21
20.92264123429627
 31
0.0
  0
LINE
  5
AC0
102
{ACAD_REACTORS
330
14FD
102
}
330
19
100
AcDbEntity
  8
Part
100
AcDbLine
 10
64.43862195552704
 20
20.03264123429629
 30
0.0
 11
64.43862195552704
 21
20.92264123429628
 31
0.0
  0
LINE
  5
AC1
102
{ACAD_REACTORS
330
14FD
102
}
330
19
100
AcDbEntity
  8
Part
100
AcDbLine
 10
64.38862195552703
 20
20.03264123429629
 30
0.0
 11
64.38862195552705
 21
20.92264123429628
 31
0.0
  0
LINE
  5
AC2
102
{ACAD_REACTORS
330
14FD
102
}
330
19
100
AcDbEntity
  8
Part
100
AcDbLine
 10
64.33862195552705
 20
20.03264123429629
 30
0.0
 11
64.33862195552705
 21
20.92264123429628
 31
0.0
  0
LINE
  5
AC3
102
{ACAD_REACTORS
330
14FD
102
}
330
19
100
AcDbEntity
  8
Part
100
AcDbLine
 10
64.28862195552703
 20
20.03264123429629
 30
0.0
 11
64.28862195552703
 21
20.92264123429628
 31
0.0
  0
LINE
  5
AC4
102
{ACAD_REACTORS
330
14FD
102
}
330
19
100
AcDbEntity
  8
Part
100
AcDbLine
 10
64.23862195552704
 20
20.03264123429629
 30
0.0
 11
64.23862195552705
 21
20.92264123429628
 31
0.0
  0
LINE
  5
AC5
102
{ACAD_REACTORS
330
14FD
102
}
330
19
100
AcDbEntity
  8
Part
100
AcDbLine
 10
64.18862195552705
 20
20.03264123429629
 30
0.0
 11
64.18862195552705
 21
20.92264123429628
 31
0.0
  0
LINE
  5
AC6
102
{ACAD_REACTORS
330
14FD
102
}
330
19
100
AcDbEntity
  8
Part
100
AcDbLine
 10
64.13862195552704
 20
20.03264123429629
 30
0.0
 11
64.13862195552704
 21
20.92264123429628
 31
0.0
  0
LINE
  5
AC7
102
{ACAD_REACTORS
330
14FD
102
}
330
19
100
AcDbEntity
  8
Part
100
AcDbLine
 10
64.08862195552704
 20
20.03264123429629
 30
0.0
 11
64.08862195552703
 21
20.92264123429628
 31
0.0
  0
LINE
  5
AC8
330
19
100
AcDbEntity
  8
Part
100
AcDbLine
 10
61.60862195552707
 20
20.96764123429628
 30
0.0
 11
61.60862195552706
 21
20.93264123429628
 31
0.0
  0
LINE
  5
AC9
330
19
100
AcDbEntity
  8
Part
100
AcDbLine
 10
61.60862195552706
 20
20.03264123429629
 30
0.0
 11
61.60862195552706
 21
19.98764123429628
 31
0.0
  0
LINE
  5
ACA
330
19
100
AcDbEntity
  8
Part
100
AcDbLine
 10
61.60862195552706
 20
20.02264123429629
 30
0.0
 11
61.60862195552706
 21
20.93264123429628
 31
0.0
  0
LINE
  5
ACB
330
19
100
AcDbEntity
  8
Part
100
AcDbLine
 10
61.76862195552707
 20
20.03264123429629
 30
0.0
 11
61.76862195552707
 21
20.92264123429628
 31
0.0
  0
LINE
  5
ACC
102
{ACAD_REACTORS
330
14C0
102
}
330
19
100
AcDbEntity
  8
Part
100
AcDbLine
 10
61.81962195552706
 20
20.03264123429629
 30
0.0
 11
61.81962195552705
 21
20.92264123429628
 31
0.0
  0
LINE
  5
ACD
330
19
100
AcDbEntity
  8
Part
100
AcDbLine
 10
61.87562195552706
 20
20.03264123429629
 30
0.0
 11
61.87562195552705
 21
20.92264123429628
 31
0.0
  0
LINE
  5
ACE
102
{ACAD_REACTORS
330
14C0
102
}
330
19
100
AcDbEntity
  8
Part
100
AcDbLine
 10
63.21762195552707
 20
20.03264123429629
 30
0.0
 11
63.21762195552705
 21
20.92264123429628
 31
0.0
  0
CIRCLE
  5
AD0
330
19
100
AcDbEntity
  8
Part
100
AcDbCircle
 10
63.55862195552706
 20
20.59764123429628
 30
0.0
 40
0.1035
  0
LINE
  5
AD1
330
19
100
AcDbEntity
  8
Part
100
AcDbLine
 10
63.57762195552705
 20
20.49590014132004
 30
0.0
 11
63.57762195552707
 21
20.69938232727253
 31
0.0
  0
LINE
  5
AD2
330
19
100
AcDbEntity
  8
Part
100
AcDbLine
 10
63.53962195552706
 20
20.49590014132004
 30
0.0
 11
63.53962195552707
 21
20.69938232727253
 31
0.0
  0
LINE
  5
AD3
102
{ACAD_REACTORS
330
14C0
102
}
330
19
100
AcDbEntity
  8
Part
100
AcDbLine
 10
61.87562195552706
 20
20.03264123429629
 30
0.0
 11
61.87562195552705
 21
20.92264123429628
 31
0.0
  0
LINE
  5
AD4
330
19
100
AcDbEntity
  8
Part
100
AcDbLine
 10
61.93162195552707
 20
20.03264123429629
 30
0.0
 11
61.93162195552707
 21
20.92264123429628
 31
0.0
  0
LINE
  5
AD5
102
{ACAD_REACTORS
330
14C0
102
}
330
19
100
AcDbEntity
  8
Part
100
AcDbLine
 10
61.93162195552707
 20
20.03264123429629
 30
0.0
 11
61.93162195552707
 21
20.92264123429628
 31
0.0
  0
LINE
  5
AD6
330
19
100
AcDbEntity
  8
Part
100
AcDbLine
 10
61.98762195552705
 20
20.03264123429629
 30
0.0
 11
61.98762195552705
 21
20.92264123429628
 31
0.0
  0
LINE
  5
AD7
102
{ACAD_REACTORS
330
14C0
102
}
330
19
100
AcDbEntity
  8
Part
100
AcDbLine
 10
61.98762195552705
 20
20.03264123429629
 30
0.0
 11
61.98762195552705
 21
20.92264123429628
 31
0.0
  0
LINE
  5
AD8
330
19
100
AcDbEntity
  8
Part
100
AcDbLine
 10
62.04362195552707
 20
20.03264123429629
 30
0.0
 11
62.04362195552706
 21
20.92264123429628
 31
0.0
  0
LINE
  5
AD9
102
{ACAD_REACTORS
330
14C0
102
}
330
19
100
AcDbEntity
  8
Part
100
AcDbLine
 10
62.04362195552707
 20
20.03264123429629
 30
0.0
 11
62.04362195552706
 21
20.92264123429628
 31
0.0
  0
LINE
  5
ADA
330
19
100
AcDbEntity
  8
Part
100
AcDbLine
 10
62.09962195552708
 20
20.03264123429629
 30
0.0
 11
62.09962195552707
 21
20.92264123429628
 31
0.0
  0
LINE
  5
ADB
102
{ACAD_REACTORS
330
14C0
102
}
330
19
100
AcDbEntity
  8
Part
100
AcDbLine
 10
62.09962195552708
 20
20.03264123429629
 30
0.0
 11
62.09962195552707
 21
20.92264123429628
 31
0.0
  0
LINE
  5
ADC
330
19
100
AcDbEntity
  8
Part
100
AcDbLine
 10
62.15562195552706
 20
20.03264123429629
 30
0.0
 11
62.15562195552706
 21
20.92264123429628
 31
0.0
  0
LINE
  5
ADD
102
{ACAD_REACTORS
330
14C0
102
}
330
19
100
AcDbEntity
  8
Part
100
AcDbLine
 10
62.15562195552706
 20
20.03264123429629
 30
0.0
 11
62.15562195552706
 21
20.92264123429628
 31
0.0
  0
LINE
  5
ADE
330
19
100
AcDbEntity
  8
Part
100
AcDbLine
 10
62.21162195552706
 20
20.03264123429629
 30
0.0
 11
62.21162195552706
 21
20.92264123429628
 31
0.0
  0
LINE
  5
ADF
102
{ACAD_REACTORS
330
14C0
102
}
330
19
100
AcDbEntity
  8
Part
100
AcDbLine
 10
62.21162195552706
 20
20.03264123429629
 30
0.0
 11
62.21162195552706
 21
20.92264123429628
 31
0.0
  0
LINE
  5
AE0
330
19
100
AcDbEntity
  8
Part
100
AcDbLine
 10
62.26762195552708
 20
20.03264123429629
 30
0.0
 11
62.26762195552707
 21
20.92264123429628
 31
0.0
  0
LINE
  5
AE1
102
{ACAD_REACTORS
330
14C0
102
}
330
19
100
AcDbEntity
  8
Part
100
AcDbLine
 10
62.26762195552708
 20
20.03264123429629
 30
0.0
 11
62.26762195552707
 21
20.92264123429628
 31
0.0
  0
LINE
  5
AE2
330
19
100
AcDbEntity
  8
Part
100
AcDbLine
 10
62.32362195552708
 20
20.03264123429629
 30
0.0
 11
62.32362195552708
 21
20.92264123429628
 31
0.0
  0
LINE
  5
AE3
102
{ACAD_REACTORS
330
14C0
102
}
330
19
100
AcDbEntity
  8
Part
100
AcDbLine
 10
62.32362195552708
 20
20.03264123429629
 30
0.0
 11
62.32362195552708
 21
20.92264123429628
 31
0.0
  0
LINE
  5
AE4
330
19
100
AcDbEntity
  8
Part
100
AcDbLine
 10
62.37962195552707
 20
20.03264123429629
 30
0.0
 11
62.37962195552707
 21
20.92264123429628
 31
0.0
  0
LINE
  5
AE5
102
{ACAD_REACTORS
330
14C0
102
}
330
19
100
AcDbEntity
  8
Part
100
AcDbLine
 10
62.37962195552707
 20
20.03264123429629
 30
0.0
 11
62.37962195552707
 21
20.92264123429628
 31
0.0
  0
LINE
  5
AE6
330
19
100
AcDbEntity
  8
Part
100
AcDbLine
 10
62.43562195552706
 20
20.03264123429629
 30
0.0
 11
62.43562195552706
 21
20.92264123429628
 31
0.0
  0
LINE
  5
AE7
102
{ACAD_REACTORS
330
14C0
102
}
330
19
100
AcDbEntity
  8
Part
100
AcDbLine
 10
62.43562195552706
 20
20.03264123429629
 30
0.0
 11
62.43562195552706
 21
20.92264123429628
 31
0.0
  0
LINE
  5
AE8
330
19
100
AcDbEntity
  8
Part
100
AcDbLine
 10
62.49162195552708
 20
20.03264123429629
 30
0.0
 11
62.49162195552708
 21
20.92264123429628
 31
0.0
  0
LINE
  5
AE9
102
{ACAD_REACTORS
330
14C0
102
}
330
19
100
AcDbEntity
  8
Part
100
AcDbLine
 10
62.49162195552708
 20
20.03264123429629
 30
0.0
 11
62.49162195552708
 21
20.92264123429628
 31
0.0
  0
LINE
  5
AEA
330
19
100
AcDbEntity
  8
Part
100
AcDbLine
 10
62.54762195552707
 20
20.03264123429629
 30
0.0
 11
62.54762195552707
 21
20.92264123429628
 31
0.0
  0
LINE
  5
AEB
102
{ACAD_REACTORS
330
14C0
102
}
330
19
100
AcDbEntity
  8
Part
100
AcDbLine
 10
62.54762195552707
 20
20.03264123429629
 30
0.0
 11
62.54762195552707
 21
20.92264123429628
 31
0.0
  0
LINE
  5
AEC
330
19
100
AcDbEntity
  8
Part
100
AcDbLine
 10
62.60362195552707
 20
20.03264123429629
 30
0.0
 11
62.60362195552706
 21
20.92264123429628
 31
0.0
  0
LINE
  5
AED
102
{ACAD_REACTORS
330
14C0
102
}
330
19
100
AcDbEntity
  8
Part
100
AcDbLine
 10
62.60362195552707
 20
20.03264123429629
 30
0.0
 11
62.60362195552706
 21
20.92264123429628
 31
0.0
  0
LINE
  5
AEE
330
19
100
AcDbEntity
  8
Part
100
AcDbLine
 10
62.65962195552708
 20
20.03264123429629
 30
0.0
 11
62.65962195552707
 21
20.92264123429628
 31
0.0
  0
LINE
  5
AEF
102
{ACAD_REACTORS
330
14C0
102
}
330
19
100
AcDbEntity
  8
Part
100
AcDbLine
 10
62.65962195552708
 20
20.03264123429629
 30
0.0
 11
62.65962195552707
 21
20.92264123429628
 31
0.0
  0
LINE
  5
AF0
330
19
100
AcDbEntity
  8
Part
100
AcDbLine
 10
62.71562195552707
 20
20.03264123429629
 30
0.0
 11
62.71562195552707
 21
20.92264123429628
 31
0.0
  0
LINE
  5
AF1
102
{ACAD_REACTORS
330
14C0
102
}
330
19
100
AcDbEntity
  8
Part
100
AcDbLine
 10
62.71562195552707
 20
20.03264123429629
 30
0.0
 11
62.71562195552707
 21
20.92264123429628
 31
0.0
  0
LINE
  5
AF2
330
19
100
AcDbEntity
  8
Part
100
AcDbLine
 10
62.77162195552708
 20
20.03264123429629
 30
0.0
 11
62.77162195552707
 21
20.92264123429628
 31
0.0
  0
LINE
  5
AF3
102
{ACAD_REACTORS
330
14C0
102
}
330
19
100
AcDbEntity
  8
Part
100
AcDbLine
 10
62.77162195552708
 20
20.03264123429629
 30
0.0
 11
62.77162195552707
 21
20.92264123429628
 31
0.0
  0
LINE
  5
AF4
330
19
100
AcDbEntity
  8
Part
100
AcDbLine
 10
62.82762195552708
 20
20.03264123429629
 30
0.0
 11
62.82762195552706
 21
20.92264123429628
 31
0.0
  0
LINE
  5
AF5
102
{ACAD_REACTORS
330
14C0
102
}
330
19
100
AcDbEntity
  8
Part
100
AcDbLine
 10
62.82762195552708
 20
20.03264123429629
 30
0.0
 11
62.82762195552706
 21
20.92264123429628
 31
0.0
  0
LINE
  5
AF6
330
19
100
AcDbEntity
  8
Part
100
AcDbLine
 10
62.88362195552707
 20
20.03264123429629
 30
0.0
 11
62.88362195552707
 21
20.92264123429628
 31
0.0
  0
LINE
  5
AF7
102
{ACAD_REACTORS
330
14C0
102
}
330
19
100
AcDbEntity
  8
Part
100
AcDbLine
 10
62.88362195552707
 20
20.03264123429629
 30
0.0
 11
62.88362195552707
 21
20.92264123429628
 31
0.0
  0
LINE
  5
AF8
330
19
100
AcDbEntity
  8
Part
100
AcDbLine
 10
62.93962195552708
 20
20.03264123429629
 30
0.0
 11
62.93962195552708
 21
20.92264123429628
 31
0.0
  0
LINE
  5
AF9
102
{ACAD_REACTORS
330
14C0
102
}
330
19
100
AcDbEntity
  8
Part
100
AcDbLine
 10
62.93962195552708
 20
20.03264123429629
 30
0.0
 11
62.93962195552708
 21
20.92264123429628
 31
0.0
  0
LINE
  5
AFA
330
19
100
AcDbEntity
  8
Part
100
AcDbLine
 10
62.99562195552708
 20
20.03264123429629
 30
0.0
 11
62.99562195552708
 21
20.92264123429628
 31
0.0
  0
LINE
  5
AFB
102
{ACAD_REACTORS
330
14C0
102
}
330
19
100
AcDbEntity
  8
Part
100
AcDbLine
 10
62.99562195552708
 20
20.03264123429629
 30
0.0
 11
62.99562195552708
 21
20.92264123429628
 31
0.0
  0
LINE
  5
AFC
330
19
100
AcDbEntity
  8
Part
100
AcDbLine
 10
63.0516219555271
 20
20.03264123429629
 30
0.0
 11
63.05162195552711
 21
20.92264123429628
 31
0.0
  0
LINE
  5
AFD
102
{ACAD_REACTORS
330
14C0
102
}
330
19
100
AcDbEntity
  8
Part
100
AcDbLine
 10
63.0516219555271
 20
20.03264123429629
 30
0.0
 11
63.05162195552711
 21
20.92264123429628
 31
0.0
  0
LINE
  5
AFE
330
19
100
AcDbEntity
  8
Part
100
AcDbLine
 10
63.10762195552708
 20
20.03264123429629
 30
0.0
 11
63.10762195552708
 21
20.92264123429628
 31
0.0
  0
LINE
  5
AFF
102
{ACAD_REACTORS
330
14C0
102
}
330
19
100
AcDbEntity
  8
Part
100
AcDbLine
 10
63.10762195552708
 20
20.03264123429629
 30
0.0
 11
63.10762195552708
 21
20.92264123429628
 31
0.0
  0
LINE
  5
B00
330
19
100
AcDbEntity
  8
Part
100
AcDbLine
 10
63.16362195552708
 20
20.03264123429629
 30
0.0
 11
63.16362195552708
 21
20.92264123429628
 31
0.0
  0
LINE
  5
B01
102
{ACAD_REACTORS
330
14C0
102
}
330
19
100
AcDbEntity
  8
Part
100
AcDbLine
 10
63.16362195552708
 20
20.03264123429629
 30
0.0
 11
63.16362195552708
 21
20.92264123429628
 31
0.0
  0
LINE
  5
B02
330
19
100
AcDbEntity
  8
Part
100
AcDbLine
 10
63.2196219555271
 20
20.03264123429629
 30
0.0
 11
63.2196219555271
 21
20.92264123429628
 31
0.0
  0
LINE
  5
BFA
330
19
100
AcDbEntity
  8
Part
  6
Continuous
100
AcDbLine
 10
66.37326762482707
 20
29.50580426664592
 30
0.0
 11
66.30082667992708
 21
29.49347197064593
 31
0.0
  0
LINE
  5
BFB
330
19
100
AcDbEntity
  8
Part
  6
Continuous
100
AcDbLine
 10
66.37326762482707
 20
29.70265466034592
 30
0.0
 11
66.30082667992708
 21
29.69032236434593
 31
0.0
  0
LINE
  5
BFC
330
19
100
AcDbEntity
  8
Part
  6
Continuous
100
AcDbLine
 10
66.37326762482707
 20
29.35862945094593
 30
0.0
 11
66.15003927832707
 21
29.35862945094593
 31
0.0
  0
LINE
  5
BFD
330
19
100
AcDbEntity
  8
Part
  6
Continuous
100
AcDbLine
 10
66.30082667992708
 20
29.88717275804592
 30
0.0
 11
66.37326762482707
 21
29.89950505404593
 31
0.0
  0
LINE
  5
BFE
330
19
100
AcDbEntity
  8
Part
  6
Continuous
100
AcDbLine
 10
66.30082667992708
 20
29.38126724624593
 30
0.0
 11
66.17169282162707
 21
29.38126724624593
 31
0.0
  0
LINE
  5
BFF
330
19
100
AcDbEntity
  8
Part
  6
Continuous
100
AcDbLine
 10
66.17169282162707
 20
29.49347197064593
 30
0.0
 11
66.30082667992708
 21
29.49347197064593
 31
0.0
  0
LINE
  5
C00
330
19
100
AcDbEntity
  8
Part
  6
Continuous
100
AcDbLine
 10
66.15003927832707
 20
29.51610976584593
 30
0.0
 11
66.37326762482707
 21
29.51610976584593
 31
0.0
  0
LINE
  5
C01
330
19
100
AcDbEntity
  8
Part
  6
Continuous
100
AcDbLine
 10
65.93862195552707
 20
29.33896413061045
 30
0.0
 11
66.62362195552709
 21
29.33896413061046
 31
0.0
  0
LINE
  5
C02
330
19
100
AcDbEntity
  8
Part
  6
Continuous
100
AcDbLine
 10
66.15003927832707
 20
29.55547984464593
 30
0.0
 11
66.37326762482707
 21
29.55547984464593
 31
0.0
  0
LINE
  5
C03
330
19
100
AcDbEntity
  8
Part
  6
Continuous
100
AcDbLine
 10
66.37326762482707
 20
30.09635544774593
 30
0.0
 11
66.30082667992708
 21
30.08402315174592
 31
0.0
  0
LINE
  5
C04
330
19
100
AcDbEntity
  8
Part
  6
Continuous
100
AcDbLine
 10
66.17169282162707
 20
29.57811763994592
 30
0.0
 11
66.30082667992708
 21
29.57811763994592
 31
0.0
  0
LINE
  5
C05
330
19
100
AcDbEntity
  8
Part
  6
Continuous
100
AcDbLine
 10
66.30082667992708
 20
29.69032236434593
 30
0.0
 11
66.17169282162707
 21
29.69032236434593
 31
0.0
  0
LINE
  5
C06
330
19
100
AcDbEntity
  8
Part
  6
Continuous
100
AcDbLine
 10
66.15003927832707
 20
29.71296015954592
 30
0.0
 11
66.37326762482707
 21
29.71296015954592
 31
0.0
  0
LINE
  5
C07
330
19
100
AcDbEntity
  8
Part
  6
Continuous
100
AcDbLine
 10
66.15003927832707
 20
29.75233023834592
 30
0.0
 11
66.37326762482707
 21
29.75233023834592
 31
0.0
  0
LINE
  5
C08
330
19
100
AcDbEntity
  8
Part
  6
Continuous
100
AcDbLine
 10
66.30082667992708
 20
29.38126724624593
 30
0.0
 11
66.37326762482707
 21
29.36893495014592
 31
0.0
  0
LINE
  5
C09
330
19
100
AcDbEntity
  8
Part
  6
Continuous
100
AcDbLine
 10
66.17169282162707
 20
29.97181842734593
 30
0.0
 11
66.15003927832707
 21
29.94918063204592
 31
0.0
  0
LINE
  5
C0A
330
19
100
AcDbEntity
  8
Part
  6
Continuous
100
AcDbLine
 10
66.30082667992708
 20
29.77496803364592
 30
0.0
 11
66.17169282162707
 21
29.77496803364592
 31
0.0
  0
LINE
  5
C0B
330
19
100
AcDbEntity
  8
Part
  6
Continuous
100
AcDbLine
 10
66.17169282162707
 20
29.88717275804592
 30
0.0
 11
66.30082667992708
 21
29.88717275804592
 31
0.0
  0
LINE
  5
C0C
330
19
100
AcDbEntity
  8
Part
  6
Continuous
100
AcDbLine
 10
66.37326762482707
 20
29.90981055324592
 30
0.0
 11
66.15003927832707
 21
29.90981055324592
 31
0.0
  0
LINE
  5
C0D
330
19
100
AcDbEntity
  8
Part
  6
Continuous
100
AcDbLine
 10
66.37326762482707
 20
29.94918063204592
 30
0.0
 11
66.15003927832707
 21
29.94918063204592
 31
0.0
  0
LINE
  5
C0E
330
19
100
AcDbEntity
  8
Part
  6
Continuous
100
AcDbLine
 10
66.37326762482707
 20
29.56578534384592
 30
0.0
 11
66.30082667992708
 21
29.57811763994592
 31
0.0
  0
LINE
  5
C0F
330
19
100
AcDbEntity
  8
Part
  6
Continuous
100
AcDbLine
 10
66.17169282162707
 20
29.77496803364592
 30
0.0
 11
66.15003927832707
 21
29.75233023834592
 31
0.0
  0
LINE
  5
C10
330
19
100
AcDbEntity
  8
Part
  6
Continuous
100
AcDbLine
 10
66.30082667992708
 20
29.97181842734593
 30
0.0
 11
66.17169282162707
 21
29.97181842734593
 31
0.0
  0
LINE
  5
C11
330
19
100
AcDbEntity
  8
Part
  6
Continuous
100
AcDbLine
 10
66.17169282162707
 20
30.08402315174592
 30
0.0
 11
66.30082667992708
 21
30.08402315174592
 31
0.0
  0
LINE
  5
C12
330
19
100
AcDbEntity
  8
Part
  6
Continuous
100
AcDbLine
 10
66.15003927832707
 20
30.10666094694592
 30
0.0
 11
66.37326762482707
 21
30.10666094694592
 31
0.0
  0
LINE
  5
C13
330
19
100
AcDbEntity
  8
Part
  6
Continuous
100
AcDbLine
 10
65.93862195552707
 20
30.12634598634593
 30
0.0
 11
66.62362195552709
 21
30.12634598634593
 31
0.0
  0
LINE
  5
C16
330
19
100
AcDbEntity
  8
Part
  6
Continuous
100
AcDbLine
 10
66.37326762482707
 20
29.76263573754593
 30
0.0
 11
66.30082667992708
 21
29.77496803364592
 31
0.0
  0
LINE
  5
C17
330
19
100
AcDbEntity
  8
Part
  6
Continuous
100
AcDbLine
 10
66.17169282162707
 20
29.57811763994592
 30
0.0
 11
66.15003927832707
 21
29.55547984464593
 31
0.0
  0
LINE
  5
C18
330
19
100
AcDbEntity
  8
Part
  6
Continuous
100
AcDbLine
 10
66.17169282162707
 20
29.38126724624593
 30
0.0
 11
66.15003927832707
 21
29.35862945094593
 31
0.0
  0
LINE
  5
C19
330
19
100
AcDbEntity
  8
Part
  6
Continuous
100
AcDbLine
 10
66.30082667992708
 20
29.97181842734593
 30
0.0
 11
66.37326762482707
 21
29.95948613124593
 31
0.0
  0
LINE
  5
C1A
330
19
100
AcDbEntity
  8
Part
  6
Continuous
100
AcDbLine
 10
66.15003927832707
 20
29.51610976584593
 30
0.0
 11
66.17169282162707
 21
29.49347197064593
 31
0.0
  0
LINE
  5
C1B
330
19
100
AcDbEntity
  8
Part
  6
Continuous
100
AcDbLine
 10
65.93862195552707
 20
29.46396413061045
 30
0.0
 11
65.93862195552707
 21
30.24134598634593
 31
0.0
  0
LINE
  5
C1C
330
19
100
AcDbEntity
  8
Part
  6
Continuous
100
AcDbLine
 10
66.10673219172707
 20
29.33896413061045
 30
0.0
 11
66.10673219172707
 21
30.12634598634593
 31
0.0
  0
LINE
  5
C1D
330
19
100
AcDbEntity
  8
Part
  6
Continuous
100
AcDbLine
 10
66.15003927832707
 20
29.71296015954592
 30
0.0
 11
66.17169282162707
 21
29.69032236434593
 31
0.0
  0
LINE
  5
C1E
330
19
100
AcDbEntity
  8
Part
  6
Continuous
100
AcDbLine
 10
66.11854321532708
 20
30.12634598634593
 30
0.0
 11
66.11854321532708
 21
29.33896413061045
 31
0.0
  0
LINE
  5
C1F
330
19
100
AcDbEntity
  8
Part
  6
Continuous
100
AcDbLine
 10
66.15003927832707
 20
29.35862945094593
 30
0.0
 11
66.15003927832707
 21
29.51610976584593
 31
0.0
  0
LINE
  5
C20
330
19
100
AcDbEntity
  8
Part
  6
Continuous
100
AcDbLine
 10
66.15003927832707
 20
29.55547984464593
 30
0.0
 11
66.15003927832707
 21
29.71296015954592
 31
0.0
  0
LINE
  5
C21
330
19
100
AcDbEntity
  8
Part
  6
Continuous
100
AcDbLine
 10
66.15003927832707
 20
29.75233023834592
 30
0.0
 11
66.15003927832707
 21
29.90981055324592
 31
0.0
  0
LINE
  5
C22
330
19
100
AcDbEntity
  8
Part
  6
Continuous
100
AcDbLine
 10
66.15003927832707
 20
29.94918063204592
 30
0.0
 11
66.15003927832707
 21
30.10666094694592
 31
0.0
  0
LINE
  5
C23
330
19
100
AcDbEntity
  8
Part
  6
Continuous
100
AcDbLine
 10
66.17169282162707
 20
29.88717275804592
 30
0.0
 11
66.17169282162707
 21
29.77496803364592
 31
0.0
  0
LINE
  5
C24
330
19
100
AcDbEntity
  8
Part
  6
Continuous
100
AcDbLine
 10
66.17169282162707
 20
29.69032236434593
 30
0.0
 11
66.17169282162707
 21
29.57811763994592
 31
0.0
  0
LINE
  5
C25
330
19
100
AcDbEntity
  8
Part
  6
Continuous
100
AcDbLine
 10
66.17169282162707
 20
29.38126724624593
 30
0.0
 11
66.17169282162707
 21
29.49347197064593
 31
0.0
  0
LINE
  5
C26
330
19
100
AcDbEntity
  8
Part
  6
Continuous
100
AcDbLine
 10
66.17169282162707
 20
29.97181842734593
 30
0.0
 11
66.17169282162707
 21
30.08402315174592
 31
0.0
  0
LINE
  5
C27
330
19
100
AcDbEntity
  8
Part
  6
Continuous
100
AcDbLine
 10
66.30082667992708
 20
30.08402315174592
 30
0.0
 11
66.30082667992708
 21
29.97181842734593
 31
0.0
  0
LINE
  5
C28
330
19
100
AcDbEntity
  8
Part
  6
Continuous
100
AcDbLine
 10
66.30082667992708
 20
29.88717275804592
 30
0.0
 11
66.30082667992708
 21
29.77496803364592
 31
0.0
  0
LINE
  5
C29
330
19
100
AcDbEntity
  8
Part
  6
Continuous
100
AcDbLine
 10
66.30082667992708
 20
29.49347197064593
 30
0.0
 11
66.30082667992708
 21
29.38126724624593
 31
0.0
  0
LINE
  5
C2A
330
19
100
AcDbEntity
  8
Part
  6
Continuous
100
AcDbLine
 10
66.30082667992708
 20
29.57811763994592
 30
0.0
 11
66.30082667992708
 21
29.69032236434593
 31
0.0
  0
LINE
  5
C2B
330
19
100
AcDbEntity
  8
Part
  6
Continuous
100
AcDbLine
 10
66.15003927832707
 20
29.90981055324592
 30
0.0
 11
66.17169282162707
 21
29.88717275804592
 31
0.0
  0
LINE
  5
C2C
330
19
100
AcDbEntity
  8
Part
  6
Continuous
100
AcDbLine
 10
66.15003927832707
 20
30.10666094694592
 30
0.0
 11
66.17169282162707
 21
30.08402315174592
 31
0.0
  0
LINE
  5
C2D
330
19
100
AcDbEntity
  8
Part
  6
Continuous
100
AcDbLine
 10
66.37326762482707
 20
29.35862945094593
 30
0.0
 11
66.37326762482707
 21
29.51610976584593
 31
0.0
  0
LINE
  5
C2E
330
19
100
AcDbEntity
  8
Part
  6
Continuous
100
AcDbLine
 10
66.37326762482707
 20
29.55547984464593
 30
0.0
 11
66.37326762482707
 21
29.71296015954592
 31
0.0
  0
LINE
  5
C2F
330
19
100
AcDbEntity
  8
Part
  6
Continuous
100
AcDbLine
 10
66.37326762482707
 20
29.75233023834592
 30
0.0
 11
66.37326762482707
 21
29.90981055324592
 31
0.0
  0
LINE
  5
C30
330
19
100
AcDbEntity
  8
Part
  6
Continuous
100
AcDbLine
 10
66.37326762482707
 20
29.94918063204592
 30
0.0
 11
66.37326762482707
 21
30.10666094694592
 31
0.0
  0
LINE
  5
C31
330
19
100
AcDbEntity
  8
Part
  6
Continuous
100
AcDbLine
 10
66.39807077442707
 20
29.33896413061045
 30
0.0
 11
66.39807077442707
 21
30.12634598634593
 31
0.0
  0
LINE
  5
C32
330
19
100
AcDbEntity
  8
Part
  6
Continuous
100
AcDbLine
 10
66.41863590382707
 20
30.12634598634593
 30
0.0
 11
66.41863590382707
 21
29.33896413061045
 31
0.0
  0
LINE
  5
C33
330
19
100
AcDbEntity
  8
Part
  6
Continuous
100
AcDbLine
 10
66.58862195552707
 20
30.12634598634593
 30
0.0
 11
66.58862195552707
 21
30.12672000214593
 31
0.0
  0
LINE
  5
C34
330
19
100
AcDbEntity
  8
Part
  6
Continuous
100
AcDbLine
 10
66.59885817602708
 20
29.33896413061045
 30
0.0
 11
66.59885817602708
 21
30.12672000214593
 31
0.0
  0
LINE
  5
C37
330
19
100
AcDbEntity
  8
Part
  6
Continuous
100
AcDbLine
 10
66.62362195552707
 20
30.12634598634593
 30
0.0
 11
66.62362195552707
 21
29.33896413061045
 31
0.0
  0
HATCH
  5
C40
330
19
100
AcDbEntity
  8
Part
100
AcDbHatch
 10
0.0
 20
0.0
 30
0.0
210
0.0
220
0.0
230
1.0
  2
SOLID
 70
     1
 71
     0
 91
        1
 92
        1
 93
        4
 72
     1
 10
66.10673219172707
 20
29.33896413061045
 11
66.10673219172707
 21
30.12634598634593
 72
     1
 10
66.10673219172707
 20
30.12634598634593
 11
65.93862195552708
 21
30.12634598634593
 72
     1
 10
65.93862195552708
 20
30.12634598634593
 11
65.93862195552707
 21
29.33896413061045
 72
     1
 10
65.93862195552707
 20
29.33896413061045
 11
66.10673219172705
 21
29.33896413061045
 97
        0
 75
     0
 76
     1
 98
        1
 10
38.85755586720554
 20
-4.363710636697192
1001
GENIUS_GENOBJ-N-HTC_13
1002
{
1000
OWNER
1000
GEN
1002
}
1001
GENIUS_GENODEF_13
1002
{
1000
HIER
1070
     0
1002
}
1002
{
1000
MANEDIT
1070
     0
1002
}
1002
{
1000
NOSEL
1070
     0
1002
}
1002
{
1000
BEHIND
1070
     0
1002
}
1002
{
1000
OTHER
1070
     0
1002
}
1002
{
1000
REACTOR
1002
}
1001
GENIUS_GENHATCH_13
1002
{
1000
DATA
1040
0.0
1042
1.0
1000
SOLID
1070
     0
1011
66.01620939016969
1021
29.68761833607319
1031
0.0
1002
}
1002
{
1000
UCS
1010
0.0
1020
0.0
1030
0.0
1010
1.0
1020
0.0
1030
0.0
1010
0.0
1020
1.0
1030
0.0
1002
}
  0
HATCH
  5
C45
330
19
100
AcDbEntity
  8
Part
100
AcDbHatch
 10
0.0
 20
0.0
 30
0.0
210
0.0
220
0.0
230
1.0
  2
SOLID
 70
     1
 71
     0
 91
        1
 92
        1
 93
        4
 72
     1
 10
66.41863590382707
 20
30.12634598634593
 11
66.41863590382707
 21
29.33896413061045
 72
     1
 10
66.41863590382707
 20
29.33896413061045
 11
66.59885817602708
 21
29.33896413061045
 72
     1
 10
66.59885817602708
 20
29.33896413061045
 11
66.59885817602708
 21
30.12634598634593
 72
     1
 10
66.59885817602708
 20
30.12634598634593
 11
66.41863590382707
 21
30.12634598634593
 97
        0
 75
     0
 76
     1
 98
        1
 10
38.85755586720554
 20
-4.363710636697192
1001
GENIUS_GENOBJ-N-HTC_13
1002
{
1000
OWNER
1000
GEN
1002
}
1001
GENIUS_GENODEF_13
1002
{
1000
HIER
1070
     0
1002
}
1002
{
1000
MANEDIT
1070
     0
1002
}
1002
{
1000
NOSEL
1070
     0
1002
}
1002
{
1000
BEHIND
1070
     0
1002
}
1002
{
1000
OTHER
1070
     0
1002
}
1002
{
1000
REACTOR
1002
}
1001
GENIUS_GENHATCH_13
1002
{
1000
DATA
1040
0.0
1042
1.0
1000
SOLID
1070
     0
1011
66.57246381654353
1021
29.67438920023208
1031
0.0
1002
}
1002
{
1000
UCS
1010
0.0
1020
0.0
1030
0.0
1010
1.0
1020
0.0
1030
0.0
1010
0.0
1020
1.0
1030
0.0
1002
}
  0
HATCH
  5
C4B
330
19
100
AcDbEntity
  8
Part
100
AcDbHatch
 10
0.0
 20
0.0
 30
0.0
210
0.0
220
0.0
230
1.0
  2
SOLID
 70
     1
 71
     0
 91
        5
 92
        1
 93
        4
 72
     1
 10
66.39807077442707
 20
29.33896413061046
 11
66.39807077442707
 21
30.12634598634593
 72
     1
 10
66.39807077442707
 20
30.12634598634593
 11
66.11854321532708
 21
30.12634598634593
 72
     1
 10
66.11854321532708
 20
30.12634598634593
 11
66.11854321532708
 21
29.33896413061045
 72
     1
 10
66.11854321532708
 20
29.33896413061045
 11
66.39807077442707
 21
29.33896413061046
 97
        0
 92
       16
 93
        4
 72
     1
 10
66.15003927832707
 20
30.10666094694592
 11
66.37326762482707
 21
30.10666094694592
 72
     1
 10
66.37326762482707
 20
30.10666094694592
 11
66.37326762482707
 21
29.94918063204592
 72
     1
 10
66.37326762482707
 20
29.94918063204592
 11
66.15003927832707
 21
29.94918063204592
 72
     1
 10
66.15003927832707
 20
29.94918063204592
 11
66.15003927832707
 21
30.10666094694592
 97
        0
 92
       16
 93
        4
 72
     1
 10
66.37326762482707
 20
29.35862945094593
 11
66.15003927832707
 21
29.35862945094593
 72
     1
 10
66.15003927832707
 20
29.35862945094593
 11
66.15003927832707
 21
29.51610976584593
 72
     1
 10
66.15003927832707
 20
29.51610976584593
 11
66.37326762482707
 21
29.51610976584593
 72
     1
 10
66.37326762482707
 20
29.51610976584593
 11
66.37326762482707
 21
29.35862945094593
 97
        0
 92
       16
 93
        4
 72
     1
 10
66.37326762482707
 20
29.55547984464593
 11
66.15003927832707
 21
29.55547984464593
 72
     1
 10
66.15003927832707
 20
29.55547984464593
 11
66.15003927832707
 21
29.71296015954592
 72
     1
 10
66.15003927832707
 20
29.71296015954592
 11
66.37326762482707
 21
29.71296015954592
 72
     1
 10
66.37326762482707
 20
29.71296015954592
 11
66.37326762482707
 21
29.55547984464593
 97
        0
 92
       16
 93
        4
 72
     1
 10
66.15003927832707
 20
29.90981055324592
 11
66.37326762482707
 21
29.90981055324592
 72
     1
 10
66.37326762482707
 20
29.90981055324592
 11
66.37326762482707
 21
29.75233023834592
 72
     1
 10
66.37326762482707
 20
29.75233023834592
 11
66.15003927832707
 21
29.75233023834592
 72
     1
 10
66.15003927832707
 20
29.75233023834592
 11
66.15003927832707
 21
29.90981055324592
 97
        0
 75
     0
 76
     1
 98
        1
 10
38.85755586720554
 20
-4.363710636697192
1001
GENIUS_GENOBJ-N-HTC_13
1002
{
1000
OWNER
1000
GEN
1002
}
1001
GENIUS_GENODEF_13
1002
{
1000
HIER
1070
     0
1002
}
1002
{
1000
MANEDIT
1070
     0
1002
}
1002
{
1000
NOSEL
1070
     0
1002
}
1002
{
1000
BEHIND
1070
     0
1002
}
1002
{
1000
OTHER
1070
     0
1002
}
1002
{
1000
REACTOR
1002
}
1001
GENIUS_GENHATCH_13
1002
{
1000
DATA
1040
0.0
1042
1.0
1000
SOLID
1070
     0
1011
66.23142687462925
1021
29.73061301647632
1031
0.0
1002
}
1002
{
1000
UCS
1010
0.0
1020
0.0
1030
0.0
1010
1.0
1020
0.0
1030
0.0
1010
0.0
1020
1.0
1030
0.0
1002
}
  0
LINE
  5
C53
102
{ACAD_REACTORS
330
DB8
102
}
330
19
100
AcDbEntity
  8
Part
  6
Continuous
100
AcDbLine
 10
65.93862195552707
 20
20.06525937856081
 30
0.0
 11
66.62362195552707
 21
20.06525937856082
 31
0.0
  0
LINE
  5
C65
102
{ACAD_REACTORS
330
DB8
102
}
330
19
100
AcDbEntity
  8
Part
  6
Continuous
100
AcDbLine
 10
65.93862195552707
 20
20.85264123429628
 30
0.0
 11
66.62362195552707
 21
20.85264123429628
 31
0.0
  0
LINE
  5
C6B
330
19
100
AcDbEntity
  8
Part
  6
Continuous
100
AcDbLine
 10
66.10673219172706
 20
20.06525937856081
 30
0.0
 11
66.10673219172706
 21
20.85264123429628
 31
0.0
  0
LINE
  5
C6D
102
{ACAD_REACTORS
330
DB8
102
}
330
19
100
AcDbEntity
  8
Part
  6
Continuous
100
AcDbLine
 10
66.11854321532708
 20
20.85264123429628
 30
0.0
 11
66.11854321532708
 21
20.06525937856081
 31
0.0
  0
LINE
  5
C80
102
{ACAD_REACTORS
330
DB8
102
}
330
19
100
AcDbEntity
  8
Part
  6
Continuous
100
AcDbLine
 10
66.39807077442707
 20
20.06525937856081
 30
0.0
 11
66.39807077442707
 21
20.85264123429628
 31
0.0
  0
LINE
  5
C81
330
19
100
AcDbEntity
  8
Part
  6
Continuous
100
AcDbLine
 10
66.41863590382705
 20
20.85264123429628
 30
0.0
 11
66.41863590382705
 21
20.06525937856081
 31
0.0
  0
LINE
  5
C82
330
19
100
AcDbEntity
  8
Part
  6
Continuous
100
AcDbLine
 10
66.58862195552707
 20
20.85264123429628
 30
0.0
 11
66.58862195552707
 21
20.85301525009628
 31
0.0
  0
LINE
  5
C83
330
19
100
AcDbEntity
  8
Part
  6
Continuous
100
AcDbLine
 10
66.59885817602706
 20
20.06525937856081
 30
0.0
 11
66.59885817602706
 21
20.85301525009628
 31
0.0
  0
LINE
  5
C84
330
19
100
AcDbEntity
  8
Part
  6
Continuous
100
AcDbLine
 10
66.62362195552707
 20
20.85264123429628
 30
0.0
 11
66.62362195552706
 21
20.06525937856081
 31
0.0
  0
HATCH
  5
C85
330
19
100
AcDbEntity
  8
Part
100
AcDbHatch
 10
0.0
 20
0.0
 30
0.0
210
0.0
220
0.0
230
1.0
  2
SOLID
 70
     1
 71
     0
 91
        1
 92
        1
 93
        4
 72
     1
 10
66.10673219172706
 20
20.06525937856081
 11
66.10673219172706
 21
20.85264123429628
 72
     1
 10
66.10673219172706
 20
20.85264123429628
 11
65.93862195552707
 21
20.85264123429628
 72
     1
 10
65.93862195552707
 20
20.85264123429628
 11
65.93862195552707
 21
20.06525937856081
 72
     1
 10
65.93862195552707
 20
20.06525937856081
 11
66.10673219172706
 21
20.06525937856081
 97
        0
 75
     0
 76
     1
 98
        1
 10
38.85755586720552
 20
-13.63741538874683
1001
GENIUS_GENOBJ-N-HTC_13
1002
{
1000
OWNER
1000
GEN
1002
}
1001
GENIUS_GENODEF_13
1002
{
1000
HIER
1070
     0
1002
}
1002
{
1000
MANEDIT
1070
     0
1002
}
1002
{
1000
NOSEL
1070
     0
1002
}
1002
{
1000
BEHIND
1070
     0
1002
}
1002
{
1000
OTHER
1070
     0
1002
}
1002
{
1000
REACTOR
1002
}
1001
GENIUS_GENHATCH_13
1002
{
1000
DATA
1040
0.0
1042
1.0
1000
SOLID
1070
     0
1011
66.01620939016969
1021
20.41391358402354
1031
0.0
1002
}
1002
{
1000
UCS
1010
0.0
1020
0.0
1030
0.0
1010
1.0
1020
0.0
1030
0.0
1010
0.0
1020
1.0
1030
0.0
1002
}
  0
HATCH
  5
C86
330
19
100
AcDbEntity
  8
Part
100
AcDbHatch
 10
0.0
 20
0.0
 30
0.0
210
0.0
220
0.0
230
1.0
  2
SOLID
 70
     1
 71
     0
 91
        1
 92
        1
 93
        4
 72
     1
 10
66.41863590382705
 20
20.85264123429628
 11
66.41863590382705
 21
20.06525937856081
 72
     1
 10
66.41863590382705
 20
20.06525937856081
 11
66.59885817602706
 21
20.06525937856081
 72
     1
 10
66.59885817602706
 20
20.06525937856081
 11
66.59885817602706
 21
20.85264123429628
 72
     1
 10
66.59885817602706
 20
20.85264123429628
 11
66.41863590382705
 21
20.85264123429628
 97
        0
 75
     0
 76
     1
 98
        1
 10
38.85755586720552
 20
-13.63741538874683
1001
GENIUS_GENOBJ-N-HTC_13
1002
{
1000
OWNER
1000
GEN
1002
}
1001
GENIUS_GENODEF_13
1002
{
1000
HIER
1070
     0
1002
}
1002
{
1000
MANEDIT
1070
     0
1002
}
1002
{
1000
NOSEL
1070
     0
1002
}
1002
{
1000
BEHIND
1070
     0
1002
}
1002
{
1000
OTHER
1070
     0
1002
}
1002
{
1000
REACTOR
1002
}
1001
GENIUS_GENHATCH_13
1002
{
1000
DATA
1040
0.0
1042
1.0
1000
SOLID
1070
     0
1011
66.5724638165435
1021
20.40068444818244
1031
0.0
1002
}
1002
{
1000
UCS
1010
0.0
1020
0.0
1030
0.0
1010
1.0
1020
0.0
1030
0.0
1010
0.0
1020
1.0
1030
0.0
1002
}
  0
MTEXT
  5
CB7
330
19
100
AcDbEntity
  8
Notes
100
AcDbMText
 10
62.95970581867663
 20
29.07497640466699
 30
0.0
 40
0.2654040881342917
 41
11.75967106564818
 71
     1
 72
     5
  1
{\fArial|b0|i0|c0|p34;Top View}
  7
ADESK1
 73
     1
 44
1.0
1001
ACAD
1000
MTEXTBEGIN
1070
    73
1070
     1
1070
    44
1040
1.0
1070
    74
1070
     0
1000
MTEXTEND
  0
MTEXT
  5
CB8
330
19
100
AcDbEntity
  8
Notes
100
AcDbMText
 10
62.95462272023915
 20
23.54544051956406
 30
0.0
 40
0.2654040881342917
 41
11.75967106564818
 71
     1
 72
     5
  1
{\fArial|b0|i0|c0|p34;Side View}
  7
ADESK1
 73
     1
 44
1.0
1001
ACAD
1000
MTEXTBEGIN
1070
    73
1070
     1
1070
    44
1040
1.0
1070
    74
1070
     0
1000
MTEXTEND
  0
MTEXT
  5
CB9
330
19
100
AcDbEntity
  8
Notes
100
AcDbMText
 10
57.295759018721
 20
23.59097739183999
 30
0.0
 40
0.2654040881342917
 41
11.75967106564818
 71
     1
 72
     5
  1
{\fArial|b0|i0|c0|p34;Back View}
  7
ADESK1
 73
     1
 44
1.0
1001
ACAD
1000
MTEXTBEGIN
1070
    73
1070
     1
1070
    44
1040
1.0
1070
    74
1070
     0
1000
MTEXTEND
  0
MTEXT
  5
CBA
330
19
100
AcDbEntity
  8
Notes
100
AcDbMText
 10
68.68795552465842
 20
23.59216468438871
 30
0.0
 40
0.2654040881342917
 41
11.75967106564818
 71
     1
 72
     5
  1
{\fArial|b0|i0|c0|p34;Front View}
  7
ADESK1
 73
     1
 44
1.0
1001
ACAD
1000
MTEXTBEGIN
1070
    73
1070
     1
1070
    44
1040
1.0
1070
    74
1070
     0
1000
MTEXTEND
  0
MTEXT
  5
CBB
330
19
100
AcDbEntity
  8
Notes
100
AcDbMText
 10
62.73241933589673
 20
19.71135483230268
 30
0.0
 40
0.2654040881342917
 41
11.75967106564818
 71
     1
 72
     5
  1
{\fArial|b0|i0|c0|p34;Bottom View}
  7
ADESK1
 73
     1
 44
1.0
1001
ACAD
1000
MTEXTBEGIN
1070
    73
1070
     1
1070
    44
1040
1.0
1070
    74
1070
     0
1000
MTEXTEND
  0
HATCH
  5
DB8
330
19
100
AcDbEntity
  8
Part
100
AcDbHatch
 10
0.0
 20
0.0
 30
0.0
210
0.0
220
0.0
230
1.0
  2
SOLID
 70
     1
 71
     1
 91
        1
 92
        7
 72
     0
 73
     1
 93
        4
 10
66.11854321532709
 20
20.06525937856081
 10
66.39807077442707
 20
20.06525937856082
 10
66.39807077442708
 20
20.85264123429629
 10
66.11854321532708
 20
20.85264123429628
 97
        4
330
C65
330
C6D
330
C53
330
C80
 75
     0
 76
     1
 47
0.0032182465396274
 98
        1
 10
66.21484994603232
 20
20.54386529067479
1001
ACAD
1010
0.0
1020
0.0
1030
0.0
  0
LINE
  5
FC4
330
19
100
AcDbEntity
  8
Part
100
AcDbLine
 10
58.56588167138067
 20
25.96546750552749
 30
0.0
 11
57.67588167138067
 21
25.96546750552749
 31
0.0
  0
LINE
  5
FC5
330
19
100
AcDbEntity
  8
Part
100
AcDbLine
 10
58.56588167138067
 20
25.91046750552749
 30
0.0
 11
57.67588167138067
 21
25.91046750552749
 31
0.0
  0
LINE
  5
FC6
330
19
100
AcDbEntity
  8
Part
100
AcDbLine
 10
58.56588167138067
 20
25.71546750552749
 30
0.0
 11
57.67588167138067
 21
25.71546750552748
 31
0.0
  0
LINE
  5
FC8
330
19
100
AcDbEntity
  8
Part
100
AcDbLine
 10
58.56588167138067
 20
25.16546750552749
 30
0.0
 11
57.67588167138067
 21
25.16546750552749
 31
0.0
  0
LINE
  5
FC9
330
19
100
AcDbEntity
  8
Part
100
AcDbLine
 10
58.56588167138067
 20
25.09046750552748
 30
0.0
 11
57.67588167138067
 21
25.09046750552748
 31
0.0
  0
LINE
  5
FCA
330
19
100
AcDbEntity
  8
Part
100
AcDbLine
 10
58.58588167138067
 20
24.59571409350174
 30
0.0
 11
57.67588167138067
 21
24.59571409350175
 31
0.0
  0
LINE
  5
FCB
330
19
100
AcDbEntity
  8
Part
100
AcDbLine
 10
58.58588167138067
 20
24.55571409350175
 30
0.0
 11
57.67588167138067
 21
24.55571409350174
 31
0.0
  0
LINE
  5
FCC
330
19
100
AcDbEntity
  8
Part
100
AcDbLine
 10
58.58588167138068
 20
24.44046750552749
 30
0.0
 11
57.67588167138067
 21
24.44046750552749
 31
0.0
  0
MTEXT
  5
10B7
330
19
100
AcDbEntity
  8
0
100
AcDbMText
 10
67.71973157039124
 20
33.61421958535533
 30
0.0
 40
0.12
 41
14.44173728261603
 71
     5
 72
     5
  3
THIS DRAWING IS A CONTROLLED DOCUMENT PROVIDED \PBY MOORE INDUSTRIES-INTERNATIONAL, INC.{\C176;\c8388608; }AND IS \PSUBJECT TO CHANGE WITHOUT NOTICE. FOR LATEST \PREVISION OF DRAWING PLEASE CONTACT MOORE \PINDUSTRIES-INTERNATIONAL, INC. THE INFORMATI
  1
ON \PPROVIDED IN THIS DRAWING IS PROPRIETARY TO \PMOORE INDUSTRIES-INTERNATIONAL, INC.{\C176;\c8388608; }
 73
     1
 44
1.0
1001
ACAD
1000
MTEXTBEGIN
1070
    73
1070
     1
1070
    44
1040
1.0
1070
    74
1070
     0
1000
MTEXTEND
1000
ACAD_MTEXT_DEFINED_HEIGHT_BEGIN
1070
    46
1040
1.781648968217055
1000
ACAD_MTEXT_DEFINED_HEIGHT_END
  0
LINE
  5
10B8
330
19
100
AcDbEntity
  8
0
100
AcDbLine
 10
64.95705554375954
 20
34.45588017280944
 30
0.0
 11
64.95705554375954
 21
32.85800207703938
 31
0.0
  0
LINE
  5
10B9
330
19
100
AcDbEntity
  8
0
100
AcDbLine
 10
64.85559084453868
 20
34.55734487203029
 30
0.0
 11
64.85559084453868
 21
32.75734487203028
 31
0.0
  0
LINE
  5
10BA
330
19
100
AcDbEntity
  8
0
100
AcDbLine
 10
70.60559084453868
 20
34.5573448720303
 30
0.0
 11
70.60559084453868
 21
32.7573448720303
 31
0.0
  0
LINE
  5
10BB
330
19
100
AcDbEntity
  8
0
100
AcDbLine
 10
70.50412614531783
 20
34.45588017280943
 30
0.0
 11
70.50412614531784
 21
32.85800207703938
 31
0.0
  0
LINE
  5
10BC
330
19
100
AcDbEntity
  8
0
100
AcDbLine
 10
64.95705554375954
 20
32.85800207703938
 30
0.0
 11
70.50412614531784
 21
32.85800207703938
 31
0.0
  0
LINE
  5
10BD
330
19
100
AcDbEntity
  8
0
100
AcDbLine
 10
64.95705554375954
 20
34.45588017280943
 30
0.0
 11
70.50412614531783
 21
34.45588017280943
 31
0.0
  0
LINE
  5
10BE
330
19
100
AcDbEntity
  8
0
100
AcDbLine
 10
64.95705554375954
 20
34.55734487203029
 30
0.0
 11
70.50412614531783
 21
34.55734487203029
 31
0.0
  0
LINE
  5
10BF
330
19
100
AcDbEntity
  8
0
100
AcDbLine
 10
64.85559084453868
 20
35.30734487203029
 30
0.0
 11
70.60559084453868
 21
35.30734487203029
 31
0.0
  0
LINE
  5
10C0
330
19
100
AcDbEntity
  8
0
100
AcDbLine
 10
64.95705554375954
 20
35.20588017280943
 30
0.0
 11
70.50412614531783
 21
35.20588017280943
 31
0.0
  0
LINE
  5
10C1
330
19
100
AcDbEntity
  8
0
100
AcDbLine
 10
64.85559084453868
 20
32.75734487203028
 30
0.0
 11
70.60559084453868
 21
32.75734487203029
 31
0.0
  0
LINE
  5
10C2
330
19
100
AcDbEntity
  8
0
100
AcDbLine
 10
64.85559084453868
 20
32.75734487203028
 30
0.0
 11
70.60559084453868
 21
32.75734487203029
 31
0.0
  0
LINE
  5
10C3
330
19
100
AcDbEntity
  8
0
100
AcDbLine
 10
64.85559084453868
 20
31.69088221380793
 30
0.0
 11
64.85559084453868
 21
32.75734487203028
 31
0.0
  0
LINE
  5
10C4
330
19
100
AcDbEntity
  8
0
100
AcDbLine
 10
64.85559084453868
 20
32.75734487203028
 30
0.0
 11
70.60559084453868
 21
32.75734487203028
 31
0.0
  0
LINE
  5
10C5
330
19
100
AcDbEntity
  8
0
100
AcDbLine
 10
64.85559084453868
 20
32.50734487203028
 30
0.0
 11
70.60559084453868
 21
32.50734487203028
 31
0.0
  0
LINE
  5
10C6
330
19
100
AcDbEntity
  8
0
100
AcDbLine
 10
64.85559084453868
 20
32.25734487203028
 30
0.0
 11
70.60559084453868
 21
32.25734487203028
 31
0.0
  0
LINE
  5
10C7
330
19
100
AcDbEntity
  8
0
100
AcDbLine
 10
70.60559084453868
 20
31.69088221380793
 30
0.0
 11
70.60559084453868
 21
32.75734487203028
 31
0.0
  0
LINE
  5
10C8
330
19
100
AcDbEntity
  8
0
100
AcDbLine
 10
69.84889289283575
 20
31.69088221380793
 30
0.0
 11
69.84889289283575
 21
32.75734487203028
 31
0.0
  0
MTEXT
  5
10C9
330
19
100
AcDbEntity
  8
0
100
AcDbMText
 10
65.17273418541112
 20
32.63234487203028
 30
0.0
 40
0.125
 41
0.6342866817448467
 71
     5
 72
     5
  1
{\fArial|b0|i0|c0|p34;REV}
 73
     1
 44
1.0
1001
ACAD
1000
MTEXTBEGIN
1070
    73
1070
     1
1070
    44
1040
1.0
1070
    74
1070
     0
1000
MTEXTEND
1000
ACAD_MTEXT_DEFINED_HEIGHT_BEGIN
1070
    46
1040
0.25
1000
ACAD_MTEXT_DEFINED_HEIGHT_END
  0
LINE
  5
10CA
330
19
100
AcDbEntity
  8
0
100
AcDbLine
 10
65.48987752628353
 20
31.69088221380793
 30
0.0
 11
65.48987752628353
 21
32.75734487203028
 31
0.0
  0
MTEXT
  5
10CB
330
19
100
AcDbEntity
  8
0
100
AcDbMText
 10
67.66938520955965
 20
32.63234487203028
 30
0.0
 40
0.125
 41
4.359015366552219
 71
     5
 72
     5
  1
{\fArial|b0|i0|c0|p34;DESCRIPTION}
 73
     1
 44
1.0
1001
ACAD
1000
MTEXTBEGIN
1070
    73
1070
     1
1070
    44
1040
1.0
1070
    74
1070
     0
1000
MTEXTEND
1000
ACAD_MTEXT_DEFINED_HEIGHT_BEGIN
1070
    46
1040
0.2499999999999975
1000
ACAD_MTEXT_DEFINED_HEIGHT_END
  0
MTEXT
  5
10CC
330
19
100
AcDbEntity
  8
0
100
AcDbMText
 10
70.22724186868721
 20
32.63234487203028
 30
0.0
 40
0.125
 41
0.7566979517029253
 71
     5
 72
     5
  1
{\fArial|b0|i0|c0|p34;DATE}
 73
     1
 44
1.0
1001
ACAD
1000
MTEXTBEGIN
1070
    73
1070
     1
1070
    44
1040
1.0
1070
    74
1070
     0
1000
MTEXTEND
1000
ACAD_MTEXT_DEFINED_HEIGHT_BEGIN
1070
    46
1040
0.25
1000
ACAD_MTEXT_DEFINED_HEIGHT_END
  0
LINE
  5
10CD
330
19
100
AcDbEntity
  8
0
100
AcDbLine
 10
64.85559084453868
 20
35.30734487203029
 30
0.0
 11
64.85559084453868
 21
34.55734487203029
 31
0.0
  0
LINE
  5
10CE
330
19
100
AcDbEntity
  8
0
100
AcDbLine
 10
64.95705554375954
 20
35.20588017280943
 30
0.0
 11
64.95705554375954
 21
34.55734487203029
 31
0.0
  0
LINE
  5
10CF
330
19
100
AcDbEntity
  8
0
100
AcDbLine
 10
70.60559084453868
 20
35.30734487203029
 30
0.0
 11
70.60559084453868
 21
34.5573448720303
 31
0.0
  0
LINE
  5
10D0
330
19
100
AcDbEntity
  8
0
100
AcDbLine
 10
70.50412614531783
 20
35.20588017280943
 30
0.0
 11
70.50412614531783
 21
34.55734487203029
 31
0.0
  0
MTEXT
  5
10D1
330
19
100
AcDbEntity
  8
0
100
AcDbMText
 10
67.73059084453868
 20
34.88161252241986
 30
0.0
 40
0.25
 41
5.547070601558278
 71
     5
 72
     5
  1
SIX
 73
     1
 44
1.0
1001
ACAD
1000
MTEXTBEGIN
1070
    73
1070
     1
1070
    44
1040
1.0
1070
    74
1070
     0
1000
MTEXTEND
1000
ACAD_MTEXT_DEFINED_HEIGHT_BEGIN
1070
    46
1040
0.6485353007791446
1000
ACAD_MTEXT_DEFINED_HEIGHT_END
  0
MTEXT
  5
10D2
330
19
100
AcDbEntity
  8
0
100
AcDbMText
 10
65.17273418541112
 20
32.38234487203028
 30
0.0
 40
0.125
 41
0.6342866817448503
 71
     5
 72
     5
  1
{\fArial|b0|i0|c0|p34;1}
 73
     1
 44
1.0
1001
ACAD
1000
MTEXTBEGIN
1070
    73
1070
     1
1070
    44
1040
1.0
1070
    74
1070
     0
1000
MTEXTEND
1000
ACAD_MTEXT_DEFINED_HEIGHT_BEGIN
1070
    46
1040
0.2499999999999993
1000
ACAD_MTEXT_DEFINED_HEIGHT_END
  0
MTEXT
  5
10D3
330
19
100
AcDbEntity
  8
0
100
AcDbMText
 10
67.66938520955965
 20
32.3852723721243
 30
0.0
 40
0.125
 41
4.359015366552219
 71
     5
 72
     5
  1
{\fArial|b0|i0|c0|p34;INITIAL RELEASE}
 73
     1
 44
1.0
1001
ACAD
1000
MTEXTBEGIN
1070
    73
1070
     1
1070
    44
1040
1.0
1070
    74
1070
     0
1000
MTEXTEND
1000
ACAD_MTEXT_DEFINED_HEIGHT_BEGIN
1070
    46
1040
0.1292633015006892
1000
ACAD_MTEXT_DEFINED_HEIGHT_END
  0
MTEXT
  5
10D4
330
19
100
AcDbEntity
  8
0
100
AcDbMText
 10
70.22724186868721
 20
32.38234487203028
 30
0.0
 40
0.125
 41
0.7566979517029218
 71
     5
 72
     5
  1
{\fArial|b0|i0|c0|p34;04/08}
 73
     1
 44
1.0
1001
ACAD
1000
MTEXTBEGIN
1070
    73
1070
     1
1070
    44
1040
1.0
1070
    74
1070
     0
1000
MTEXTEND
1000
ACAD_MTEXT_DEFINED_HEIGHT_BEGIN
1070
    46
1040
0.25
1000
ACAD_MTEXT_DEFINED_HEIGHT_END
  0
HATCH
  5
1334
330
19
100
AcDbEntity
  8
Part
100
AcDbHatch
 10
0.0
 20
0.0
 30
0.0
210
0.0
220
0.0
230
1.0
  2
SOLID
 70
     1
 71
     1
 91
       13
 92
        7
 72
     0
 73
     1
 93
        4
 10
63.16362195552709
 20
29.30634598634592
 10
63.21762195552706
 20
29.30634598634592
 10
63.21762195552707
 20
30.19634598634592
 10
63.16362195552709
 20
30.19634598634592
 97
        4
330
94E
330
A6A
330
94F
330
A33
 92
        7
 72
     0
 73
     1
 93
        4
 10
63.05162195552711
 20
29.30634598634592
 10
63.1076219555271
 20
29.30634598634592
 10
63.1076219555271
 20
30.19634598634592
 10
63.05162195552711
 20
30.19634598634592
 97
        4
330
94E
330
A66
330
94F
330
A68
 92
        7
 72
     0
 73
     1
 93
        4
 10
62.9956219555271
 20
30.19634598634592
 10
62.9396219555271
 20
30.19634598634592
 10
62.9396219555271
 20
29.30634598634592
 10
62.9956219555271
 20
29.30634598634592
 97
        4
330
94E
330
A62
330
94F
330
A64
 92
        7
 72
     0
 73
     1
 93
        4
 10
62.88362195552711
 20
30.19634598634592
 10
62.82762195552709
 20
30.19634598634592
 10
62.82762195552708
 20
29.30634598634592
 10
62.8836219555271
 20
29.30634598634592
 97
        4
330
94E
330
A5E
330
94F
330
A60
 92
        7
 72
     0
 73
     1
 93
        4
 10
62.77162195552711
 20
30.19634598634592
 10
62.71562195552709
 20
30.19634598634592
 10
62.71562195552709
 20
29.30634598634592
 10
62.77162195552709
 20
29.30634598634592
 97
        4
330
94E
330
A5A
330
94F
330
A5C
 92
        7
 72
     0
 73
     1
 93
        4
 10
62.60362195552708
 20
29.30634598634592
 10
62.65962195552708
 20
29.30634598634592
 10
62.65962195552707
 20
30.19634598634592
 10
62.60362195552708
 20
30.19634598634592
 97
        4
330
94E
330
A56
330
94F
330
A58
 92
        7
 72
     0
 73
     1
 93
        4
 10
62.49162195552708
 20
29.30634598634592
 10
62.54762195552711
 20
29.30634598634592
 10
62.5476219555271
 20
30.19634598634592
 10
62.49162195552708
 20
30.19634598634592
 97
        4
330
94E
330
A52
330
94F
330
A54
 92
        7
 72
     0
 73
     1
 93
        4
 10
62.37962195552709
 20
29.30634598634592
 10
62.43562195552707
 20
29.30634598634592
 10
62.43562195552709
 20
30.19634598634592
 10
62.37962195552707
 20
30.19634598634592
 97
        4
330
94E
330
A4E
330
94F
330
A50
 92
        7
 72
     0
 73
     1
 93
        4
 10
62.26762195552707
 20
29.30634598634592
 10
62.32362195552707
 20
29.30634598634592
 10
62.32362195552708
 20
30.19634598634592
 10
62.26762195552707
 20
30.19634598634592
 97
        4
330
94E
330
A4A
330
94F
330
A4C
 92
        7
 72
     0
 73
     1
 93
        4
 10
62.21162195552706
 20
30.19634598634592
 10
62.15562195552708
 20
30.19634598634592
 10
62.15562195552708
 20
29.30634598634592
 10
62.21162195552707
 20
29.30634598634592
 97
        4
330
94E
330
A46
330
94F
330
A48
 92
        7
 72
     0
 73
     1
 93
        4
 10
62.09962195552707
 20
30.19634598634592
 10
62.04362195552708
 20
30.19634598634592
 10
62.04362195552707
 20
29.30634598634592
 10
62.09962195552707
 20
29.30634598634592
 97
        4
330
94E
330
A42
330
94F
330
A44
 92
        7
 72
     0
 73
     1
 93
        4
 10
61.93162195552706
 20
29.30634598634592
 10
61.98762195552706
 20
29.30634598634592
 10
61.98762195552708
 20
30.19634598634592
 10
61.93162195552707
 20
30.19634598634592
 97
        4
330
94E
330
A3E
330
94F
330
A40
 92
        7
 72
     0
 73
     1
 93
        4
 10
61.87562195552708
 20
30.19634598634592
 10
61.81962195552707
 20
30.19634598634592
 10
61.81962195552707
 20
29.30634598634592
 10
61.87562195552707
 20
29.30634598634592
 97
        4
330
94E
330
A3A
330
94F
330
A3C
 75
     0
 76
     1
 47
0.0038618421277081
 98
       13
 10
63.18841215528779
 20
30.0527983627224
 10
63.07250280027218
 20
30.10686411636286
 10
62.97204797305288
 20
30.10686411636286
 10
62.86386583787505
 20
30.10686411636286
 10
62.74795648285945
 20
30.10300230384935
 10
62.62818347386458
 20
30.10300230384935
 10
62.5161376847075
 20
30.11072597618279
 10
62.40409198367115
 20
30.11072597618279
 10
62.29204628263481
 20
30.11072597618279
 10
62.19545510939477
 20
30.11072597618279
 10
62.07181844642064
 20
30.10686411636286
 10
61.95204534930502
 20
30.10300230384935
 10
61.85545426418572
 20
30.09914044402943
1001
ACAD
1010
0.0
1020
0.0
1030
0.0
  0
HATCH
  5
1375
330
19
100
AcDbEntity
  8
Part
100
AcDbHatch
 10
0.0
 20
0.0
 30
0.0
210
0.0
220
0.0
230
1.0
  2
SOLID
 70
     1
 71
     1
 91
       16
 92
        7
 72
     0
 73
     1
 93
        4
 10
64.08862195552706
 20
29.30634598634592
 10
64.13862195552702
 20
29.30634598634592
 10
64.13862195552702
 20
30.19634598634592
 10
64.08862195552704
 20
30.19634598634592
 97
        4
330
94E
330
9AA
330
94F
330
9A9
 92
        7
 72
     0
 73
     1
 93
        4
 10
64.18862195552704
 20
29.30634598634592
 10
64.23862195552704
 20
29.30634598634592
 10
64.23862195552704
 20
30.19634598634592
 10
64.18862195552704
 20
30.19634598634592
 97
        4
330
94E
330
9A8
330
94F
330
971
 92
        7
 72
     0
 73
     1
 93
        4
 10
64.33862195552705
 20
30.19634598634592
 10
64.28862195552705
 20
30.19634598634592
 10
64.28862195552705
 20
29.30634598634592
 10
64.33862195552705
 20
29.30634598634592
 97
        4
330
94E
330
970
330
94F
330
96F
 92
        7
 72
     0
 73
     1
 93
        4
 10
64.38862195552705
 20
29.30634598634592
 10
64.43862195552705
 20
29.30634598634592
 10
64.43862195552705
 20
30.19634598634592
 10
64.38862195552705
 20
30.19634598634592
 97
        4
330
94E
330
96E
330
94F
330
96D
 92
        7
 72
     0
 73
     1
 93
        4
 10
64.53862195552705
 20
30.19634598634592
 10
64.48862195552705
 20
30.19634598634592
 10
64.48862195552703
 20
29.30634598634592
 10
64.53862195552705
 20
29.30634598634592
 97
        4
330
94E
330
96C
330
94F
330
96B
 92
        7
 72
     0
 73
     1
 93
        4
 10
64.58862195552704
 20
29.30634598634592
 10
64.63862195552706
 20
29.30634598634592
 10
64.63862195552704
 20
30.19634598634592
 10
64.58862195552704
 20
30.19634598634592
 97
        4
330
94E
330
96A
330
94F
330
969
 92
        7
 72
     0
 73
     1
 93
        4
 10
64.73862195552702
 20
30.19634598634592
 10
64.68862195552702
 20
30.19634598634592
 10
64.68862195552704
 20
29.30634598634592
 10
64.73862195552704
 20
29.30634598634592
 97
        4
330
94E
330
967
330
94F
330
966
 92
        7
 72
     0
 73
     1
 93
        4
 10
64.78862195552706
 20
29.30634598634592
 10
64.83862195552706
 20
29.30634598634592
 10
64.83862195552706
 20
30.19634598634592
 10
64.78862195552707
 20
30.19634598634592
 97
        4
330
94E
330
965
330
94F
330
964
 92
        7
 72
     0
 73
     1
 93
        4
 10
64.88862195552705
 20
29.30634598634592
 10
64.93862195552705
 20
29.30634598634592
 10
64.93862195552705
 20
30.19634598634592
 10
64.88862195552705
 20
30.19634598634592
 97
        4
330
94E
330
963
330
94F
330
962
 92
        7
 72
     0
 73
     1
 93
        4
 10
64.98862195552707
 20
29.30634598634592
 10
65.03862195552703
 20
29.30634598634592
 10
65.03862195552703
 20
30.19634598634592
 10
64.98862195552705
 20
30.19634598634592
 97
        4
330
94E
330
961
330
94F
330
960
 92
        7
 72
     0
 73
     1
 93
        4
 10
65.08862195552705
 20
29.30634598634592
 10
65.13862195552706
 20
29.30634598634592
 10
65.13862195552706
 20
30.19634598634592
 10
65.08862195552706
 20
30.19634598634592
 97
        4
330
94E
330
95F
330
94F
330
95D
 92
        7
 72
     0
 73
     1
 93
        4
 10
65.23862195552708
 20
30.19634598634592
 10
65.18862195552706
 20
30.19634598634592
 10
65.18862195552706
 20
29.30634598634592
 10
65.23862195552706
 20
29.30634598634592
 97
        4
330
94E
330
95C
330
94F
330
95B
 92
        7
 72
     0
 73
     1
 93
        4
 10
65.33862195552709
 20
30.19634598634592
 10
65.28862195552708
 20
30.19634598634592
 10
65.28862195552708
 20
29.30634598634592
 10
65.33862195552707
 20
29.30634598634591
 97
        4
330
94E
330
95A
330
94F
330
959
 92
        7
 72
     0
 73
     1
 93
        4
 10
65.43862195552707
 20
30.19634598634592
 10
65.38862195552702
 20
30.19634598634592
 10
65.38862195552707
 20
29.30634598634592
 10
65.43862195552705
 20
29.30634598634591
 97
        4
330
94E
330
958
330
94F
330
957
 92
        7
 72
     0
 73
     1
 93
        4
 10
65.48862195552707
 20
29.30634598634592
 10
65.53862195552703
 20
29.30634598634592
 10
65.53862195552703
 20
30.19634598634592
 10
65.48862195552707
 20
30.19634598634592
 97
        4
330
94E
330
956
330
94F
330
955
 92
        7
 72
     0
 73
     1
 93
        4
 10
65.58862195552705
 20
29.30634598634592
 10
65.68862195552707
 20
29.30634598634592
 10
65.68862195552707
 20
30.19634598634592
 10
65.58862195552707
 20
30.19634598634592
 97
        4
330
94E
330
954
330
94F
330
952
 75
     0
 76
     1
 47
0.0020869228866192
 98
       16
 10
64.11310082784544
 20
29.90131562809898
 10
64.21331993207708
 20
29.90757639661577
 10
64.31562696919467
 20
29.90548947377684
 10
64.4116702076544
 20
29.90548947377684
 10
64.52024095530909
 20
29.90340255093791
 10
64.61210841611765
 20
29.90757639661577
 10
64.71441545323523
 20
29.90548947377684
 10
64.81045869169496
 20
29.90757639661577
 10
64.90232624062426
 20
29.90548947377684
 10
65.00880896727228
 20
29.90340255093791
 10
65.11111600438986
 20
29.90340255093791
 10
65.21759881915859
 20
29.90131562809898
 10
65.31364205761832
 20
29.90131562809898
 10
65.41803693950112
 20
29.90131562809898
 10
65.50572871077926
 20
29.89922870526004
 10
65.61847514796439
 20
29.89922870526004
1001
ACAD
1010
0.0
1020
0.0
1030
0.0
  0
LINE
  5
137A
330
19
100
AcDbEntity
  8
Part
100
AcDbLine
 10
65.92862195552706
 20
26.70046750552749
 30
0.0
 11
65.92862195552706
 21
26.75300829070782
 31
0.0
  0
INSERT
  5
140F
330
19
100
AcDbEntity
  8
Part
100
AcDbBlockReference
  2
A$C31C915BA
 10
63.82605995552707
 20
23.79046750552749
 30
0.0
  0
LINE
  5
1411
330
19
100
AcDbEntity
  8
Part
100
AcDbLine
 10
61.48393395552706
 20
29.30634598634592
 30
0.0
 11
61.48393395552706
 21
30.19634598634592
 31
0.0
  0
LINE
  5
1417
330
19
100
AcDbEntity
  8
Part
100
AcDbLine
 10
61.48393395552707
 20
20.92264123429628
 30
0.0
 11
61.48393395552705
 21
20.03264123429629
 31
0.0
  0
HATCH
  5
14C0
330
19
100
AcDbEntity
  8
Part
100
AcDbHatch
 10
0.0
 20
0.0
 30
0.0
210
0.0
220
0.0
230
1.0
  2
SOLID
 70
     1
 71
     1
 91
       13
 92
        7
 72
     0
 73
     1
 93
        4
 10
63.21762195552704
 20
20.92264123429628
 10
63.16362195552708
 20
20.92264123429628
 10
63.16362195552707
 20
20.03264123429629
 10
63.21762195552706
 20
20.03264123429629
 97
        4
330
AA5
330
B01
330
AA4
330
ACE
 92
        7
 72
     0
 73
     1
 93
        4
 10
63.10762195552708
 20
20.92264123429628
 10
63.05162195552711
 20
20.92264123429628
 10
63.0516219555271
 20
20.03264123429629
 10
63.10762195552708
 20
20.03264123429629
 97
        4
330
AA5
330
AFD
330
AA4
330
AFF
 92
        7
 72
     0
 73
     1
 93
        4
 10
62.99562195552708
 20
20.92264123429628
 10
62.93962195552708
 20
20.92264123429628
 10
62.93962195552708
 20
20.03264123429629
 10
62.99562195552707
 20
20.03264123429629
 97
        4
330
AA5
330
AF9
330
AA4
330
AFB
 92
        7
 72
     0
 73
     1
 93
        4
 10
62.88362195552707
 20
20.92264123429628
 10
62.82762195552706
 20
20.92264123429628
 10
62.82762195552708
 20
20.03264123429629
 10
62.88362195552707
 20
20.03264123429629
 97
        4
330
AA5
330
AF5
330
AA4
330
AF7
 92
        7
 72
     0
 73
     1
 93
        4
 10
62.77162195552707
 20
20.92264123429628
 10
62.71562195552706
 20
20.92264123429628
 10
62.71562195552707
 20
20.03264123429629
 10
62.77162195552709
 20
20.03264123429629
 97
        4
330
AA5
330
AF1
330
AA4
330
AF3
 92
        7
 72
     0
 73
     1
 93
        4
 10
62.65962195552707
 20
20.92264123429628
 10
62.60362195552705
 20
20.92264123429628
 10
62.60362195552707
 20
20.03264123429629
 10
62.65962195552708
 20
20.03264123429629
 97
        4
330
AA5
330
AED
330
AA4
330
AEF
 92
        7
 72
     0
 73
     1
 93
        4
 10
62.54762195552707
 20
20.92264123429628
 10
62.49162195552708
 20
20.92264123429628
 10
62.49162195552708
 20
20.03264123429629
 10
62.54762195552707
 20
20.03264123429628
 97
        4
330
AA5
330
AE9
330
AA4
330
AEB
 92
        7
 72
     0
 73
     1
 93
        4
 10
62.43562195552706
 20
20.92264123429628
 10
62.37962195552707
 20
20.92264123429628
 10
62.37962195552707
 20
20.03264123429629
 10
62.43562195552706
 20
20.03264123429628
 97
        4
330
AA5
330
AE5
330
AA4
330
AE7
 92
        7
 72
     0
 73
     1
 93
        4
 10
62.32362195552708
 20
20.92264123429628
 10
62.26762195552707
 20
20.92264123429628
 10
62.26762195552708
 20
20.03264123429629
 10
62.32362195552707
 20
20.03264123429629
 97
        4
330
AA5
330
AE1
330
AA4
330
AE3
 92
        7
 72
     0
 73
     1
 93
        4
 10
62.21162195552707
 20
20.92264123429628
 10
62.15562195552706
 20
20.92264123429628
 10
62.15562195552706
 20
20.03264123429629
 10
62.21162195552706
 20
20.03264123429629
 97
        4
330
AA5
330
ADD
330
AA4
330
ADF
 92
        7
 72
     0
 73
     1
 93
        4
 10
62.09962195552707
 20
20.92264123429628
 10
62.04362195552707
 20
20.92264123429628
 10
62.04362195552707
 20
20.03264123429629
 10
62.09962195552708
 20
20.03264123429629
 97
        4
330
AA5
330
AD9
330
AA4
330
ADB
 92
        7
 72
     0
 73
     1
 93
        4
 10
61.98762195552705
 20
20.92264123429628
 10
61.93162195552707
 20
20.92264123429628
 10
61.93162195552707
 20
20.03264123429629
 10
61.98762195552705
 20
20.03264123429629
 97
        4
330
AA5
330
AD5
330
AA4
330
AD7
 92
        7
 72
     0
 73
     1
 93
        4
 10
61.87562195552704
 20
20.92264123429628
 10
61.81962195552706
 20
20.92264123429628
 10
61.81962195552706
 20
20.03264123429629
 10
61.87562195552706
 20
20.03264123429629
 97
        4
330
AA5
330
ACC
330
AA4
330
AD3
 75
     0
 76
     1
 47
0.0039971917164543
 98
       13
 10
63.19874302064254
 20
20.70774768335618
 10
63.07877121125134
 20
20.74771962369705
 10
62.96679759298282
 20
20.74771962369705
 10
62.85482388659355
 20
20.73173085702198
 10
62.74684936388635
 20
20.71174488685155
 10
62.62687755449516
 20
20.72373645003124
 10
62.51890294366723
 20
20.73173085702198
 10
62.39493212683544
 20
20.73173085702198
 10
62.29095661156884
 20
20.74372242020167
 10
62.17098480217764
 20
20.74372242020167
 10
62.07900648547433
 20
20.74372242020167
 10
61.95903467608312
 20
20.74372242020167
 10
61.85106015337592
 20
20.74372242020167
1001
ACAD
1010
0.0
1020
0.0
1030
0.0
  0
HATCH
  5
14FD
330
19
100
AcDbEntity
  8
Part
100
AcDbHatch
 10
0.0
 20
0.0
 30
0.0
210
0.0
220
0.0
230
1.0
  2
SOLID
 70
     1
 71
     1
 91
       15
 92
        7
 72
     0
 73
     1
 93
        4
 10
64.13862195552704
 20
20.92264123429628
 10
64.08862195552703
 20
20.92264123429628
 10
64.08862195552704
 20
20.03264123429629
 10
64.13862195552704
 20
20.03264123429628
 97
        4
330
AA5
330
AC7
330
AA4
330
AC6
 92
        7
 72
     0
 73
     1
 93
        4
 10
64.23862195552705
 20
20.92264123429628
 10
64.18862195552704
 20
20.92264123429628
 10
64.18862195552705
 20
20.03264123429629
 10
64.23862195552704
 20
20.03264123429629
 97
        4
330
AA5
330
AC5
330
AA4
330
AC4
 92
        7
 72
     0
 73
     1
 93
        4
 10
64.33862195552705
 20
20.92264123429628
 10
64.28862195552703
 20
20.92264123429628
 10
64.28862195552703
 20
20.03264123429629
 10
64.33862195552705
 20
20.03264123429629
 97
        4
330
AA5
330
AC3
330
AA4
330
AC2
 92
        7
 72
     0
 73
     1
 93
        4
 10
64.43862195552704
 20
20.92264123429628
 10
64.38862195552703
 20
20.92264123429628
 10
64.38862195552703
 20
20.03264123429629
 10
64.43862195552704
 20
20.03264123429629
 97
        4
330
AA5
330
AC1
330
AA4
330
AC0
 92
        7
 72
     0
 73
     1
 93
        4
 10
64.53862195552703
 20
20.92264123429628
 10
64.48862195552703
 20
20.92264123429627
 10
64.48862195552703
 20
20.03264123429629
 10
64.53862195552702
 20
20.03264123429629
 97
        4
330
AA5
330
ABF
330
AA4
330
ABE
 92
        7
 72
     0
 73
     1
 93
        4
 10
64.63862195552704
 20
20.92264123429628
 10
64.58862195552703
 20
20.92264123429628
 10
64.58862195552704
 20
20.03264123429629
 10
64.63862195552704
 20
20.03264123429629
 97
        4
330
AA5
330
ABD
330
AA4
330
ABC
 92
        7
 72
     0
 73
     1
 93
        4
 10
64.73862195552705
 20
20.92264123429628
 10
64.68862195552704
 20
20.92264123429628
 10
64.68862195552704
 20
20.03264123429629
 10
64.73862195552704
 20
20.03264123429629
 97
        4
330
AA5
330
ABB
330
AA4
330
ABA
 92
        7
 72
     0
 73
     1
 93
        4
 10
64.83862195552704
 20
20.92264123429628
 10
64.78862195552704
 20
20.92264123429627
 10
64.78862195552704
 20
20.03264123429629
 10
64.83862195552703
 20
20.03264123429628
 97
        4
330
AA5
330
AB9
330
AA4
330
AB8
 92
        7
 72
     0
 73
     1
 93
        4
 10
64.93862195552704
 20
20.92264123429628
 10
64.88862195552704
 20
20.92264123429628
 10
64.88862195552704
 20
20.03264123429629
 10
64.93862195552705
 20
20.03264123429629
 97
        4
330
AA5
330
AB7
330
AA4
330
AB6
 92
        7
 72
     0
 73
     1
 93
        4
 10
65.03862195552705
 20
20.92264123429628
 10
64.98862195552705
 20
20.92264123429628
 10
64.98862195552705
 20
20.03264123429629
 10
65.03862195552705
 20
20.03264123429629
 97
        4
330
AA5
330
AB5
330
AA4
330
AB4
 92
        7
 72
     0
 73
     1
 93
        4
 10
65.13862195552704
 20
20.92264123429628
 10
65.08862195552705
 20
20.92264123429628
 10
65.08862195552705
 20
20.03264123429629
 10
65.13862195552704
 20
20.03264123429629
 97
        4
330
AA5
330
AB3
330
AA4
330
AB2
 92
        7
 72
     0
 73
     1
 93
        4
 10
65.23862195552706
 20
20.92264123429628
 10
65.18862195552704
 20
20.92264123429627
 10
65.18862195552704
 20
20.03264123429629
 10
65.23862195552705
 20
20.03264123429629
 97
        4
330
AA5
330
AB1
330
AA4
330
AB0
 92
        7
 72
     0
 73
     1
 93
        4
 10
65.33862195552704
 20
20.92264123429628
 10
65.28862195552704
 20
20.92264123429627
 10
65.28862195552704
 20
20.03264123429629
 10
65.33862195552704
 20
20.03264123429629
 97
        4
330
AA5
330
AAF
330
AA4
330
AAE
 92
        7
 72
     0
 73
     1
 93
        4
 10
65.43862195552705
 20
20.92264123429628
 10
65.38862195552706
 20
20.92264123429627
 10
65.38862195552706
 20
20.03264123429629
 10
65.43862195552705
 20
20.03264123429629
 97
        4
330
AA5
330
AAD
330
AA4
330
AAC
 92
        7
 72
     0
 73
     1
 93
        4
 10
65.53862195552705
 20
20.92264123429628
 10
65.48862195552705
 20
20.92264123429628
 10
65.48862195552704
 20
20.03264123429629
 10
65.53862195552705
 20
20.03264123429629
 97
        4
330
AA5
330
AAB
330
AA4
330
AAA
 75
     0
 76
     1
 47
0.0019659718087894
 98
       15
 10
64.10007150106143
 20
20.75665750998281
 10
64.21611806007398
 20
20.78024917569407
 10
64.30856183054212
 20
20.79007902458049
 10
64.41674079337319
 20
20.79007902458049
 10
64.51115159506781
 20
20.79007902458049
 10
64.61146296171744
 20
20.78811306426449
 10
64.71570812645777
 20
20.78418114363249
 10
64.81798643621312
 20
20.78221513601007
 10
64.912397149787
 20
20.78418114363249
 10
65.00877480646662
 20
20.78221513601007
 10
65.11105302810122
 20
20.78614710394849
 10
65.21136448287157
 20
20.78418114363249
 10
65.31364279262692
 20
20.78024917569407
 10
65.41788795736727
 20
20.77828321537807
 10
65.51426552592615
 20
20.77631725506207
1001
ACAD
1010
0.0
1020
0.0
1030
0.0
  0
LINE
  5
1545
330
19
100
AcDbEntity
  8
Schematics
100
AcDbLine
 10
71.84538489230347
 20
25.01085144617698
 30
0.0
 11
72.82138489230347
 21
25.01085144617699
 31
0.0
  0
LINE
  5
1546
330
19
100
AcDbEntity
  8
Schematics
100
AcDbLine
 10
72.82138489230348
 20
25.01085144617699
 30
0.0
 11
72.82138489230348
 21
21.85285144617699
 31
0.0
  0
LINE
  5
1547
330
19
100
AcDbEntity
  8
Schematics
100
AcDbLine
 10
71.84538489230345
 20
25.01085144617699
 30
0.0
 11
71.84538489230345
 21
21.85285144617699
 31
0.0
  0
LINE
  5
1548
330
19
100
AcDbEntity
  8
Schematics
100
AcDbLine
 10
71.84538489230345
 20
21.85285144617699
 30
0.0
 11
72.82138489230347
 21
21.85285144617699
 31
0.0
  0
ARC
  5
1549
330
19
100
AcDbEntity
  8
Schematics
100
AcDbCircle
 10
72.20838489230347
 20
24.43074316946845
 30
0.0
 40
0.125
100
AcDbArc
 50
180.0
 51
0.0
  0
LINE
  5
154A
330
19
100
AcDbEntity
  8
Schematics
100
AcDbLine
 10
72.33338489230347
 20
25.01085144617699
 30
0.0
 11
72.33338489230347
 21
24.43074316946845
 31
0.0
  0
ARC
  5
154B
330
19
100
AcDbEntity
  8
Schematics
100
AcDbCircle
 10
72.45838489230347
 20
24.43074316946845
 30
0.0
 40
0.125
100
AcDbArc
 50
180.0
 51
0.0
  0
MTEXT
  5
154C
330
19
100
AcDbEntity
  8
Label
100
AcDbMText
 10
71.9543019759394
 20
24.46413661503247
 30
0.0
 40
0.1007893249948842
 41
0.5039625306483284
 71
     4
 72
     5
  1
+IN
 11
0.0000000000000001
 21
1.0
 31
0.0
 73
     1
 44
1.0
1001
ACAD
1000
MTEXTBEGIN
1070
    73
1070
     1
1070
    44
1040
1.0
1070
    74
1070
     0
1000
MTEXTEND
  0
MTEXT
  5
154D
330
19
100
AcDbEntity
  8
Label
100
AcDbMText
 10
72.2043019759394
 20
24.46413661503247
 30
0.0
 40
0.1007893249948842
 41
0.5039625306483284
 71
     4
 72
     5
  1
-IN
 11
0.0000000000000001
 21
1.0
 31
0.0
 73
     1
 44
1.0
1001
ACAD
1000
MTEXTBEGIN
1070
    73
1070
     1
1070
    44
1040
1.0
1070
    74
1070
     0
1000
MTEXTEND
  0
LINE
  5
1557
330
19
100
AcDbEntity
  8
Schematics
100
AcDbLine
 10
72.58338489230347
 20
25.01085144617699
 30
0.0
 11
72.58338489230347
 21
24.43074316946845
 31
0.0
  0
LINE
  5
1558
330
19
100
AcDbEntity
  8
Schematics
100
AcDbLine
 10
72.08338489230347
 20
25.01085144617699
 30
0.0
 11
72.08338489230347
 21
24.43074316946845
 31
0.0
  0
MTEXT
  5
1559
330
19
100
AcDbEntity
  8
Label
100
AcDbMText
 10
72.35492714512267
 20
23.7259697441028
 30
0.0
 40
0.234952584375
 41
0.67555
 71
     5
 72
     5
  1
TRY
 73
     1
 44
1.0
1001
ACAD
1000
MTEXTBEGIN
1070
    73
1070
     1
1070
    44
1040
1.0
1070
    74
1070
     0
1000
MTEXTEND
  0
ARC
  5
155B
330
19
100
AcDbEntity
  8
Schematics
100
AcDbCircle
 10
72.70838489230347
 20
24.43074316946845
 30
0.0
 40
0.125
100
AcDbArc
 50
180.0
 51
334.6889348445221
  0
ARC
  5
155C
330
19
100
AcDbEntity
  8
Schematics
100
AcDbCircle
 10
71.95838489230347
 20
24.43074316946845
 30
0.0
 40
0.125
100
AcDbArc
 50
205.3110651554852
 51
0.0
  0
MTEXT
  5
155F
330
19
100
AcDbEntity
  8
Label
100
AcDbMText
 10
72.4543019759394
 20
24.46413661503247
 30
0.0
 40
0.1007893249948842
 41
0.5039625306483284
 71
     4
 72
     5
  1
+PS
 11
0.0000000000000001
 21
1.0
 31
0.0
 73
     1
 44
1.0
1001
ACAD
1000
MTEXTBEGIN
1070
    73
1070
     1
1070
    44
1040
1.0
1070
    74
1070
     0
1000
MTEXTEND
  0
MTEXT
  5
1560
330
19
100
AcDbEntity
  8
Label
100
AcDbMText
 10
72.7043019759394
 20
24.46413661503247
 30
0.0
 40
0.1007893249948842
 41
0.5039625306483284
 71
     4
 72
     5
  1
-PS
 11
0.0000000000000001
 21
1.0
 31
0.0
 73
     1
 44
1.0
1001
ACAD
1000
MTEXTBEGIN
1070
    73
1070
     1
1070
    44
1040
1.0
1070
    74
1070
     0
1000
MTEXTEND
  0
INSERT
  5
156C
330
19
100
AcDbEntity
  8
Defpoints
100
AcDbBlockReference
  2
A$C50BB7AE2
 10
70.60559084453868
 20
32.75734487203028
 30
0.0
  0
VIEWPORT
  5
BA
102
{ACAD_XDICTIONARY
360
1596
102
}
330
16
100
AcDbEntity
 67
     1
  8
0
100
AcDbViewport
 10
5.249999639556164
 20
6.140308632623732
 30
0.0
 40
11.99666166085311
 41
13.27361724380106
 68
     1
 69
     1
 12
5.249999639556164
 22
6.140308632623732
 13
0.0
 23
0.0
 14
0.5
 24
0.5
 15
0.5
 25
0.5
 16
0.0
 26
0.0
 36
1.0
 17
0.0
 27
0.0
 37
0.0
 42
50.0
 43
0.0
 44
0.0
 45
13.27361724380106
 50
0.0
 51
0.0
 72
   100
 90
    32800
  1

281
     0
 71
     1
 74
     0
110
0.0
120
0.0
130
0.0
111
1.0
121
0.0
131
0.0
112
0.0
122
1.0
132
0.0
 79
     0
146
0.0
1001
GENIUS_GENSCREG_15
1000
PF
1040
1.0
1000
DF
1040
1.0
1000
MIN
1011
-0.7483311908703901
1021
-0.4964999892767974
1031
0.0
1000
MAX
1011
11.24833046998272
1021
12.77711725452426
1031
0.0
1000
FLAGS
1070
     4
1001
GENIUS_GENOBJ-N-SDF_13
1002
{
1000
OWNER
1000
GEN
1002
}
1001
GENIUS_GENODEF_13
1002
{
1000
HIER
1070
     0
1002
}
1002
{
1000
MANEDIT
1070
     0
1002
}
1002
{
1000
NOSEL
1070
     0
1002
}
1002
{
1000
BEHIND
1070
     0
1002
}
1002
{
1000
OTHER
1070
     0
1002
}
1002
{
1000
REACTOR
1002
}
  0
ENDSEC
  0
SECTION
  2
OBJECTS
  0
DICTIONARY
  5
C
330
0
100
AcDbDictionary
281
     1
  3
ACAD_2007HEADERVARS_RT
350
1594
  3
ACAD_COLOR
350
3F8
  3
ACAD_GROUP
350
D
  3
ACAD_LAYOUT
350
150
  3
ACAD_MATERIAL
350
3F7
  3
ACAD_MLINESTYLE
350
E
  3
ACAD_PLOTSETTINGS
350
151
  3
ACAD_PLOTSTYLENAME
350
14E
  3
ACAD_TABLESTYLE
350
3F9
  3
ACAD_VISUALSTYLE
350
582
  3
ACDBVARIABLEDICTIONARY
350
FA
  3
AcmDictionary
350
189
  3
AMG
350
158
  3
AMGSNAPSETTINGS
350
1BA
  3
DWGPROPS
350
1593
  3
MAPISURF_MODULE
350
12A7
  3
StructToggleButtonState
350
C39
  0
DICTIONARY
  5
44C
330
2
100
AcDbDictionary
280
     1
281
     1
  3
ACAD_LAYERFILTERS
360
CB5
  3
ACAD_LAYERSTATES
360
44D
  3
ACLYDICTIONARY
360
CB4
  3
AMLAYER_GROUPCOLORS
360
C3D
  0
DICTIONARY
  5
11F
330
19
100
AcDbDictionary
280
     1
281
     1
  3
ACAD_INDEX
360
1061
  3
ACAD_SORTENTS
360
619
  0
DICTIONARY
  5
D12
330
CC0
100
AcDbDictionary
280
     1
281
     1
  3
ACAD_SORTENTS
360
D13
  0
DICTIONARY
  5
140A
330
137C
100
AcDbDictionary
280
     1
281
     1
  3
ACAD_SORTENTS
360
140B
  0
DICTIONARY
  5
151F
330
1504
100
AcDbDictionary
280
     1
281
     1
  3
ACAD_SORTENTS
360
1520
  0
DICTIONARY
  5
1567
330
1562
100
AcDbDictionary
280
     1
281
     1
  3
ACAD_SORTENTS
360
1568
  0
DICTIONARY
  5
1596
330
BA
100
AcDbDictionary
280
     1
281
     1
  3
ACAD_XREC_ROUNDTRIP
360
1597
  0
DICTIONARY
  5
1594
102
{ACAD_REACTORS
330
C
102
}
330
C
100
AcDbDictionary
281
     1
  3
DIMARCSYM
350
1595
  0
DICTIONARY
  5
3F8
102
{ACAD_REACTORS
330
C
102
}
330
C
100
AcDbDictionary
281
     1
  0
DICTIONARY
  5
D
102
{ACAD_REACTORS
330
C
102
}
330
C
100
AcDbDictionary
281
     1
  0
DICTIONARY
  5
150
102
{ACAD_REACTORS
330
C
102
}
330
C
100
AcDbDictionary
281
     1
  3
Layout1
350
153
  3
Model
350
152
  0
DICTIONARY
  5
3F7
102
{ACAD_REACTORS
330
C
102
}
330
C
100
AcDbDictionary
281
     1
  3
ByBlock
350
580
  3
ByLayer
350
57F
  3
Global
350
581
  0
DICTIONARY
  5
E
102
{ACAD_REACTORS
330
C
102
}
330
C
100
AcDbDictionary
281
     1
  3
STANDARD
350
1C
  0
DICTIONARY
  5
151
102
{ACAD_REACTORS
330
C
102
}
330
C
100
AcDbDictionary
281
     1
  0
ACDBDICTIONARYWDFLT
  5
14E
102
{ACAD_REACTORS
330
C
102
}
330
C
100
AcDbDictionary
281
     1
  3
Normal
350
14F
100
AcDbDictionaryWithDefault
340
14F
  0
DICTIONARY
  5
3F9
102
{ACAD_REACTORS
330
C
102
}
330
C
100
AcDbDictionary
281
     1
  3
Standard
350
3FA
  0
DICTIONARY
  5
582
102
{ACAD_REACTORS
330
C
102
}
330
C
100
AcDbDictionary
281
     1
  3
2dWireframe
350
588
  3
3D Hidden
350
58A
  3
3dWireframe
350
589
  3
Basic
350
587
  3
Brighten
350
58E
  3
ColorChange
350
592
  3
Conceptual
350
58B
  3
Dim
350
58D
  3
Facepattern
350
591
  3
Flat
350
583
  3
FlatWithEdges
350
584
  3
Gouraud
350
585
  3
GouraudWithEdges
350
586
  3
Linepattern
350
590
  3
Realistic
350
58C
  3
Thicken
350
58F
  0
DICTIONARY
  5
FA
102
{ACAD_REACTORS
330
C
102
}
330
C
100
AcDbDictionary
281
     1
  3
CTABLESTYLE
350
429
  3
DIMASSOC
350
3F5
  3
INDEXCTL
350
FB
  3
SORTENTS
350
1592
  0
DICTIONARY
  5
189
102
{ACAD_REACTORS
330
C
102
}
330
C
100
AcDbDictionary
281
     1
  3
AcmStdDictionary
350
2C1
  3
AMDTSECTSYM_ARROWCOLOR
350
402
  0
DICTIONARY
  5
158
102
{ACAD_REACTORS
330
C
102
}
330
C
100
AcDbDictionary
281
     1
  3
AcMgSettings
350
159
  0
DICTIONARY
  5
1BA
102
{ACAD_REACTORS
330
C
102
}
330
C
100
AcDbDictionary
281
     1
  3
DIMENSION
350
1BE
  3
FEA
350
1BD
  3
HATCH
350
1BB
  3
SYMBOLS
350
1BC
  0
XRECORD
  5
1593
102
{ACAD_REACTORS
330
C
102
}
330
C
100
AcDbXrecord
280
     1
  1
DWGPROPS COOKIE
  2

  3

  4

  6

  7

  8
amartinez
  9

300
AmdtFileType=84
301
=
302
=
303
=
304
=
305
=
306
=
307
=
308
=
309
=
 40
0.3751680555555556
 41
2454550.398519989
 42
2454784.457314016
  1

 90
        1
  0
CAMSSTRUCTBTNSTATE
  5
C39
102
{ACAD_REACTORS
330
C
102
}
330
C
  0
DICTIONARY
  5
CB5
102
{ACAD_REACTORS
330
44C
102
}
330
44C
100
AcDbDictionary
281
     1
  0
DICTIONARY
  5
44D
102
{ACAD_REACTORS
330
44C
102
}
330
44C
100
AcDbDictionary
281
     1
  0
DICTIONARY
  5
CB4
102
{ACAD_REACTORS
330
44C
102
}
330
44C
100
AcDbDictionary
281
     1
1001
ACAD
1000
<All
  0
DICTIONARY
  5
C3D
102
{ACAD_REACTORS
330
44C
102
}
330
44C
100
AcDbDictionary
280
     1
281
     1
  0
DICTIONARY
  5
1061
102
{ACAD_REACTORS
330
11F
102
}
330
11F
100
AcDbDictionary
281
     1
  3
*A1
350
1062
  0
SORTENTSTABLE
  5
619
102
{ACAD_REACTORS
330
11F
102
}
330
11F
100
AcDbSortentsTable
330
19
331
6B8
  5
6E2
331
621
  5
620
331
154D
  5
154D
331
10BE
  5
10C2
331
A40
  5
A47
331
959
  5
965
331
7EA
  5
8CB
331
10C6
  5
10CA
331
71B
  5
74B
331
AEE
  5
AF8
331
A48
  5
A4F
331
10CE
  5
10D2
331
961
  5
96D
331
AAF
  5
AB8
331
C0D
  5
C17
331
AF6
  5
B00
331
969
  5
9A9
331
A50
  5
A57
331
AB7
  5
AC0
331
971
  5
A32
331
A58
  5
A5F
331
ABF
  5
AC8
331
AFE
  5
BFD
331
932
  5
936
331
C1D
  5
C25
331
AC7
  5
AD2
331
C25
  5
C2D
331
6D8
  5
6E7
331
6E0
  5
70A
331
6E8
  5
712
331
6A9
  5
6DF
331
9A9
  5
A35
331
A60
  5
A67
331
93A
  5
93E
331
74B
  5
777
331
A68
  5
AA3
331
C2D
  5
C37
331
C84
  5
D42
331
10B7
  5
10BB
331
952
  5
95D
331
AD7
  5
AE1
331
BFE
  5
C06
331
A39
  5
A41
331
ADF
  5
AE9
331
C06
  5
C0E
331
AE7
  5
AF1
331
C45
  5
C82
331
6B9
  5
6E0
331
6D1
  5
6E6
331
10BF
  5
10C3
331
14FD
  5
AAC
331
A41
  5
A48
331
95A
  5
966
331
AA8
  5
AB1
331
7EB
  5
8CC
331
10C7
  5
10CB
331
140F
  5
1417
331
AEF
  5
AF9
331
A49
  5
A50
331
962
  5
96E
331
AB0
  5
AB9
331
C0E
  5
C18
331
10CF
  5
10D3
331
FC8
  5
FE4
331
1417
  5
148C
331
96A
  5
9AA
331
A51
  5
A58
331
AB8
  5
AC1
331
AF7
  5
B01
331
C16
  5
C1E
331
A59
  5
A60
331
AC0
  5
AC9
331
AFF
  5
BFE
331
933
  5
937
331
C1E
  5
C26
331
C65
  5
C86
331
C26
  5
C2E
331
C6D
  5
CB8
331
6D9
  5
6E8
331
6E1
  5
70B
331
6A2
  5
601
331
6AA
  5
6DB
331
9AA
  5
A36
331
A61
  5
A68
331
AC8
  5
AD3
331
93B
  5
93F
331
74C
  5
778
331
137A
  5
1411
331
A69
  5
AA4
331
AD0
  5
ADA
331
1545
  5
1545
331
C2E
  5
C3E
331
C85
  5
D50
331
A32
  5
A3C
331
AA1
  5
AA8
331
AD8
  5
AE2
331
BFF
  5
C07
331
7DC
  5
7F5
331
A3A
  5
A3D
331
AE0
  5
AEA
331
C07
  5
C0F
331
7E4
  5
8CA
331
6BA
  5
6DE
331
6D2
  5
6E5
331
10B8
  5
10BC
331
1557
  5
1557
331
10C0
  5
10C4
331
AE8
  5
AF2
331
A42
  5
A49
331
95B
  5
967
331
AA9
  5
AB2
331
10C8
  5
10CC
331
71D
  5
74C
331
AF0
  5
AFA
331
A4A
  5
A51
331
10D0
  5
10D4
331
FC9
  5
10B7
331
963
  5
96F
331
AB1
  5
ABA
331
C0F
  5
C19
331
96B
  5
9AB
331
A52
  5
A59
331
AB9
  5
AC2
331
AF8
  5
B02
331
92C
  5
930
331
C17
  5
C1F
331
73D
  5
751
331
A5A
  5
A61
331
AC1
  5
ACA
331
B00
  5
BFF
331
934
  5
938
331
745
  5
750
331
C1F
  5
C27
331
C27
  5
C2F
331
6DA
  5
6EA
331
6E2
  5
70C
331
604
  5
616
331
6A3
  5
6D3
331
6AB
  5
6D8
331
A62
  5
A69
331
AC9
  5
AD4
331
93C
  5
940
331
74D
  5
779
331
A6A
  5
AA5
331
AD1
  5
ADB
331
1546
  5
1546
331
C2F
  5
C44
331
C86
  5
D8D
331
954
  5
960
331
A33
  5
A3F
331
AD9
  5
AE3
331
C00
  5
C08
331
7DD
  5
7FA
331
C37
  5
C80
331
A3B
  5
A3E
331
AE1
  5
AEB
331
1548
  5
1548
331
10B9
  5
10BD
331
1558
  5
1558
331
10C1
  5
10C5
331
AE9
  5
AF3
331
A43
  5
A4A
331
95C
  5
969
331
AAA
  5
AB3
331
C08
  5
C10
331
71E
  5
74D
331
1411
  5
1434
331
10C9
  5
10CD
331
AF1
  5
AFB
331
A4B
  5
A52
331
964
  5
970
331
AB2
  5
ABB
331
C10
  5
C1A
331
8FD
  5
901
331
10D1
  5
1300
331
FCA
  5
10B8
331
96C
  5
9AE
331
A53
  5
A5A
331
ABA
  5
AC3
331
AF9
  5
B03
331
92D
  5
931
331
C18
  5
C20
331
A5B
  5
A62
331
AC2
  5
ACB
331
B01
  5
C00
331
935
  5
939
331
746
  5
75F
331
C20
  5
C28
331
6DB
  5
6EB
331
6E3
  5
70D
331
605
  5
617
331
6A4
  5
6D9
331
1334
  5
957
331
A63
  5
A6A
331
ACA
  5
AD5
331
74E
  5
77A
331
C28
  5
C30
331
94D
  5
954
331
A6B
  5
AA6
331
AD2
  5
ADC
331
14C0
  5
AAB
331
1547
  5
1547
331
C30
  5
C46
331
CB7
  5
D8E
331
7DE
  5
7FB
331
955
  5
961
331
ADA
  5
AE4
331
C01
  5
C09
331
C40
  5
C81
331
A3C
  5
A43
331
AE2
  5
AEC
331
6B4
  5
6E1
331
61D
  5
628
331
6CC
  5
6D2
331
1549
  5
1549
331
1559
  5
1559
331
10BA
  5
10BE
331
10C2
  5
10C6
331
AEA
  5
AF4
331
A44
  5
A4B
331
71F
  5
74E
331
10CA
  5
10CE
331
95D
  5
96A
331
AAB
  5
AB4
331
C09
  5
C11
331
AF2
  5
AFC
331
A4C
  5
A53
331
10D2
  5
1335
331
FCB
  5
10B9
331
965
  5
971
331
AB3
  5
ABC
331
C11
  5
C1B
331
C19
  5
C21
331
96D
  5
9AF
331
A54
  5
A5B
331
ABB
  5
AC4
331
AFA
  5
B04
331
73F
  5
756
331
92E
  5
932
331
C21
  5
C29
331
A5C
  5
A63
331
AC3
  5
ACD
331
B02
  5
C01
331
747
  5
773
331
936
  5
93A
331
6DC
  5
6ED
331
5FE
  5
5FE
331
6E4
  5
70E
331
606
  5
618
331
6A5
  5
6DA
331
1375
  5
958
331
C29
  5
C31
331
C80
  5
CB9
331
74F
  5
77B
331
9AD
  5
A38
331
A64
  5
A6B
331
ACB
  5
AD6
331
C31
  5
C53
331
94E
  5
959
331
A2D
  5
A3B
331
AD3
  5
ADD
331
BFA
  5
C02
331
CB8
  5
FC8
331
7DF
  5
7FC
331
956
  5
962
331
AA4
  5
AAD
331
ADB
  5
AE5
331
C02
  5
C0A
331
A3D
  5
A44
331
AE3
  5
AED
331
616
  5
61D
331
61E
  5
62B
331
154A
  5
154A
331
10BB
  5
10BF
331
718
  5
748
331
10C3
  5
10C7
331
AEB
  5
AF5
331
720
  5
74F
331
10CB
  5
10CF
331
FC4
  5
FCC
331
A45
  5
A4C
331
AAC
  5
AB5
331
C0A
  5
C12
331
AF3
  5
AFD
331
A4D
  5
A54
331
10D3
  5
137A
331
FCC
  5
10BA
331
966
  5
972
331
AB4
  5
ABD
331
C12
  5
C1C
331
C1A
  5
C22
331
96E
  5
9F0
331
A55
  5
A5C
331
ABC
  5
AC5
331
AFB
  5
BFA
331
740
  5
752
331
92F
  5
933
331
C22
  5
C2A
331
A5D
  5
A64
331
AC4
  5
ACE
331
937
  5
93B
331
5FF
  5
600
331
6DD
  5
6EE
331
6E5
  5
70F
331
6A6
  5
6DC
331
6ED
  5
713
331
748
  5
774
331
C2A
  5
C32
331
C81
  5
CBA
331
9AE
  5
A3A
331
A65
  5
A6C
331
ACC
  5
AD7
331
750
  5
77C
331
C32
  5
C65
331
94F
  5
95A
331
AD4
  5
ADE
331
BFB
  5
C03
331
CB9
  5
FC9
331
957
  5
963
331
A36
  5
A40
331
AA5
  5
AAE
331
ADC
  5
AE6
331
C03
  5
C0B
331
7E0
  5
7FD
331
A3E
  5
A45
331
AE4
  5
AEE
331
617
  5
622
331
61F
  5
61E
331
6CE
  5
6E4
331
154B
  5
154B
331
10BC
  5
10C0
331
155B
  5
155B
331
10C4
  5
10C8
331
719
  5
749
331
AEC
  5
AF6
331
A46
  5
A4D
331
10CC
  5
10D0
331
FC5
  5
FCE
331
95F
  5
96B
331
AAD
  5
AB6
331
C0B
  5
C13
331
AF4
  5
AFE
331
A4E
  5
A55
331
10D4
  5
140F
331
967
  5
9A8
331
AB5
  5
ABE
331
C13
  5
C1D
331
C1B
  5
C23
331
96F
  5
A2D
331
A56
  5
A5D
331
ABD
  5
AC6
331
AFC
  5
BFB
331
930
  5
934
331
C23
  5
C2B
331
A5E
  5
A65
331
AC5
  5
ACF
331
6DE
  5
708
331
600
  5
605
331
6E6
  5
710
331
6EE
  5
714
331
938
  5
93C
331
749
  5
775
331
C2B
  5
C33
331
C82
  5
CBB
331
A66
  5
AA1
331
ACD
  5
AD8
331
751
  5
77D
331
C33
  5
C6B
331
950
  5
95B
331
AD5
  5
ADF
331
BFC
  5
C04
331
CBA
  5
FCA
331
AA6
  5
AAF
331
ADD
  5
AE7
331
C04
  5
C0C
331
7E1
  5
7FE
331
A3F
  5
A46
331
AE5
  5
AEF
331
618
  5
627
331
620
  5
61F
331
6D7
  5
6E3
331
154C
  5
154C
331
10BD
  5
10C1
331
155C
  5
155C
331
958
  5
964
331
10C5
  5
10C9
331
71A
  5
74A
331
DB8
  5
C84
331
C4B
  5
C83
331
AED
  5
AF7
331
A47
  5
A4E
331
10CD
  5
10D1
331
FC6
  5
FE3
331
960
  5
96C
331
AAE
  5
AB7
331
C0C
  5
C16
331
C53
  5
C85
331
AF5
  5
AFF
331
A4F
  5
A56
331
AB6
  5
ABF
331
C1C
  5
C24
331
970
  5
A2E
331
A57
  5
A5E
331
ABE
  5
AC7
331
AFD
  5
BFC
331
931
  5
935
331
C24
  5
C2C
331
C6B
  5
CB7
331
A5F
  5
A66
331
AC6
  5
AD0
331
6DF
  5
709
331
601
  5
606
331
6E7
  5
711
331
6A8
  5
6DD
331
9A8
  5
A33
331
939
  5
93D
331
74A
  5
776
331
C2C
  5
C34
331
C83
  5
D1C
331
A67
  5
AA2
331
ACE
  5
AD9
331
752
  5
77E
331
C34
  5
C6D
331
951
  5
95C
331
AD6
  5
AE0
331
BFD
  5
C05
331
CBB
  5
FCB
331
A38
  5
A42
331
AA7
  5
AB0
331
ADE
  5
AE8
331
C05
  5
C0D
331
7E2
  5
8C9
331
AE6
  5
AF0
  0
SORTENTSTABLE
  5
D13
102
{ACAD_REACTORS
330
D12
102
}
330
D12
100
AcDbSortentsTable
330
CC0
331
CD0
  5
CCA
331
CC7
  5
CD2
331
CC5
  5
CC8
331
CCE
  5
CC7
331
CCC
  5
CC4
331
CC3
  5
CCB
331
CD5
  5
CCC
331
CCA
  5
CD0
331
CD3
  5
CD1
331
CD1
  5
CC9
331
CC8
  5
CD3
331
CC6
  5
CCE
331
CCF
  5
CC6
331
CC4
  5
CC5
331
CD4
  5
CC3
331
CCB
  5
CD5
331
CD2
  5
CCF
331
CC9
  5
CD4
  0
SORTENTSTABLE
  5
140B
102
{ACAD_REACTORS
330
140A
102
}
330
140A
100
AcDbSortentsTable
330
137C
  0
SORTENTSTABLE
  5
1520
102
{ACAD_REACTORS
330
151F
102
}
330
151F
100
AcDbSortentsTable
330
1504
  0
SORTENTSTABLE
  5
1568
102
{ACAD_REACTORS
330
1567
102
}
330
1567
100
AcDbSortentsTable
330
1562
  0
XRECORD
  5
1597
102
{ACAD_REACTORS
330
1596
102
}
330
1596
100
AcDbXrecord
280
     1
102
SHADEPLOT
 70
     0
  0
XRECORD
  5
1595
102
{ACAD_REACTORS
330
1594
102
}
330
1594
100
AcDbXrecord
280
     1
 70
     1
  0
LAYOUT
  5
153
102
{ACAD_XDICTIONARY
360
44F
102
}
102
{ACAD_REACTORS
330
150
102
}
330
150
100
AcDbPlotSettings
  1

  2
none_device
  4
Letter_(8.50_x_11.00_Inches)
  6

 40
6.349999904632567
 41
6.349999904632567
 42
6.350006103515625
 43
6.350006103515625
 44
215.8999938964844
 45
279.3999938964844
 46
0.0
 47
0.0
 48
0.0
 49
0.0
140
0.0
141
0.0
142
1.0
143
1.0
 70
   688
 72
     0
 73
     1
 74
     5
  7

 75
     0
147
1.0
148
0.0
149
0.0
100
AcDbLayout
  1
Layout1
 70
     1
 71
     1
 10
-0.2500002402958907
 20
-0.2499999962453767
 11
10.74999951940821
 21
8.249999763458731
 12
0.0
 22
0.0
 32
0.0
 14
1.000000000000000E+20
 24
1.000000000000000E+20
 34
1.000000000000000E+20
 15
-1.000000000000000E+20
 25
-1.000000000000000E+20
 35
-1.000000000000000E+20
146
0.0
 13
0.0
 23
0.0
 33
0.0
 16
1.0
 26
0.0
 36
0.0
 17
0.0
 27
1.0
 37
0.0
 76
     0
330
16
331
BA
  0
LAYOUT
  5
152
102
{ACAD_XDICTIONARY
360
1598
102
}
102
{ACAD_REACTORS
330
150
102
}
330
150
100
AcDbPlotSettings
  1

  2
none_device
  4
Letter_(8.50_x_11.00_Inches)
  6

 40
6.349999904632567
 41
6.349999904632567
 42
6.350006103515625
 43
6.350006103515625
 44
215.8999938964844
 45
279.3999938964844
 46
0.0
 47
0.0
 48
0.0
 49
0.0
140
0.0
141
0.0
142
1.0
143
3.971375327973914
 70
 11952
 72
     0
 73
     1
 74
     0
  7

 75
     0
147
0.2518019369652911
148
-1335.933498865393
149
-306.880800738105
100
AcDbLayout
  1
Model
 70
     1
 71
     0
 10
0.0
 20
0.0
 11
12.0
 21
9.0
 12
0.0
 22
0.0
 32
0.0
 14
0.0
 24
0.0
 34
0.0
 15
0.0
 25
0.0
 35
0.0
146
0.0
 13
0.0
 23
0.0
 33
0.0
 16
1.0
 26
0.0
 36
0.0
 17
0.0
 27
1.0
 37
0.0
 76
     0
330
19
331
57D
1001
ACAD_PSEXT
1000
None
1000
None
1000
Not applicable
1000
The layout will not be plotted unless a new plotter configuration name is selected.
1070
     0
  0
MATERIAL
  5
580
102
{ACAD_XDICTIONARY
360
1102
102
}
102
{ACAD_REACTORS
330
3F7
102
}
330
3F7
100
AcDbMaterial
  1
ByBlock
  0
MATERIAL
  5
57F
102
{ACAD_XDICTIONARY
360
1100
102
}
102
{ACAD_REACTORS
330
3F7
102
}
330
3F7
100
AcDbMaterial
  1
ByLayer
  0
MATERIAL
  5
581
102
{ACAD_XDICTIONARY
360
1104
102
}
102
{ACAD_REACTORS
330
3F7
102
}
330
3F7
100
AcDbMaterial
  1
Global
  0
MLINESTYLE
  5
1C
102
{ACAD_REACTORS
330
E
102
}
330
E
100
AcDbMlineStyle
  2
STANDARD
 70
     0
  3

 62
     0
 51
90.0
 52
90.0
 71
     2
 49
0.5
 62
   256
  6
BYLAYER
 49
-0.5
 62
   256
  6
BYLAYER
  0
ACDBPLACEHOLDER
  5
14F
102
{ACAD_REACTORS
330
14E
102
}
330
14E
  0
TABLESTYLE
  5
3FA
102
{ACAD_XDICTIONARY
360
159B
102
}
102
{ACAD_REACTORS
330
3F9
102
}
330
3F9
100
AcDbTableStyle
  3
Standard
 70
     0
 71
     0
 40
0.06
 41
0.06
280
     0
281
     0
  7
STANDARD
140
0.18
170
     2
 62
     0
 63
     7
283
     0
274
    -2
284
     1
 64
     0
275
    -2
285
     1
 65
     0
276
    -2
286
     1
 66
     0
277
    -2
287
     1
 67
     0
278
    -2
288
     1
 68
     0
279
    -2
289
     1
 69
     0
  7
STANDARD
140
0.25
170
     5
 62
     0
 63
     7
283
     0
274
    -2
284
     1
 64
     0
275
    -2
285
     1
 65
     0
276
    -2
286
     1
 66
     0
277
    -2
287
     1
 67
     0
278
    -2
288
     1
 68
     0
279
    -2
289
     1
 69
     0
  7
STANDARD
140
0.18
170
     5
 62
     0
 63
     7
283
     0
274
    -2
284
     1
 64
     0
275
    -2
285
     1
 65
     0
276
    -2
286
     1
 66
     0
277
    -2
287
     1
 67
     0
278
    -2
288
     1
 68
     0
279
    -2
289
     1
 69
     0
  0
VISUALSTYLE
  5
588
102
{ACAD_REACTORS
330
582
102
}
330
582
100
AcDbVisualStyle
  2
2dWireframe
 70
     4
 71
     0
 72
     2
 73
     0
 90
        0
 40
-0.6
 41
-30.0
 62
     5
 63
     7
 74
     1
 91
        4
 64
     7
 65
   257
 75
     1
175
     1
 42
1.0
 92
        0
 66
   257
 43
1.0
 76
     1
 77
     6
 78
     2
 67
     7
 79
     5
170
     0
171
     0
290
     0
174
     0
 93
        1
 44
0.0
173
     0
291
     0
 45
0.0
1001
ACAD
1000
AcDbSavedByObjectVersion
1070
     0
  0
VISUALSTYLE
  5
58A
102
{ACAD_REACTORS
330
582
102
}
330
582
100
AcDbVisualStyle
  2
3D Hidden
 70
     6
 71
     1
 72
     2
 73
     2
 90
        0
 40
-0.6
 41
-30.0
 62
     5
 63
     7
 74
     2
 91
        2
 64
     7
 65
   257
 75
     2
175
     1
 42
40.0
 92
        0
 66
   257
 43
1.0
 76
     1
 77
     6
 78
     2
 67
     7
 79
     3
170
     0
171
     0
290
     0
174
     0
 93
        1
 44
0.0
173
     0
291
     0
 45
0.0
1001
ACAD
1000
AcDbSavedByObjectVersion
1070
     0
  0
VISUALSTYLE
  5
589
102
{ACAD_REACTORS
330
582
102
}
330
582
100
AcDbVisualStyle
  2
3dWireframe
 70
     5
 71
     0
 72
     2
 73
     0
 90
        0
 40
-0.6
 41
-30.0
 62
     5
 63
     7
 74
     1
 91
        4
 64
     7
 65
   257
 75
     1
175
     1
 42
1.0
 92
        0
 66
   257
 43
1.0
 76
     1
 77
     6
 78
     2
 67
     7
 79
     5
170
     0
171
     0
290
     0
174
     0
 93
        1
 44
0.0
173
     0
291
     0
 45
0.0
1001
ACAD
1000
AcDbSavedByObjectVersion
1070
     0
  0
VISUALSTYLE
  5
587
102
{ACAD_REACTORS
330
582
102
}
330
582
100
AcDbVisualStyle
  2
Basic
 70
     7
 71
     1
 72
     0
 73
     1
 90
        0
 40
-0.6
 41
-30.0
 62
     5
 63
     7
 74
     0
 91
        4
 64
     7
 65
   257
 75
     1
175
     1
 42
1.0
 92
        8
 66
     7
 43
1.0
 76
     1
 77
     6
 78
     2
 67
     7
 79
     5
170
     0
171
     0
290
     0
174
     0
 93
        1
 44
0.0
173
     0
291
     1
 45
0.0
1001
ACAD
1000
AcDbSavedByObjectVersion
1070
     0
  0
VISUALSTYLE
  5
58E
102
{ACAD_REACTORS
330
582
102
}
330
582
100
AcDbVisualStyle
  2
Brighten
 70
    12
 71
     2
 72
     2
 73
     0
 90
        0
 40
-0.6
 41
-30.0
 62
     5
 63
     7
 74
     1
 91
        4
 64
     7
 65
   257
 75
     1
175
     1
 42
1.0
 92
        8
 66
     7
 43
1.0
 76
     1
 77
     6
 78
     2
 67
     7
 79
     5
170
     0
171
     0
290
     0
174
     0
 93
        1
 44
50.0
173
     0
291
     1
 45
0.0
1001
ACAD
1000
AcDbSavedByObjectVersion
1070
     0
  0
VISUALSTYLE
  5
592
102
{ACAD_REACTORS
330
582
102
}
330
582
100
AcDbVisualStyle
  2
ColorChange
 70
    16
 71
     2
 72
     2
 73
     3
 90
        0
 40
-0.6
 41
-30.0
 62
     5
 63
     8
 74
     1
 91
        4
 64
     7
 65
   257
 75
     1
175
     1
 42
1.0
 92
        8
 66
     8
 43
1.0
 76
     1
 77
     6
 78
     2
 67
     7
 79
     5
170
     0
171
     0
290
     0
174
     0
 93
        1
 44
0.0
173
     0
291
     1
 45
0.0
1001
ACAD
1000
AcDbSavedByObjectVersion
1070
     0
  0
VISUALSTYLE
  5
58B
102
{ACAD_REACTORS
330
582
102
}
330
582
100
AcDbVisualStyle
  2
Conceptual
 70
     9
 71
     3
 72
     2
 73
     0
 90
        0
 40
-0.6
 41
-30.0
 62
     5
 63
     7
 74
     2
 91
        2
 64
     7
 65
   257
 75
     1
175
     1
 42
40.0
 92
        8
 66
     7
 43
1.0
 76
     1
 77
     6
 78
     2
 67
     7
 79
     3
170
     0
171
     0
290
     0
174
     0
 93
        1
 44
0.0
173
     0
291
     0
 45
0.0
1001
ACAD
1000
AcDbSavedByObjectVersion
1070
     0
  0
VISUALSTYLE
  5
58D
102
{ACAD_REACTORS
330
582
102
}
330
582
100
AcDbVisualStyle
  2
Dim
 70
    11
 71
     2
 72
     2
 73
     0
 90
        0
 40
-0.6
 41
-30.0
 62
     5
 63
     7
 74
     1
 91
        4
 64
     7
 65
   257
 75
     1
175
     1
 42
1.0
 92
        8
 66
     7
 43
1.0
 76
     1
 77
     6
 78
     2
 67
     7
 79
     5
170
     0
171
     0
290
     0
174
     0
 93
        1
 44
-50.0
173
     0
291
     1
 45
0.0
1001
ACAD
1000
AcDbSavedByObjectVersion
1070
     0
  0
VISUALSTYLE
  5
591
102
{ACAD_REACTORS
330
582
102
}
330
582
100
AcDbVisualStyle
  2
Facepattern
 70
    15
 71
     2
 72
     2
 73
     0
 90
        0
 40
-0.6
 41
-30.0
 62
     5
 63
     7
 74
     1
 91
        4
 64
     7
 65
   257
 75
     1
175
     1
 42
1.0
 92
        8
 66
     7
 43
1.0
 76
     1
 77
     6
 78
     2
 67
     7
 79
     5
170
     0
171
     0
290
     0
174
     0
 93
        1
 44
0.0
173
     0
291
     1
 45
0.0
1001
ACAD
1000
AcDbSavedByObjectVersion
1070
     0
  0
VISUALSTYLE
  5
583
102
{ACAD_REACTORS
330
582
102
}
330
582
100
AcDbVisualStyle
  2
Flat
 70
     0
 71
     2
 72
     1
 73
     1
 90
        2
 40
-0.6
 41
30.0
 62
     5
 63
     7
 74
     0
 91
        4
 64
     7
 65
   257
 75
     1
175
     1
 42
1.0
 92
        8
 66
     7
 43
1.0
 76
     1
 77
     6
 78
     2
 67
     7
 79
     5
170
     0
171
     0
290
     0
174
     0
 93
       13
 44
0.0
173
     0
291
     1
 45
0.0
1001
ACAD
1000
AcDbSavedByObjectVersion
1070
     0
  0
VISUALSTYLE
  5
584
102
{ACAD_REACTORS
330
582
102
}
330
582
100
AcDbVisualStyle
  2
FlatWithEdges
 70
     1
 71
     2
 72
     1
 73
     1
 90
        2
 40
-0.6
 41
30.0
 62
     5
 63
     7
 74
     1
 91
        4
 64
     7
 65
   257
 75
     1
175
     1
 42
1.0
 92
        0
 66
   257
 43
1.0
 76
     1
 77
     6
 78
     2
 67
     7
 79
     5
170
     0
171
     0
290
     0
174
     0
 93
       13
 44
0.0
173
     0
291
     1
 45
0.0
1001
ACAD
1000
AcDbSavedByObjectVersion
1070
     0
  0
VISUALSTYLE
  5
585
102
{ACAD_REACTORS
330
582
102
}
330
582
100
AcDbVisualStyle
  2
Gouraud
 70
     2
 71
     2
 72
     2
 73
     1
 90
        2
 40
-0.6
 41
30.0
 62
     5
 63
     7
 74
     0
 91
        4
 64
     7
 65
   257
 75
     1
175
     1
 42
1.0
 92
        0
 66
     7
 43
1.0
 76
     1
 77
     6
 78
     2
 67
     7
 79
     5
170
     0
171
     0
290
     0
174
     0
 93
       13
 44
0.0
173
     0
291
     1
 45
0.0
1001
ACAD
1000
AcDbSavedByObjectVersion
1070
     0
  0
VISUALSTYLE
  5
586
102
{ACAD_REACTORS
330
582
102
}
330
582
100
AcDbVisualStyle
  2
GouraudWithEdges
 70
     3
 71
     2
 72
     2
 73
     1
 90
        2
 40
-0.6
 41
30.0
 62
     5
 63
     7
 74
     1
 91
        4
 64
     7
 65
   257
 75
     1
175
     1
 42
1.0
 92
        0
 66
   257
 43
1.0
 76
     1
 77
     6
 78
     2
 67
     7
 79
     5
170
     0
171
     0
290
     0
174
     0
 93
       13
 44
0.0
173
     0
291
     1
 45
0.0
1001
ACAD
1000
AcDbSavedByObjectVersion
1070
     0
  0
VISUALSTYLE
  5
590
102
{ACAD_REACTORS
330
582
102
}
330
582
100
AcDbVisualStyle
  2
Linepattern
 70
    14
 71
     2
 72
     2
 73
     0
 90
        0
 40
-0.6
 41
-30.0
 62
     5
 63
     7
 74
     1
 91
        4
 64
     7
 65
   257
 75
     7
175
     7
 42
1.0
 92
        8
 66
     7
 43
1.0
 76
     1
 77
     6
 78
     2
 67
     7
 79
     5
170
     0
171
     0
290
     0
174
     0
 93
        1
 44
0.0
173
     0
291
     1
 45
0.0
1001
ACAD
1000
AcDbSavedByObjectVersion
1070
     0
  0
VISUALSTYLE
  5
58C
102
{ACAD_REACTORS
330
582
102
}
330
582
100
AcDbVisualStyle
  2
Realistic
 70
     8
 71
     2
 72
     2
 73
     0
 90
        0
 40
-0.6
 41
-30.0
 62
     5
 63
     7
 74
     1
 91
        0
 64
     7
 65
   257
 75
     1
175
     1
 42
1.0
 92
        8
 66
     8
 43
1.0
 76
     1
 77
     6
 78
     2
 67
     7
 79
     5
170
     0
171
     0
290
     0
174
     0
 93
       13
 44
0.0
173
     0
291
     0
 45
0.0
1001
ACAD
1000
AcDbSavedByObjectVersion
1070
     0
  0
VISUALSTYLE
  5
58F
102
{ACAD_REACTORS
330
582
102
}
330
582
100
AcDbVisualStyle
  2
Thicken
 70
    13
 71
     2
 72
     2
 73
     0
 90
        0
 40
-0.6
 41
-30.0
 62
     5
 63
     7
 74
     1
 91
        4
 64
     7
 65
   257
 75
     1
175
     1
 42
1.0
 92
       12
 66
     7
 43
1.0
 76
     1
 77
     6
 78
     2
 67
     7
 79
     5
170
     0
171
     0
290
     0
174
     0
 93
        1
 44
0.0
173
     0
291
     1
 45
0.0
1001
ACAD
1000
AcDbSavedByObjectVersion
1070
     0
  0
DICTIONARYVAR
  5
429
102
{ACAD_REACTORS
330
FA
102
}
330
FA
100
DictionaryVariables
280
     0
  1
STANDARD
  0
DICTIONARYVAR
  5
3F5
102
{ACAD_REACTORS
330
FA
102
}
330
FA
100
DictionaryVariables
280
     0
  1
1
  0
DICTIONARYVAR
  5
FB
102
{ACAD_REACTORS
330
FA
102
}
330
FA
100
DictionaryVariables
280
     0
  1
1
  0
DICTIONARYVAR
  5
1592
102
{ACAD_REACTORS
330
FA
102
}
330
FA
100
DictionaryVariables
280
     0
  1
127
  0
DICTIONARY
  5
2C1
102
{ACAD_REACTORS
330
189
102
}
330
189
100
AcDbDictionary
281
     1
  0
XRECORD
  5
402
102
{ACAD_REACTORS
330
189
102
}
330
189
100
AcDbXrecord
280
     1
 90
-1023410169
  0
DICTIONARY
  5
159
102
{ACAD_REACTORS
330
158
102
}
330
158
100
AcDbDictionary
281
     1
  3
DWGSETTINGS
350
11B3
  3
TRANSSETTINGS
350
11B4
  0
ACAMGFILTERDAT
  5
1BE
102
{ACAD_REACTORS
330
1BA
102
}
330
1BA
100
AcAmgFilterDat
 70
    15
  1
DIMENSION,AMDT_*_DIM
  2
*
  3
*
  4
*
  5
*
290
     1
  0
ACAMGFILTERDAT
  5
1BD
102
{ACAD_REACTORS
330
1BA
102
}
330
1BA
100
AcAmgFilterDat
 70
    15
  1
*
  2
AM_FEA-AM_*
  3
*
  4
*
  5
*
290
     1
  0
ACAMGFILTERDAT
  5
1BB
102
{ACAD_REACTORS
330
1BA
102
}
330
1BA
100
AcAmgFilterDat
 70
    15
  1
HATCH
  2
*
  3
*
  4
*
  5
*
290
     1
  0
ACAMGFILTERDAT
  5
1BC
102
{ACAD_REACTORS
330
1BA
102
}
330
1BA
100
AcAmgFilterDat
 70
    15
  1
ACMFCFRAME,ACMDATUMTARGET,ACMDATUMID,ACMWELDSYM,ACMSURFSYM,ACMFEATID,ACMPARTREF,ACMBALLOON
  2
*
  3
*
  4
*
  5
*
290
     1
  0
LAYER_INDEX
  5
1062
102
{ACAD_REACTORS
330
1061
102
}
330
1061
100
AcDbIndex
 40
2454784.457314016
100
AcDbLayerIndex
  8
0
360
1063
 90
       31
  8
Defpoints
360
1064
 90
        1
  8
Part
360
1065
 90
      379
  8
Dimensions
360
1066
 90
        0
  8
AM_0
360
1067
 90
        0
  8
Notes
360
1068
 90
        5
  8
Label
360
1069
 90
       10
  8
Schematics
360
156D
 90
       11
  0
DICTIONARY
  5
44F
330
153
100
AcDbDictionary
280
     1
281
     1
  3
ACAD_XREC_ROUNDTRIP
360
159A
  3
ADSK_XREC_LAYOUTTHUMBNAIL
360
450
  0
DICTIONARY
  5
1598
330
152
100
AcDbDictionary
280
     1
281
     1
  3
ACAD_XREC_ROUNDTRIP
360
1599
  0
DICTIONARY
  5
1102
330
580
100
AcDbDictionary
280
     1
281
     1
  3
ACAD_XREC_ROUNDTRIP
360
1103
  0
DICTIONARY
  5
1100
330
57F
100
AcDbDictionary
280
     1
281
     1
  3
ACAD_XREC_ROUNDTRIP
360
1101
  0
DICTIONARY
  5
1104
330
581
100
AcDbDictionary
280
     1
281
     1
  3
ACAD_XREC_ROUNDTRIP
360
1105
  0
DICTIONARY
  5
159B
330
3FA
100
AcDbDictionary
280
     1
281
     1
  3
ACAD_XREC_ROUNDTRIP
360
159C
  0
IDBUFFER
  5
1063
330
0
100
AcDbIdBuffer
330
692
330
10B7
330
10B8
330
10B9
330
10BA
330
10BB
330
10BC
330
10BD
330
10BE
330
10BF
330
10C0
330
10C1
330
10C2
330
10C3
330
10C4
330
10C5
330
10C6
330
10C7
330
10C8
330
10C9
330
10CA
330
10CB
330
10CC
330
10CD
330
10CE
330
10CF
330
10D0
330
10D1
330
10D2
330
10D3
330
10D4
  0
IDBUFFER
  5
1064
330
0
100
AcDbIdBuffer
330
156C
  0
IDBUFFER
  5
1065
330
0
100
AcDbIdBuffer
330
5FE
330
5FF
330
600
330
601
330
604
330
605
330
606
330
616
330
617
330
618
330
61D
330
61E
330
61F
330
620
330
621
330
6A2
330
6A3
330
6A4
330
6A5
330
6A6
330
6A8
330
6A9
330
6AA
330
6AB
330
6B4
330
6B8
330
6B9
330
6BA
330
6CC
330
6CE
330
6D1
330
6D2
330
6D7
330
6D8
330
6D9
330
6DA
330
6DB
330
6DC
330
6DD
330
6DE
330
6DF
330
6E0
330
6E1
330
6E2
330
6E3
330
6E4
330
6E5
330
6E6
330
6E7
330
6E8
330
718
330
719
330
71A
330
71B
330
71D
330
71E
330
71F
330
720
330
73D
330
73F
330
740
330
745
330
746
330
747
330
748
330
749
330
74A
330
74B
330
74C
330
74D
330
74E
330
74F
330
750
330
751
330
752
330
7DC
330
7DD
330
7DE
330
7DF
330
7E0
330
7E1
330
7E2
330
8FD
330
92C
330
92D
330
92E
330
92F
330
930
330
931
330
932
330
933
330
934
330
935
330
936
330
937
330
938
330
939
330
93A
330
93B
330
93C
330
94D
330
94E
330
94F
330
950
330
951
330
952
330
954
330
955
330
956
330
957
330
958
330
959
330
95A
330
95B
330
95C
330
95D
330
95F
330
960
330
961
330
962
330
963
330
964
330
965
330
966
330
967
330
969
330
96A
330
96B
330
96C
330
96D
330
96E
330
96F
330
970
330
971
330
9A8
330
9A9
330
9AA
330
9AD
330
9AE
330
A2D
330
A32
330
A33
330
A36
330
A38
330
A39
330
A3A
330
A3B
330
A3C
330
A3D
330
A3E
330
A3F
330
A40
330
A41
330
A42
330
A43
330
A44
330
A45
330
A46
330
A47
330
A48
330
A49
330
A4A
330
A4B
330
A4C
330
A4D
330
A4E
330
A4F
330
A50
330
A51
330
A52
330
A53
330
A54
330
A55
330
A56
330
A57
330
A58
330
A59
330
A5A
330
A5B
330
A5C
330
A5D
330
A5E
330
A5F
330
A60
330
A61
330
A62
330
A63
330
A64
330
A65
330
A66
330
A67
330
A68
330
A69
330
A6A
330
A6B
330
AA1
330
AA4
330
AA5
330
AA6
330
AA7
330
AA8
330
AA9
330
AAA
330
AAB
330
AAC
330
AAD
330
AAE
330
AAF
330
AB0
330
AB1
330
AB2
330
AB3
330
AB4
330
AB5
330
AB6
330
AB7
330
AB8
330
AB9
330
ABA
330
ABB
330
ABC
330
ABD
330
ABE
330
ABF
330
AC0
330
AC1
330
AC2
330
AC3
330
AC4
330
AC5
330
AC6
330
AC7
330
AC8
330
AC9
330
ACA
330
ACB
330
ACC
330
ACD
330
ACE
330
AD0
330
AD1
330
AD2
330
AD3
330
AD4
330
AD5
330
AD6
330
AD7
330
AD8
330
AD9
330
ADA
330
ADB
330
ADC
330
ADD
330
ADE
330
ADF
330
AE0
330
AE1
330
AE2
330
AE3
330
AE4
330
AE5
330
AE6
330
AE7
330
AE8
330
AE9
330
AEA
330
AEB
330
AEC
330
AED
330
AEE
330
AEF
330
AF0
330
AF1
330
AF2
330
AF3
330
AF4
330
AF5
330
AF6
330
AF7
330
AF8
330
AF9
330
AFA
330
AFB
330
AFC
330
AFD
330
AFE
330
AFF
330
B00
330
B01
330
B02
330
BFA
330
BFB
330
BFC
330
BFD
330
BFE
330
BFF
330
C00
330
C01
330
C02
330
C03
330
C04
330
C05
330
C06
330
C07
330
C08
330
C09
330
C0A
330
C0B
330
C0C
330
C0D
330
C0E
330
C0F
330
C10
330
C11
330
C12
330
C13
330
C16
330
C17
330
C18
330
C19
330
C1A
330
C1B
330
C1C
330
C1D
330
C1E
330
C1F
330
C20
330
C21
330
C22
330
C23
330
C24
330
C25
330
C26
330
C27
330
C28
330
C29
330
C2A
330
C2B
330
C2C
330
C2D
330
C2E
330
C2F
330
C30
330
C31
330
C32
330
C33
330
C34
330
C37
330
C40
330
C45
330
C4B
330
C53
330
C65
330
C6B
330
C6D
330
C80
330
C81
330
C82
330
C83
330
C84
330
C85
330
C86
330
DB8
330
FC4
330
FC5
330
FC6
330
FC8
330
FC9
330
FCA
330
FCB
330
FCC
330
1334
330
1375
330
137A
330
140F
330
1411
330
1417
330
14C0
330
14FD
  0
IDBUFFER
  5
1066
330
0
100
AcDbIdBuffer
  0
IDBUFFER
  5
1067
330
0
100
AcDbIdBuffer
  0
IDBUFFER
  5
1068
330
0
100
AcDbIdBuffer
330
CB7
330
CB8
330
CB9
330
CBA
330
CBB
  0
IDBUFFER
  5
1069
330
0
100
AcDbIdBuffer
330
6ED
330
6EE
330
7E4
330
7EA
330
7EB
330
154C
330
154D
330
1559
330
155F
330
1560
  0
IDBUFFER
  5
156D
330
0
100
AcDbIdBuffer
330
1545
330
1546
330
1547
330
1548
330
1549
330
154A
330
154B
330
1557
330
1558
330
155B
330
155C
  0
XRECORD
  5
159A
102
{ACAD_REACTORS
330
44F
102
}
330
44F
100
AcDbXrecord
280
     1
102
SHADEPLOT
 70
     0
102
SHADEPLOTRESLEVEL
 70
     2
102
SHADEPLOTCUSTOMDPI
 70
   300
  0
XRECORD
  5
450
102
{ACAD_REACTORS
330
44F
102
}
330
44F
100
AcDbXrecord
280
     1
310
28000000B40000008B0000000100080000000000BC61000000000000000000000001000000000000FFFFFF0000000000FFFFFF000000000000000000000000000000000000000000000000000000000000000000330000006600000099000000CC000000FF00000000330000333300006633000099330000CC330000FF3300
310
0000660000336600006666000099660000CC660000FF66000000990000339900006699000099990000CC990000FF99000000CC000033CC000066CC000099CC0000CCCC0000FFCC000000FF000033FF000066FF000099FF0000CCFF0000FFFF000000003300330033006600330099003300CC003300FF003300003333003333
310
33006633330099333300CC333300FF33330000663300336633006666330099663300CC663300FF66330000993300339933006699330099993300CC993300FF99330000CC330033CC330066CC330099CC3300CCCC3300FFCC330000FF330033FF330066FF330099FF3300CCFF3300FFFF330000006600330066006600660099
310
006600CC006600FF00660000336600333366006633660099336600CC336600FF33660000666600336666006666660099666600CC666600FF66660000996600339966006699660099996600CC996600FF99660000CC660033CC660066CC660099CC6600CCCC6600FFCC660000FF660033FF660066FF660099FF6600CCFF6600
310
FFFF660000009900330099006600990099009900CC009900FF00990000339900333399006633990099339900CC339900FF33990000669900336699006666990099669900CC669900FF66990000999900339999006699990099999900CC999900FF99990000CC990033CC990066CC990099CC9900CCCC9900FFCC990000FF99
310
0033FF990066FF990099FF9900CCFF9900FFFF99000000CC003300CC006600CC009900CC00CC00CC00FF00CC000033CC003333CC006633CC009933CC00CC33CC00FF33CC000066CC003366CC006666CC009966CC00CC66CC00FF66CC000099CC003399CC006699CC009999CC00CC99CC00FF99CC0000CCCC0033CCCC0066CC
310
CC0099CCCC00CCCCCC00FFCCCC0000FFCC0033FFCC0066FFCC0099FFCC00CCFFCC00FFFFCC000000FF003300FF006600FF009900FF00CC00FF00FF00FF000033FF003333FF006633FF009933FF00CC33FF00FF33FF000066FF003366FF006666FF009966FF00CC66FF00FF66FF000099FF003399FF006699FF009999FF00CC
310
99FF00FF99FF0000CCFF0033CCFF0066CCFF0099CCFF00CCCCFF00FFCCFF0000FFFF0033FFFF0066FFFF0099FFFF00CCFFFF00FFFFFF00000000000D0D0D001A1A1A00282828003535350043434300505050005D5D5D006B6B6B00787878008686860093939300A1A1A100AEAEAE00BBBBBB00C9C9C900D6D6D600E4E4E400
310
F1F1F100FFFFFF0000000000000000000000000000000000000000000000000000000000000000000000000000000000E2E2E2E2E2E2E2E2E2E2E2E2E2E2E2E2E2E2E2E2E2E2E2E2E2E2E2E2E2E2E2E2E2E2E2E2E2E2E2E2E2E2E2E2E2E2E2E2E2E2E2E2E2E2E2E2E2E2E2E2E2E2E2E2E2E2E2E2E2E2E2E2E2E2E2E2E2E2E2
310
E2E2E2E2E2E2E2E2E2E2E2E2E2E2E2E2E2E2E2E2E2E2E2E2E2E2E2E2E2E2E2E2E2E2E2E2E2E2E2E2E2E2E2E2E2E2E2E2E2E2E2E2E2E2E2E2E2E2E2E2E2E2E2E2E2E2E2E2E2E2E2E2E2E2E2E2E2E2E2E2E2E2E2E2E2E2E2E2E2E2E2E2E2E2E2E2E2E2E2E2E2E2F5F5F5F5F5F5F5F5F5F5F5F5F5F5F5F5F5F5F5F5F5F5F5F5F5
310
F5F5F5F5F5F5F5F5F5F5F5F5F5F5F5F5F5F5F5F5F5F5F5F5F5F5F5F5F5F5F5F5F5F5F5F5F5F5F5F5F5F5F5F5F5F5F5F5F5F5F5F5F5F5F5F5F5F5F5F5F5F5F5F5F5F5F5F5F5F5F5F5F5F5F5F5F5F5F5F5F5F5F5F5F5F5F5F5F5F5F5F5F5F5F5F5F5F5F5F5F5F5F5F5F5F5F5F5F5F5F5F5F5F5F5F5F5F5F5F5F5F5F5F5F5F5F5
310
F5F5F5F5F5F5F5F5F5F5F5F5F5F5F5F5F5F5F5F5F5F5F5F5F5F5E2E2F5F5F5F5F5F5F5F5F5F5F5F5F5F5F5F5F5F5F5F5F5F5F5F5F5F5F5F5F5F5F5F5F5F5F5F5F5F5F5F5F5F5F5F5F5F5F5F5F5F5F5F5F5F5F5F5F5F5F5F5F5F5F5F5F5F5F5F5F5F5F5F5F5F5F5F5F5F5F5F5F5F5F5F5F5F5F5F5F5F5F5F5F5F5F5F5F5F5F5
310
F5F5F5F5F5F5F5F5F5F5F5F5F5F5F5F5F5F5F5F5F5F5F5F5F5F5F5F5F5F5F5F5F5F5F5F5F5F5F5F5F5F5F5F5F5F5F5F5F5F5F5F5F5F5F5F5F5F5F5F5F5F5F5F5F5F5F5F5F5F5F5F5F5F5F5F5F5F5F5E2E2F5F5F5F5F5F5F5F5F5F5F5F5F5F5F5F5F5F5F5F5F5F5F5F5F5F5F5F5F5F5F5F5F5F5F5F5F5F5F5F5F5F5F5F5F5F5
310
F5F5F5F5F5F5F5F5F5F5F5F5F5F5F5F5F5F5F5F5F5F5F5F5F5F5F5F5F5F5F5F5F5F5F5F5F5F5F5F5F5F5F5F5F5F5F5F5F5F5F5F5F5F5F5F5F5F5F5F5F5F5F5F5F5F5F5F5F5F5F5F5F5F5F5F5F5F5F5F5F5F5F5F5F5F5F5F5F5F5F5F5F5F5F5F5F5F5F5F5F5F5F5F5F5F5F5F5F5F5F5F5F5F5F5F5F5F5F5F5F5F5F5F5F5F5F5
310
F5F5F5F5F5E2E2F5F5F5F5F5F5F5F5F5F5F5F5F5F5F5F5F5F5F5F5F5F5F5F5F5F5F5F5F5F5F5F5F5F5F5F5F5F5F5F5F5F5F5F5F5F5F5F5F5F5F5F5F5F5F5F5F5F5F5F5F5F5F5F5F5F5F5F5F5F5F5F5F5F5F5F5F5F5F5F5F5F5F5F5F5F5F5F5F5F5F5F5F5F5F5F5F5F5F5F5F5F5F5F5F5F5F5F5F5F5F5F5F5F5F5F5F5F5F5F5
310
F5F5F5F5F5F5F5F5F5F5F5F5F5F5F5F5F5F5F5F5F5F5F5F5F5F5F5F5F5F5F5F5F5F5F5F5F5F5F5F5F5F5F5F5F5F5F5F5F5F5F5F5F5F5F5F5F5F5E2E2F5F5F5E2E2E2E2E2E2E2E2F5F5F5F5F5F5F5F5F5E2E2E2E2E2E2E2E2E2E2E2E2E2E2E2E2F5F5F5F5F5F5F5F5F5E2E2E2E2E2E2E2E2E2E2E2E2E2E2E2F5F5F5F5F5F5F5
310
F5F5E2E2E2E2E2E2E2E2E2E2E2E2E2E2E2E2F5F5F5F5F5F5F5F5E2E2E2E2E2E2E2E2E2E2E2E2E2E2E2E2F5F5F5F5F5F5F5F5F5E2E2E2E2E2E2E2E2E2E2E2E2E2E2E2F5F5F5F5F5F5F5F5F5E2E2E2E2E2E2E2E2E2E2E2E2E2E2E2E2F5F5F5F5F5F5F5F5F5E2E2E2E2E2E2E2E2F5F5F5E2E2F5F5F5E2F5F5F5F5F5F5F5F5F5F5
310
F5F5F5F5F5F5F5F5F5F5F5F5F5F5F5F5F5F5F5F5F5F5F5F5F5F5F5F5F5F5F5F5F5F5F5F5F5F5F5F5F5F5F5F5F5F5F5F5F5F5F5F5F5F5F5F5F5F5F5F5F5F5F5F5F5F5F5F5F5F5F5F5F5F5F5F5F5F5F5F5F5F5F5F5F5F5F5F5F5F5F5F5F5F5F5F5F5F5F5F5F5F5F5F5F5F5F5F5F5F5F5F5F5F5F5F5F5F5F5F5F5F5F5F5F5F5F5
310
F5F5F5F5F5F5F5F5F5F5F5F5F5F5F5F5F5F5F5F5F5F5F5F5F5F5F5F5F5F5F5F5F5E2F5F5F5E2E2F5F5F5E2F5F5F5F5F5F5F5F5F5F5F5F5F5F5F5F5F5F5F5F5F5F5F5F5F5F5F5F5F5F5F5F5F5F5F5F5F5F5F5F5F5F5F5F5F5F5F5F5F5F5F5F5F5F5F5F5F5F5F5F5F5F5F5F5F5F5F5F5F5F5F5F5F5F5F5F5F5F5F5F5F5F5F5F5
310
F5F5F5F5F5F5F5F5F5F5F5F5F5F5F5F5F5F5F5F5F5F5F5F5F5F5F5F5F5F5F5F5F5F5F5F5F5F5F5F5F5F5F5F5F5F5F5F5F5F5F5F5F5F5F5F5F5F5F5F5F5F5F5F5F5F5F5F5F5F5F5F5F5F5F5F5F5F5F5F5F5F5F5F5F5F5E2F5F5F5E2E2F5F5F5E2F5F5F5F5F5F5F5F5F5F5F5F5F5F5F5F5F5F5F5F5F5F5F5F5F5F5F5F5F5F5F5
310
F5F5F5F5F5F5F5F5F5F5F5F5F5F5F5F5F5F5F5F5F5F5F5F5F5F5F5F5F5F5F5F5F5F5F5F5F5F5F5F5F5F5F5F5F5F5F5F5F5F5F5F5F5F5F5F5F5F5F5F5F5F5F5F5F5F5F5F5F5F5F5F5F5F5F5F5F5F5F5F5F5F5F5F5F5F5F5F5F5F5F5F5F5F5F5F5F5F5F5F5F5F5F5F5F5F5F5F5F5F5F5F5F5F5F5F5F5F5F5F5F5F5F5F5F5F5F5
310
F5F5F5F5F5F5F5F5F5F5F5F5E2F5F5F5E2E2F5F5F5E2F5F5F5F5F5F5F5F5F5F5F5F5F5F5F5F5F5F5F5F5F5F5F5F5F5F5F5F5F5F5F5F5F5F5F5F5F5F5F5F5F5F5F5F5F5F5F5F5F5F5F5F5F5F5F5F5F5F5F5F5F5F5F5F5F5F5F5F5F5F5F5F5F5F5F5F5F5F5F5F5F5F5F5F5F5F5F5F5F5F5F5F5F5F5F5F5F5F5F5F5F5F5F5F5F5
310
F5F5F5F5F5F5F5F5F5F5F5F5F5F5F5F5F5F5F5F5F5F5F5F5F5F5F5F5F5F5F5F5F5F5F5F5F5F5F5F5F5F5F5F5F5F5F5F5F5F5F5F5F5F5F5F5F5F5F5F5F5F5F5F5F5E2F5F5F5E2E2F5F5F5E2F5F5F5F5F5F5F5F5F5F5F5F5F5F5F5F5F5F5F5F5F5F5F5F5F5F5F5F5F5F5F5F5F5F5F5F5F5F5F5F5F5F5F5F5F5F5F5F5F5F5F5F5
310
F5F5F5F5F5F5F5F5F5F5F5F5F5F5F5F5F5F5F5F5F5F5F5F5F5F5F5F5F5F5F5F5F5F5F5F5F5F5F5F5F5F5F5F5F5F5F5F5F5F5F5F5F5F5F5F5F5F5F5F5F5F5F5F5F5F5F5F5F5F5F5F5F5F5F5F5F5F5F5F5F5F5F5F5F5F5F5F5F5F5F5F5F5F5F5F5F5F5F5F5F5F5F5F5F5F5F5F5F5F5F5F5F5F5F5F5F5F5E2F5F5F5E2E2F5F5F5
310
E2F5F5F5F5F5F5F5F5F5F5F5F5F5F5F5F5F5F5F5F5F5F5F5F5F5F5F5F5F5F5F5F5F5F5F5F5F5F5F5F5F5F5F5F5F5F5F5F5F5F5F5F5F5F5F5F5F5F5F5F5F5F5F5F5F5F5F5F5F5F5F5F5F5F5F5F5F5F5F5F5F5F5F5F5F5F5F5F5F5F5F5F5F5F5F5F5F5F5F5F5F5F5F5F5F5F5F5F5F5F5F5F5F5F5F5F5F5F5F5F5F5F5F5F5F5F5
310
F5F5F5F5F5F5F5F5F5F5F5F5F5F5F5F5F5F5F5F5F5F5F5F5F5F5F5F5F5F5F5F5F5F5F5F5F5F5F5F5F5F5F5F5E2F5F5F5E2E2F5F5F5E2F5F5F5F5F5F5F5F5F5F5F5F5F5F5F5F5F5F5F5F5F5F5F5F5F5F5F5F5F5F5F5F5F5F5F5F5F5F5F5F5F5F5F5F5F5F5F5F5F5F5F5F5F5F5F5F5F5F5F5F5F5F5F5F5F5F5F5F5F5F5F5F5F5
310
F5F5F5F5F5F5F5F5F5F5F5F5F5F5F5F5F5F5F5F5F5F5F5F5F5F5F5F5F5F5F5F5F5F5F5F5F5F5F5F5F5F5F5F5F5F5F5F5F5F5F5F5F5F5F5F5F5F5F5F5F5F5F5F5F5F5F5F5F5F5F5F5F5F5F5F5F5F5F5F5F5F5F5F5F5F5F5F5F5F5F5F5F5F5F5F5F5E2F5F5F5E2E2F5F5F5E2F5F5F5F5F5F5F5F5F5F5F5F5F5F5F5F5F5F5F5F5
310
F5F5F5F5F5F5F5F5F5F5F5F5F5F5F5F5F5F5F5F5F5F5F5F5F5F5F5F5F5F5F5F5F5F5F5F5F5F5F5F5F5F5F5F5F5F5F5F5F5F5F5F5F5F5F5F5F5F5F5F5F5F5F5F5F5F5F5F5F5F5F5F5F5F5F5F5F5F5F5F5F5F5F5F5F5F5F5F5F5F5F5F5F5F5F5F5F5F5F5F5F5F5F5F5F5F5F5F5F5F5F5F5F5F5F5F5F5F5F5F5F5F5F5F5F5F5F5
310
F5F5F5F5F5F5F5F5F5F5F5F5F5F5F5F5F5F5F5F5F5F5F5E2F5F5F5E2E2F5F5F5F5F5F5F5F5F5F5F5F5F5F5F5F5F5F5F5F5F5F5F5F5F5F5F5F5F5F5F5F5F5F5F5F5F5F5F5F5F5F5F5F5F5F5F5F5F5F5F5F5F5F5F5F5F5F5F5F5F5F5F5F5F5F5F5F5F5F5F5F5F5F5F5F5F5F5F5F5F5F5F5F5F5F5F5F5F5F5F5F5F5F5F5F5F5F5
310
F5F5F5F5F5F5F5F5F5F5F5F5F5F5F5F5F5F5F5F5F5F5F5F5F5F5F5F5F5F5F5F5F5F5F5F5F5F5F5F5F5F5F5F5F5F5F5F5F5F5F5F5F5F5F5F5F5F5F5F5F5F5F5F5F5F5F5F5F5F5F5F5F5F5F5F5F5F5F5F5E2E2F5F5F5F5F5F5F5F5F5F5F5F5F5F5F5F5F5F5F5F5F5F5F5F5F5F5F5F5F5F5F5F5F5F5F5F5F5F5F5F5F5F5F5F5F5
310
F5F5F5F5F5F5F5F5F5F5F5F5F5F5F5F5F5F5F5F5F5F5F5F5F5F5F5F5F5F5F5F5F5F5F5F5F5F5F5F5F5F5F5F5F5F5F5F5F5F5F5F5F5F5F5F5F5F5F5F5F5F5F5F5F5F5F5F5F5F5F5F5F5F5F5F5F5F5F5F5F5F5F5F5F5F5F5F5F5F5F5F5F5F5F5F5F5F5F5F5F5F5F5F5F5F5F5F5F5F5F5F5F5F5F5F5F5F5F5F5F5F5F5F5F5F5F5
310
F5F5F5F5F5F5E2E2F5F5F5F5F5F5F5F5F5F5F5F5F5F5F5F5F5F5F5F5F5F5F5F5F5F5F5F5F5F5F5F5F5F5F5F5F5F5F5F5F5F5F5F5F5F5F5F5F5F5F5F5F5F5F5F5F5F5F5F5F5F5F5F5F5F5F5F5F5F5F5F5F5F5F5F5F5F5F5F5F5F5F5F5F5F5F5F5F5F5F5F5F5F5F5F5F5F5F5F5F5F5F5F5F5F5F5F5F5F5F5F5F5F5F5F5F5F5F5
310
F5F5F5F5F5F5F5F5F5F5F5F5F5F5F5F5F5F5F5F5F5F5F5F5F5F5F5F5F5F5F5F5F5F5F5F5F5F5F5F5F5F5F5F5F5F5F5F5F5F5F5F5F5F5F5F5F5F5F5E2E2F5F5F5F5F5F5F5F5F5F5F5F5F5F5F5F5F5F5F5F5F5F5F5F5F5F5F5F5F5F5F5F5F5F5F5F5F5F5F5F5F5F5F5F5F5F5F5F5F5F5F5F5F5F5F5F5F5F5F5F5F5F5F5F5F5F5
310
F5F5F5F5F5F5F5F5F5F5F5F5F5F5F5F5F5F5F5F5F5F5F5F5F5F5F5F5F5F5F5F5F5F5F5F5F5F5F5F5F5F5F5F5F5F5F5F5F5F5F5F5F5F5F5F5F5F5F5F5F5F5F5F5F5F5F5F5F5F5F5F5F5F5F5F5F5F5F5F5F5F5F5F5F5F5F5F5F5F5F5F5F5F5F5F5F5F5F5F5F5F5F5F5F5F5F5F5F5F5F5F5E2E2F5F5F5F5F5F5F5F5F5F5F5F5F5
310
F5F5F5F5F5F5F5F5F5F5F5F5F5F5F5F5F5F5F5F5F5F5F5F5F5F5F5F5F5F5F5F5F5F5F5F5F5F5F5F5F5F5F5F5F5F5F5F5F5F5F5F5F5F5F5F5F5F5F5F5F5F5F5F5F5F5F5F5F5F5F5F5F5F5F5F5F5F5F5F5F5F5F5F5F5F5F5F5F5F5F5F5F5F5F5F5F5F5F5F5F5F5F5F5F5F5F5F5F5F5F5F5F5F5F5F5F5F5F5F5F5F5F5F5F5F5F5
310
F5F5F5F5F5F5F5F5F5F5F5F5F5F5F5F5F5F5F5F5F5F5F5F5F5F5F5F5F5F5F5F5F5F5F5F5F5F5E2E2F5F5F5F5F5F5F5F5F5F5F5F5F5F5F5F5F5F5F5F5F5F5F5F5F5F5F5F5F5F5F5F5F5F5F5F5F5F5F5F5F5F5F5F5F5F5F5F5F5F5F5F5F5F5F5F5F5F5F5F5F5F5F5F5F5F5F5F5F5F5F5F5F5F5F5F5F5F5F5F5F5F5F5F5F5F5F5
310
F5F5F5F5F5F5F5F5F5F5F5F5F5F5F5F5F5F5F5F5F5F5F5F5F5F5F5F5F5F5F5F5F5F5F5F5F5F5F5F5F5F5F5F5F5F5F5F5F5F5F5F5F5F5F5F5F5F5F5F5F5F5F5F5F5F5F5F5F5F5F5F5F5F5F5F5F5F5F5F5F5F5F5F5F5F5F5F5F5F5F5E2E2F5F5F5F5F5F5F5F5F5F5F5F5F5F5F5F5F5F5F5F5F5F5F5F5F5F5F5F5F5F5F5F5F5F5
310
F5F5F5F5F5F5F5F5F5F5F5F5F5F5F5F5F5F5F5F5F5F5F5F5F5F5F5F5F5F5F5F5F5F5F5F5F5F5F5F5F5F5F5F5F5F5F5F5F5F5F5F5F5F5F5F5F5F5F5F5F5F5F5F5F5F5F5F5F5F5F5F5F5F5F5F5F5F5F5F5F5F5F5F5F5F5F5F5F5F5F5F5F5F5F5F5F5F5F5F5F5F5F5F5F5F5F5F5F5F5F5F5F5F5F5F5F5F5F5F5F5F5F5F5F5F5F5
310
F5F5F5F5F5F5F5F5F5F5F5F5F5F5F5F5F5E2E2F5F5F5F5F5F5F5F5F5F5F5F5F5F5F5F5F5F5F5F5F5F5F5F5F5F5F5F5F5F5F5F5F5F5F5F5F5F5F5F5F5F5F5F5F5F5F5F5F5F5F5F5F5F5F5F5F5F5F5F5F5F5F5F5F5F5F5F5F5F5F5F5F5F5F5F5F5F5F5F5F5F5F5F5F5F5F5F5F5F5F5F5F5F5F5F5F5F5F5F5F5F5F5F5F5F5F5F5
310
F5F5F5F5F5F5F5F5F5F5F5F5F5F5F5F5F5F5F5F5F5F5F5F5F5F5F5F5F5F5F5F5F5F5F5F5F5F5F5F5F5F5F5F5F5F5F5F5F5F5F5F5F5F5F5F5F5F5F5F5F5F5F5F5F5F5F5F5F5F5E2E2F5F5F5F5F5F5F5F5F5F5F5F5F5F5F5F5F5F5F5F5F5F5F5F5F5F5F5F5F5F5F5F5F5F5F5F5F5F5F5F5F5F5F5F5F5F5F5F5F5F5F5F5F5F5F5
310
F5F5F5F5F5F5F5F5F5F5F5F5F5F5F5F5F5F5F5F5F5F5F5F5F5F5F5F5F5F5F5F5F5F5F5F5F5F5F5F5F5F5F5F5F5F5F5F5F5F5F5F5F5F5F5F5F5F5F5F5F5F5F5F5F5F5F5F5F5F5F5F5F5F5F5F5F5F5F5F5F5F5F5F5F5F5F5F5F5F5F5F5F5F5F5F5F5F5F5F5F5F5F5F5F5F5F5F5F5F5F5F5F5F5F5F5F5F5F5F5F5F5F5E2E2F5F5
310
F5E2F5F5F5F5F5F5F5F5F5F5F5F5F5F5F5F5F5F5F5F5F5F5F5F5F5F5F5F5F5F5F5F5F5F5F5F5F5F5F5F5F5F5F5F5F5F5F5F5F5F5F5F5F5F5F5F5F5F5F5F5F5F5F5F5F5F5F5F5F5F5F5F5F5F5F5F5F5F5F5F5F5F5F5F5F5F5F5F5F5F5F5F5F5F5F5F5F5F5F5F5F5F5F5F5F5F5F5F5F5F5F5F5F5F5F5F5F5F5F5F5F5F5F5F5F5
310
F5F5F5F5F5F5F5F5F5F5F5F5F5F5F5F5F5F5F5F5F5F5F5F5F5F5F5F5F5F5F5F5F5F5F5F5F5F5F5F5F5F5F5F5F5E2F5F5F5E2E2F5F5F5E2F5F5F5F5F5F5F5F5F5F5F5F5F5F5F5F5F5F5F5F5F5F5F5F5F5F5F5F5F5F5F5F5F5F5F5F5F5F5F5F5F5F5F5F5F5F5F5F5F5F5F5F5F5F5F5F5F5F5F5F5F5F5F5F5F5F5F5F5F5F5F5F5
310
F5F5F5F5F5F5F5F5F5F5F5F5F5F5F5F5F5F5F5F5F5F5F5F5F5F5F5F5F5F5F5F5F5F5F5F5F5F5F5F5F5F5F5F5F5F5F5F5F5F5F5F5F5F5F5F5F5F5F5F5F5F5F5F5F5F5F5F5F5F5F5F5F5F5F5F5F5F5F5F5F5F5F5F5F5F5F5F5F5F5F5F5F5F5F5F5F5F5E2F5F5F5E2E2F5F5F5E2F5F5F5F5F5F5F5F5F5F5F5F5F5F5F5F5F5F5F5
310
F5F5F5F5F5F5F5F5F5F5F5F5F5F5F5F5F5F5F5F5F5F5F5F5F5F5F5F5F5F5F5F5F5F5F5F5F5F5F5F5F5F5F5F5F5F5F5F5F5F5F5F5F5F5F5F5F5F5F5F5F5F5F5F5F5F5F5F5F5F5F5F5F5F5F5F5F5F5F5F5F5F5F5F5F5F5F5F5F5F5F5F5F5F5F5F5F5F5F5F5F5F5F5F5F5F5F5F5F5F5F5F5F5F5F5F5F5F5F5F5F5F5F5F5F5F5F5
310
F5F5F5F5F5F5F5F5F5F5F5F5F5F5F5F5F5F5F5F5F5F5F5F5E2F5F5F5E2E2F5F5F5E2F5F5F5F5F5F5F5F5F5F5F5F5F5F5F5F5F5F5F5F5F5F5F5F5F5F5F5F5F5F5F5F5F5F5F5F5F5F5F5F5F5F5F5F5F5F5F5F5F5F5F5F5F5F5F5F5F5F5F5F5F5F5F5F5F5F5F5F5F5F5F5F5F5F5F5F5F5F5F5F5F5F5F5F5F5F5F5F5F5F5F5F5F5
310
F5F5F5F5F5F5F5F5F5F5F5F5F5F5F5F5F5F5F5F5F5F5F5F5F5F5F5F5F5F5F5F5F5F5F5F5F5F5F5F5F5F5F5F5F5F5F5F5F5F5F5F5F5F5F5F5F5F5F5F5F5F5F5F5F5F5F5F5F5F5F5F5F5F5F5F5F5E2F5F5F5E2E2F5F5F5E2F5F5F5F5F5F5F5F5F5F5F5F5F5F5F5F5F5F5F5F5F5F5F5F5F5F5F5F5F5F5F5F5F5F5F5F5F5F5F5F5
310
F5F5F5F5F5F5F5F5F5F5F5F5F5F5F5F5F5F5F5F5F5F5F5F5F5F5F5F5F5F5F5F5F5F5F5F5F5F5F5F5F5F5F5F5F5F5F5F5F5F5F5F5F5F5F5F5F5F5F5F5F5F5F5F5F5F5F5F5F5F5F5F5F5F5F5F5F5F5F5F5F5F5F5F5F5F5F5F5F5F5F5F5F5F5F5F5F5F5F5F5F5F5F5F5F5F5F5F5F5F5F5F5F5F5F5F5F5F5F5F5F5F5F5F5F5F5F5
310
F5F5F5E2F5F5F5E2E2F5F5F5E2F5F5F5F5F5F5F5F5F5F5F5F5F5F5F5F5F5F5F5F5F5F5F5F5F5F5F5F5F5F5F5F5F5F5F5F5F5F5F5F5F5F5F5F5F5F5F5F5F5F5F5F5F5F5F5F5F5F5F5F5F5F5F5F5F5F5F5F5F5F5F5F5F5F5F5F5F5F5F5F5F5F5F5F5F5F5F5F5F5F5F5F5F5F5F5F5F5F5F5F5F5F5F5F5F5F5F5F5F5F5F5F5F5F5
310
F5F5F5F5F5F5F5F5F5F5F5F5F5F5F5F5F5F5F5F5F5F5F5F5F5F5F5F5F5F5F5F5F5F5F5F5F5F5F5F5F5F5F5F5F5F5F5F5F5F5F5F5F5F5F5F5E2F5F5F5E2E2F5F5F5E2F5F5F5F5F5F5F5F5F5F5F5F5F5F5F5F5F5F5F5F5F5F5F5F5F5F5F5F5F5F5F5F5F5F5F5F5F5F5F5F5F5F5F5F5F5F5F5F5F5F5F5F5F5F5F5F5F5F5F5F5F5
310
F5F5F5F5F5F5F5F5F5F5F5F5F5F5F5F5F5F5F5F5F5F5F5F5F5F5F5F5F5F5F5F5F5F5F5F5F5F5F5F5F5F5F5F5F5F5F5F5F5F5F5F5F5F5F5F5F5F5F5F5F5F5F5F5F5F5F5F5F5F5F5F5F5F5F5F5F5F5F5F5F5F5F5F5F5F5F5F5F5F5F5F5F5F5F5F5F5F5F5F5F5F5F5F5F5F5F5F5F5E2F5F5F5E2E2F5F5F5E2F5F5F5F5F5F5F5F5
310
F5F5F5F5F5F5F5F5F5F5F5F5F5F5F5F5F5F5F5F5F5F5F5F5F5F5F5F5F5F5F5F5F5F5F5F5F5F5F5F5F5F5F5F5F5F5F5F5F5F5F5F5F5F5F5F5F5F5F5F5F5F5F5F5F5F5F5F5F5F5F5F5F5F5F5F5F5F5F5F5F5F5F5F5F5F5F5F5F5F5F5F5F5F5F5F5F5F5F5F5F5F5F5F5F5F5F5F5F5F5F5F5F5F5F5F5F5F5F5F5F5F5F5F5F5F5F5
310
F5F5F5F5F5F5F5F5F5F5F5F5F5F5F5F5F5F5F5F5F5F5F5F5F5F5F5F5F5F5F5F5F5F5F5E2F5F5F5E2E2F5F5F5E2F5F5F5F5F5F5F5F5F5F5F5F5F5F5F5F5F5F5F5F5F5F5F5F5F5F5F5F5F5F5F5F5F5F5F5F5F5F5F5F5F5F5F5F5F5F5F5F5F5F5F5F5F5F5F5F5F5F5F5F5F5F5F5F5F5F5F5F5F5F5F5F5F5F5F5F5F5F5F5F5F5F5
310
F5F5F5F5F5F5F5F5F5F5F5F5F5F5F5F5F5F5F5F5F5F5F5F5F5F5F5F5F5F5F5F5F5F5F5F5F5F5F5F5F5F5F5F5F5F5F5F5F5F5F5F5F5F5F5F5F5F5F5F5F5F5F5F5F5F5F5F5F5F5F5F5F5F5F5F5F5F5F5F5F5F5F5F5F5F5F5F5E2F5F5F5E2E2F5F5F5E2F5F5F5F5F5F5F5F5F5F5F5F5F5F5F5F5F5F5F5F5F5F5F5F5F5F5F5F5F5
310
F5F5F5F5F5F5F5F5F5F5F5F5F5F5F5F5F5F5F5F5F5F5F5F5F5F5F5F5F5F5F5F5F5F5F5F5F5F5F5F5F5F5F5F5F5F5F5F5F5F5F5F5F5F5F5F5F5F5F5F5F5F5F5F5F5F5F5F5F5F5F5F5F5F5F5F5F5F5F5F5F5F5F5F5F5F5F5F5F5F5F5F5F5F5F5F5F5F5F5F5F5F5F5F5F5F5F5F5F5F5F5F5F5F5F5F5F5F5F5F5F5F5F5F5F5F5F5
310
F5F5F5F5F5F5F5F5F5F5F5F5F5F5E2F5F5F5E2E2F5F5F5E2F5F5F5F5F5F5F5F5F5F5F5F5F5F5F5F5F5F5F5F5F5F5F5F5F5F5F5F5F5F5F5F5F5F5F5F5F5F5F5F5F5F5F5F5F5F5F5F5F5F5F5F5F5F5F5F5F5F5F5F5F5F5F5F5F5F5F5F5F5F5F5F5F5F5F5F5F5F5F5F5F5F5F5F5F5F5F5F5F5F5F5F5F5F5F5F5F5F5F5F5F5F5F5
310
F5F5F5F5F5F5F5F5F5F5F5F5F5F5F5F5F5F5F5F5F5F5F5F5F5F5F5F5F5F5F5F5F5F5F5F5F5F5F5F5F5F5F5F5F5F5F5F5F5F5F5F5F5F5F5F5F5F5F5F5F5F5F5F5F5F5F5E2F5F5F5E2E2F5F5F5E2F5F5F5F5F5F5F5F5F5F5F5F5F5F5F5F5F5F5F5F5F5F5F5F5F5F5F5F5F5F5F5F5F5F5F5F5F5F5F5F5F5F5F5F5F5F5F5F5F5F5
310
F5F5F5F5F5F5F5F5F5F5F5F5F5F5F5F5F5F5F5F5F5F5F5F5F5F5F5F5F5F5F5F5F5F5F5F5F5F5F5F5F5F5F5F5F5F5F5F5F5F5F5F5F5F5F5F5F5F5F5F5F5F5F5F5F5F5F5F5F5F5F5F5F5F5F5F5F5F5F5F5F5F5F5F5F5F5F5F5F5F5F5F5F5F5F5F5F5F5F5F5F5F5F5F5F5F5F5F5F5F5F5F5F5F5F5F5F5F5F5F5E2F5F5F5E2E2F5
310
F5F5E2F5F5F5F5F5F5F5F5F5F5F5F5F5F5F5F5F5F5F5F5F5F5F5F5F5F5F5F5F5F5F5F5F5F5F5F5F5F5F5F5F5F5F5F5F5F5F5F5F5F5F5F5F5F5F5F5F5F5F5F5F5F5F5F5F5F5F5F5F5F5F5F5F5F5F5F5F5F5F5F5F5F5F5F5F5F5F5F5F5F5F5F5F5F5F5F5F5F5F5F5F5F5F5F5F5F5F5F5F5F5F5F5F5F5F5F5F5F5F5F5F5F5F5F5
310
F5F5F5F5F5F5F5F5F5F5F5F5F5F5F5F5F5F5F5F5F5F5F5F5F5F5F5F5F5F5F5F5F5F5F5F5F5F5F5F5F5F5F5F5F5F5E2F5F5F5E2E2F5F5F5E2F5F5F5F5F5F5F5F5F5F5F5F5F5F5F5F5F5F5F5F5F5F5F5F5F5F5F5F5F5F5F5F5F5F5F5F5F5F5F5F5F5F5F5F5F5F5F5F5F5F5F5F5F5F5F5F5F5F5F5F5F5F5F5F5F5F5F5F5F5F5F5
310
F5F5F5F5F5F5F5F5F5F5F5F5F5F5F5F5F5F5F5F5F5F5F5F5F5F5F5F5F5F5F5F5F5F5F5F5F5F5F5F5F5F5F5F5F5F5F5F5F5F5F5F5F5F5F5F5F5F5F5F5F5F5F5F5F5F5F5F5F5F5F5F5F5F5F5F5F5F5F5F5F5F5F5F5F5F5F5F5F5F5F5F5F5F5F5F5F5F5F5E2F5F5F5E2E2F5F5F5E2F5F5F5F5F5F5F5F5F5F5F5F5F5F5F5F5F5F5
310
F5F5F5F5F5F5F5F5F5F5F5F5F5F5F5F5F5F5F5F5F5F5F5F5F5F5F5F5F5F5F5F5F5F5F5F5F5F5F5F5F5F5F5F5F5F5F5F5F5F5F5F5F5F5F5F5F5F5F5F5F5F5F5F5F5F5F5F5F5F5F5F5F5F5F5F5F5F5F5F5F5F5F5F5F5F5F5F5F5F5F5F5F5F5F5F5F5F5F5F5F5F5F5F5F5F5F5F5F5F5F5F5F5F5F5F5F5F5F5F5F5F5F5F5F5F5F5
310
F5F5F5F5F5F5F5F5F5F5F5F5F5F5F5F5F5F5F5F5F5F5F5F5F5E2F5F5F5E2E2F5F5F5E2F5F5F5F5F5F5F5F5F5F5F5F5F5F5F5F5F5F5F5F5F5F5F5F5F5F5F5F5F5F5F5F5F5F5F5F5F5F5F5F5F5F5F5F5F5F5F5F5F5F5F5F5F5F5F5F5F5F5F5F5F5F5F5F5F5F5F5F5F5F5F5F5F5F5F5F5F5F5F5F5F5F5F5F5F5F5F5F5F5F5F5F5
310
F5F5F5F5F5F5F5F5F5F5F5F5F5F5F5F5F5F5F5F5F5F5F5F5F5F5F5F5F5F5F5F5F5F5F5F5F5F5F5F5F5F5F5F5F5F5F5F5F5F5F5F5F5F5F5F5F5F5F5F5F5F5F5F5F5F5F5F5F5F5F5F5F5F5F5F5F5F5E2F5F5F5E2E2F5F5F5F5F5F5F5F5F5F5F5F5F5F5F5F5F5F5F5F5F5F5F5F5F5F5F5F5F5F5F5F5F5F5F5F5F5F5F5F5F5F5F5
310
F5F5F5F5F5F5F5F5F5F5F5F5F5F5F5F5F5F5F5F5F5F5F5F5F5F5F5F5F5F5F5F5F5F5F5F5F5F5F5F5F5F5F5F5F5F5F5F5F5F5F5F5F5F5F5F5F5F5F5F5F5F5F5F5F5F5F5F5F5F5F5F5F5F5F5F5F5F5F5F5F5F5F5F5F5F5F5F5F5F5F5F5F5F5F5F5F5F5F5F5F5F5F5F5F5F5F5F5F5F5F5F5F5F5F5F5F5F5F5F5F5F5F5F5F5F5F5
310
F5F5F5F5F5F5F5F5E2E2F5F5F5F5F5F5F5F5F5F5F5F5F5F5F5F5F5F5F5F5F5F5F5F5F5F5F5F5F5F5F5F5F5F5F5F5F5F5F5F5F5F5F5F5F5F5F5F5F5F5F5F5F5F5F5F5F5F5F5F5F5F5F5F5F5F5F5F5F5F5F5F5F5F5F5F5F5F5F5F5F5F5F5F5F5F5F5F5F5F5F5F5F5F5F5F5F5F5F5F5F5F5F5F5F5F5F5F5F5F5F5F5F5F5F5F5F5
310
F5F5F5F5F5F5F5F5F5F5F5F5F5F5F5F5F5F5F5F5F5F5F5F5F5F5F5F5F5F5F5F5F5F5F5F5F5F5F5F5F5F5F5F5F5F5F5F5F5F5F5F5F5F5F5F5F5F5F5F5F5E2E2F5F5F5F5F5F5F5F5F5F5F5F5F5F5F5F5F5F5F5F5F5F5F5F5F5F5F5F5F5F5F5F5F5F5F5F5F5F5F5F5F5F5F5F5F5F5F5F5F5F5F5F5F5F5F5F5F5F5F5F5F5F5F5F5
310
F5F5F5F5F5F5F5F5F5F5F5F5F5F5F5F5F5F5F5F5F5F5F5F5F5F5F5F5F5F5F5F5F5F5F5F5F5F5F5F5F5F5F5F5F5F5F5F5F5F5F5F5F5F5F5F5F5F5F5F5F5F5F5F5F5F5F5F5F5F5F5F5F5F5F5F5F5F5F5F5F5F5F5F5F5F5F5F5F5F5F5F5F5F5F5F5F5F5F5F5F5F5F5F5F5F5F5F5F5F5F5F5F5F5E2E2F5F5F5F5F5F5F5F5F5F5F5
310
F5F5F5F5F5F5F5F5F5F5F5F5F5F5F5F5F5F5F5F5F5F5F5F5F5F5F5F5F5F5F5F5F5F5F5F5F5F5F5F5F5F5F5F5F5F5F5F5F5F5F5F5F5F5F5F5F5F5F5F5F5F5F5F5F5F5F5F5F5F5F5F5F5F5F5F5F5F5F5F5F5F5F5F5F5F5F5F5F5F5F5F5F5F5F5F5F5F5F5F5F5F5F5F5F5F5F5F5F5F5F5F5F5F5F5F5F5F5F5F5F5F5F5F5F5F5F5
310
F5F5F5F5F5F5F5F5F5F5F5F5F5F5F5F5F5F5F5F5F5F5F5F5F5F5F5F5F5F5F5F5F5F5F5F5F5F5F5F5E2E2F5F5F5F5F5F5F5F5F5F5F5F5F5F5F5F5F5F5F5F5F5F5F5F5F5F5F5F5F5F5F5F5F5F5F5F5F5F5F5F5F5F5F5F5F5F5F5F5F5F5F5F5F5F5F5F5F5F5F5F5F5F5F5F5F5F5F5F5F5F5F5F5F5F5F5F5F5F5F5F5F5F5F5F5F5
310
F5F5F5F5F5F5F5F5F5F5F5F5F5F5F5F5F5F5F5F5F5F5F5F5F5F5F5F5F5F5F5F5F5F5F5F5F5F5F5F5F5F5F5F5F5F5F5F5F5F5F5F5F5F5F5F5F5F5F5F5F5F5F5F5F5F5F5F5F5F5F5F5F5F5F5F5F5F5F5F5F5F5F5F5F5F5F5F5F5F5F5F5F5E2E2F5F5F5F5F5F5F5F5F5F5F5F5F5F5F5F5F5F5F5F5F5F5F5F5F5F5F5F5F5F5F5F5
310
F5F5F5F5F5F5F5F5F5F5F5F5F5F5F5F5F5F5F5F5F5F5F5F5F5F5F5F5F5F5F5F5F5F5F5F5F5F5F5F5F5F5F5F5F5F5F5F5F5F5F5F5F5F5F5F5F5F5F5F5F5F5F5F5F5F5F5F5F5F5F5F5F5F5F5F5F5F5F5F5F5F5F5F5F5F5F5F5F5F5F5F5F5F5F5F5F5F5F5F5F5F5F5F5F5F5F5F5F5F5F5F5F5F5F5F5F5F5F5F5F5F5F5F5F5F5F5
310
F5F5F5F5F5F5F5F5F5F5F5F5F5F5F5F5F5F5F5E2E2F5F5F5F5F5F5F5F5F5F5F5F5F5F5F5F5F5F5F5F5F5F5F5F5F5F5F5F5F5F5F5F5F5F5F5F5F5F5F5F5F5F5F5F5F5F5F5F5F5F5F5F5F5F5F5F5F5F5F5F5F5F5F5F5F5F5F5F5F5F5F5F5F5F5F5F5F5F5F5F5F5F5F5F5F5F5F5F5F5F5F5F5F5F5F5F5F5F5F5F5F5F5F5F5F5F5
310
F5F5F5F5F5F5F5F5F5F5F5F5F5F5F5F5F5F5F5F5F5F5F5F5F5F5F5F5F5F5F5F5F5F5F5F5F5F5F5F5F5F5F5F5F5F5F5F5F5F5F5F5F5F5F5F5F5F5F5F5F5F5F5F5F5F5F5F5F5F5F5F5E2E2F5F5F5F5F5F5F5F5F5F5F5F5F5F5F5F5F5F5F5F5F5F5F5F5F5F5F5F5F5F5F5F5F5F5F5F5F5F5F5F5F5F5F5F5F5F5F5F5F5F5F5F5F5
310
F5F5F5F5F5F5F5F5F5F5F5F5F5F5F5F5F5F5F5F5F5F5F5F5F5F5F5F5F5F5F5F5F5F5F5F5F5F5F5F5F5F5F5F5F5F5F5F5F5F5F5F5F5F5F5F5F5F5F5F5F5F5F5F5F5F5F5F5F5F5F5F5F5F5F5F5F5F5F5F5F5F5F5F5F5F5F5F5F5F5F5F5F5F5F5F5F5F5F5F5F5F5F5F5F5F5F5F5F5F5F5F5F5F5F5F5F5F5F5F5F5F5F5F5F5E2E2
310
F5F5F5F5F5F5F5F5F5F5F5F5F5F5F5F5F5F5F5F5F5F5F5F5F5F5F5F5F5F5F5F5F5F5F5F5F5F5F5F5F5F5F5F5F5F5F5F5F5F5F5F5F5F5F5F5F5F5F5F5F5F5F5F5F5F5F5F5F5F5F5F5F5F5F5F5F5F5F5F5F5F5F5F5F5F5F5F5F5F5F5F5F5F5F5F5F5F5F5F5F5F5F5F5F5F5F5F5F5F5F5F5F5F5F5F5F5F5F5F5F5F5F5F5F5F5F5
310
F5F5F5F5F5F5F5F5F5F5F5F5F5F5F5F5F5F5F5F5F5F5F5F5F5F5F5F5F5F5F5F5F5F5F5F5F5F5F5F5F5F5F5F5F5F5F5F5F5F5F5E2E2F5F5F5F5F5F5F5F5F5F5F5F5F5F5F5F5F5F5F5F5F5F5F5F5F5F5F5F5F5F5F5F5F5F5F5F5F5F5F5F5F5F5F5F5F5F5F5F5F5F5F5F5F5F5F5F5F5F5F5F5F5F5F5F5F5F5F5F5F5F5F5F5F5F5
310
F5F5F5F5F5F5F5F5F5F5F5F5F5F5F5F5F5F5F5F5F5F5F5F5F5F5F5F5F5F5F5F5F5F5F5F5F5F5F5F5F5F5F5F5F5F5F5F5F5F5F5F5F5F5F5F5F5F5F5F5F5F5F5F5F5F5F5F5F5F5F5F5F5F5F5F5F5F5F5F5F5F5F5F5F5F5F5F5F5F5F5F5F5F5F5F5F5F5F5F5F5F5F5F5E2E2F5F5F5E2F5F5F5F5F5F5F5F5F5F5F5F5F5F5F5F5F5
310
F5F5F5F5F5F5F5F5F5F5F5F5F5F5F5F5F5F5F5F5F5F5F5F5F5F5F5F5F5F5F5F5F5F5F5F5F5F5F5F5F5F5F5F5F5F5F5F5F5F5F5F5F5F5F5F5F5F5F5F5F5F5F5F5F5F5F5F5F5F5F5F5F5F5F5F5F5F5F5F5F5F5F5F5F5F5F5F5F5F5F5F5F5F5F5F5F5F5F5F5F5F5F5F5F5F5F5F5F5F5F5F5F5F5F5F5F5F5F5F5F5F5F5F5F5F5F5
310
F5F5F5F5F5F5F5F5F5F5F5F5F5F5F5F5F5F5F5F5F5F5F5F5F5F5E2F5F5F5E2E2F5F5F5E2F5F5F5F5F5F5F5F5F5F5F5F5F5F5F5F5F5F5F5F5F5F5F5F5F5F5F5F5F5F5F5F5F5F5F5F5F5F5F5F5F5F5F5F5F5F5F5F5F5F5F5F5F5F5F5F5F5F5F5F5F5F5F5F5F5F5F5F5F5F5F5F5F5F5F5F5F5F5F5F5F5F5F5F5F5F5F5F5F5F5F5
310
F5F5F5F5F5F5F5F5F5F5F5F5F5F5F5F5F5F5F5F5F5F5F5F5F5F5F5F5F5F5F5F5F5F5F5F5F5F5F5F5F5F5F5F5F5F5F5F5F5F5F5F5F5F5F5F5F5F5F5F5F5F5F5F5F5F5F5F5F5F5F5F5F5F5F5F5F5F5F5E2F5F5F5E2E2F5F5F5E2F5F5F5F5F5F5F5F5F5F5F5F5F5F5F5F5F5F5F5F5F5F5F5F5F5F5F5F5F5F5F5F5F5F5F5F5F5F5
310
F5F5F5F5F5F5F5F5F5F5F5F5F5F5F5F5F5F5F5F5F5F5F5F5F5F5F5F5F5F5F5F5F5F5F5F5F5F5F5F5F5F5F5F5F5F5F5F5F5F5F5F5F5F5F5F5F5F5F5F5F5F5F5F5F5F5F5F5F5F5F5F5F5F5F5F5F5F5F5F5F5F5F5F5F5F5F5F5F5F5F5F5F5F5F5F5F5F5F5F5F5F5F5F5F5F5F5F5F5F5F5F5F5F5F5F5F5F5F5F5F5F5F5F5F5F5F5
310
F5F5F5F5F5E2F5F5F5E2E2F5F5F5E2F5F5F5F5F5F5F5F5F5F5F5F5F5F5F5F5F5F5F5F5F5F5F5F5F5F5F5F5F5F5F5F5F5F5F5F5F5F5F5F5F5F5F5F5F5F5F5F5F5F5F5F5F5F5F5F5F5F5F5F5F5F5F5F5F5F5F5F5F5F5F5F5F5F5F5F5F5F5F5F5F5F5F5F5F5F5F5F5F5F5F5F5F5F5F5F5F5F5F5F5F5F5F5F5F5F5F5F5F5F5F5F5
310
F5F5F5F5F5F5F5F5F5F5F5F5F5F5F5F5F5F5F5F5F5F5F5F5F5F5F5F5F5F5F5F5F5F5F5F5F5F5F5F5F5F5F5F5F5F5F5F5F5F5F5F5F5F5F5F5F5F5E2F5F5F5E2E2F5F5F5E2F5F5F5F5F5F5F5F5F5F5F5F5F5F5F5F5F5F5F5F5F5F5F5F5F5F5F5F5F5F5F5F5F5F5F5F5F5F5F5F5F5F5F5F5F5F5F5F5F5F5F5F5F5F5F5F5F5F5F5
310
F5F5F5F5F5F5F5F5F5F5F5F5F5F5F5F5F5F5F5F5F5F5F5F5F5F5F5F5F5F5F5F5F5F5F5F5F5F5F5F5F5F5F5F5F5F5F5F5F5F5F5F5F5F5F5F5F5F5F5F5F5F5F5F5F5F5F5F5F5F5F5F5F5F5F5F5F5F5F5F5F5F5F5F5F5F5F5F5F5F5F5F5F5F5F5F5F5F5F5F5F5F5F5F5F5F5F5F5F5F5F5E2F5F5F5E2E2F5F5F5E2F5F5F5F5F5F5
310
F5F5F5F5F5F5F5F5F5F5F5F5F5F5F5F5F5F5F5F5F5F5F5F5F5F5F5F5F5F5F5F5F5F5F5F5F5F5F5F5F5F5F5F5F5F5F5F5F5F5F5F5F5F5F5F5F5F5F5F5F5F5F5F5F5F5F5F5F5F5F5F5F5F5F5F5F5F5F5F5F5F5F5F5F5F5F5F5F5F5F5F5F5F5F5F5F5F5F5F5F5F5F5F5F5F5F5F5F5F5F5F5F5F5F5F5F5F5F5F5F5F5F5F5F5F5F5
310
F5F5F5F5F5F5F5F5F5F5F5F5F5F5F5F5F5F5F5F5F5F5F5F5F5F5F5F5F5F5F5F5F5F5F5F5F5E2F5F5F5E2E2F5F5F5E2F5F5F5F5F5F5F5F5F5F5F5F5F5F5F5F5F5F5F5F5F5F5F5F5F5F5F5F5F5F5F5F5F5F5F5F5F5F5F5F5F5F5F5F5F5F5F5F5F5F5F5F5F5F5F5F5F5F5F5F5F5F5F5F5F5F5F5F5F5F5F5F5F5F5F5F5F5F5F5F5
310
F5F5F5F5F5F5F5F5F5F5F5F5F5F5F5F5F5F5F5F5F5F5F5F5F5F5F5F5F5F5F5F5F5F5F5F5F5F5F5F5F5F5F5F5F5F5F5F5F5F5F5F5F5F5F5F5F5F5F5F5F5F5F5F5F5F5F5F5F5F5F5F5F5F5F5F5F5F5F5F5F5F5F5F5F5F5F5F5F5F5E2F5F5F5E2E2F5F5F5E2F5F5F5F5F5F5F5F5F5F5F5F5F5F5F5F5F5F5F5F5F5F5F5F5F5F5F5
310
F5F5F5F5F5F5F5F5F5F5F5F5F5F5F5F5F5F5F5F5F5F5F5F5F5F5F5F5F5F5F5F5F5F5F5F5F5F5F5F5F5F5F5F5F5F5F5F5F5F5F5F5F5F5F5F5F5F5F5F5F5F5F5F5F5F5F5F5F5F5F5F5F5F5F5F5F5F5F5F5F5F5F5F5F5F5F5F5F5F5F5F5F5F5F5F5F5F5F5F5F5F5F5F5F5F5F5F5F5F5F5F5F5F5F5F5F5F5F5F5F5F5F5F5F5F5F5
310
F5F5F5F5F5F5F5F5F5F5F5F5F5F5F5F5E2F5F5F5E2E2F5F5F5E2F5F5F5F5F5F5F5F5F5F5F5F5F5F5F5F5F5F5F5F5F5F5F5F5F5F5F5F5F5F5F5F5F5F5F5F5F5F5F5F5F5F5F5F5F5F5F5F5F5F5F5F5F5F5F5F5F5F5F5F5F5F5F5F5F5F5F5F5F5F5F5F5F5F5F5F5F5F5F5F5F5F5F5F5F5F5F5F5F5F5F5F5F5F5F5F5F5F5F5F5F5
310
F5F5F5F5F5F5F5F5F5F5F5F5F5F5F5F5F5F5F5F5F5F5F5F5F5F5F5F5F5F5F5F5F5F5F5F5F5F5F5F5F5F5F5F5F5F5F5F5F5F5F5F5F5F5F5F5F5F5F5F5F5F5F5F5F5F5F5F5F5E2F5F5F5E2E2F5F5F5E2F5F5F5F5F5F5F5F5F5F5F5F5F5F5F5F5F5F5F5F5F5F5F5F5F5F5F5F5F5F5F5F5F5F5F5F5F5F5F5F5F5F5F5F5F5F5F5F5
310
F5F5F5F5F5F5F5F5F5F5F5F5F5F5F5F5F5F5F5F5F5F5F5F5F5F5F5F5F5F5F5F5F5F5F5F5F5F5F5F5F5F5F5F5F5F5F5F5F5F5F5F5F5F5F5F5F5F5F5F5F5F5F5F5F5F5F5F5F5F5F5F5F5F5F5F5F5F5F5F5F5F5F5F5F5F5F5F5F5F5F5F5F5F5F5F5F5F5F5F5F5F5F5F5F5F5F5F5F5F5F5F5F5F5F5F5F5F5F5F5F5F5E2F5F5F5E2
310
E2F5F5F5E2F5F5F5F5F5F5F5F5F5F5F5F5F5F5F5F5F5F5F5F5F5F5F5F5F5F5F5F5F5F5F5F5F5F5F5F5F5F5F5F5F5F5F5F5F5F5F5F5F5F5F5F5F5F5F5F5F5F5F5F5F5F5F5F5F5F5F5F5F5F5F5F5F5F5F5F5F5F5F5F5F5F5F5F5F5F5F5F5F5F5F5F5F5F5F5F5F5F5F5F5F5F5F5F5F5F5F5F5F5F5F5F5F5F5F5F5F5F5F5F5F5F5
310
F5F5F5F5F5F5F5F5F5F5F5F5F5F5F5F5F5F5F5F5F5F5F5F5F5F5F5F5F5F5F5F5F5F5F5F5F5F5F5F5F5F5F5F5F5F5F5F5E2F5F5F5E2E2F5F5F5E2F5F5F5F5F5F5F5F5F5F5F5F5F5F5F5F5F5F5F5F5F5F5F5F5F5F5F5F5F5F5F5F5F5F5F5F5F5F5F5F5F5F5F5F5F5F5F5F5F5F5F5F5F5F5F5F5F5F5F5F5F5F5F5F5F5F5F5F5F5
310
F5F5F5F5F5F5F5F5F5F5F5F5F5F5F5F5F5F5F5F5F5F5F5F5F5F5F5F5F5F5F5F5F5F5F5F5F5F5F5F5F5F5F5F5F5F5F5F5F5F5F5F5F5F5F5F5F5F5F5F5F5F5F5F5F5F5F5F5F5F5F5F5F5F5F5F5F5F5F5F5F5F5F5F5F5F5F5F5F5F5F5F5F5F5F5F5F5F5F5F5F5E2F5F5F5E2E2F5F5F5E2F5F5F5F5F5F5F5F5F5F5F5F5F5F5F5F5
310
F5F5F5F5F5F5F5F5F5F5F5F5F5F5F5F5F5F5F5F5F5F5F5F5F5F5F5F5F5F5F5F5F5F5F5F5F5F5F5F5F5F5F5F5F5F5F5F5F5F5F5F5F5F5F5F5F5F5F5F5F5F5F5F5F5F5F5F5F5F5F5F5F5F5F5F5F5F5F5F5F5F5F5F5F5F5F5F5F5F5F5F5F5F5F5F5F5F5F5F5F5F5F5F5F5F5F5F5F5F5F5F5F5F5F5F5F5F5F5F5F5F5F5F5F5F5F5
310
F5F5F5F5F5F5F5F5F5F5F5F5F5F5F5F5F5F5F5F5F5F5F5F5F5F5F5E2F5F5F5E2E2F5F5F5E2F5F5F5F5F5F5F5F5F5F5F5F5F5F5F5F5F5F5F5F5F5F5F5F5F5F5F5F5F5F5F5F5F5F5F5F5F5F5F5F5F5F5F5F5F5F5F5F5F5F5F5F5F5F5F5F5F5F5F5F5F5F5F5F5F5F5F5F5F5F5F5F5F5F5F5F5F5F5F5F5F5F5F5F5F5F5F5F5F5F5
310
F5F5F5F5F5F5F5F5F5F5F5F5F5F5F5F5F5F5F5F5F5F5F5F5F5F5F5F5F5F5F5F5F5F5F5F5F5F5F5F5F5F5F5F5F5F5F5F5F5F5F5F5F5F5F5F5F5F5F5F5F5F5F5F5F5F5F5F5F5F5F5F5F5F5F5F5F5F5F5F5E2F5F5F5E2E2F5F5F5E2F5F5F5F5F5F5F5F5F5F5F5F5F5F5F5F5F5F5F5F5F5F5F5F5F5F5F5F5F5F5F5F5F5F5F5F5F5
310
F5F5F5F5F5F5F5F5F5F5F5F5F5F5F5F5F5F5F5F5F5F5F5F5F5F5F5F5F5F5F5F5F5F5F5F5F5F5F5F5F5F5F5F5F5F5F5F5F5F5F5F5F5F5F5F5F5F5F5F5F5F5F5F5F5F5F5F5F5F5F5F5F5F5F5F5F5F5F5F5F5F5F5F5F5F5F5F5F5F5F5F5F5F5F5F5F5F5F5F5F5F5F5F5F5F5F5F5F5F5F5F5F5F5F5F5F5F5F5F5F5F5F5F5F5F5F5
310
F5F5F5F5F5F5E2F5F5F5E2E2F5F5F5E2F5F5F5F5F5F5F5F5F5F5F5F5F5F5F5F5F5F5F5F5F5F5F5F5F5F5F5F5F5F5F5F5F5F5F5F5F5F5F5F5F5F5F5F5F5F5F5F5F5F5F5F5F5F5F5F5F5F5F5F5F5F5F5F5F5F5F5F5F5F5F5F5F5F5F5F5F5F5F5F5F5F5F5F5F5F5F5F5F5F5F5F5F5F5F5F5F5F5F5F5F5F5F5F5F5F5F5F5F5F5F5
310
F5F5F5F5F5F5F5F5F5F5F5F5F5F5F5F5F5F5F5F5F5F5F5F5F5F5F5F5F5F5F5F5F5F5F5F5F5F5F5F5F5F5F5F5F5F5F5F5F5F5F5F5F5F5F5F5F5F5F5E2F5F5F5E2E2F5F5F5F5F5F5F5F5F5F5F5F5F5F5F5F5F5F5F5F5F5F5F5F5F5F5F5F5F5F5F5F5F5F5F5F5F5F5F5F5F5F5F5F5F5F5F5F5F5F5F5F5F5F5F5F5F5F5F5F5F5F5
310
F5F5F5F5F5F5F5F5F5F5F5F5F5F5F5F5F5F5F5F5F5F5F5F5F5F5F5F5F5F5F5F5F5F5F5F5F5F5F5F5F5F5F5F5F5F5F5F5F5F5F5F5F5F5F5F5F5F5F5F5F5F5F5F5F5F5F5F5F5F5F5F5F5F5F5F5F5F5F5F5F5F5F5F5F5F5F5F5F5F5F5F5F5F5F5F5F5F5F5F5F5F5F5F5F5F5F5F5F5F5F5F5F5F5F5F5E2E2F5F5F5F5F5F5F5F5F5
310
F5F5F5F5F5F5F5F5F5F5F5F5F5F5F5F5F5F5F5F5F5F5F5F5F5F5F5F5F5F5F5F5F5F5F5F5F5F5F5F5F5F5F5F5F5F5F5F5F5F5F5F5F5F5F5F5F5F5F5F5F5F5F5F5F5F5F5F5F5F5F5F5F5F5F5F5F5F5F5F5F5F5F5F5F5F5F5F5F5F5F5F5F5F5F5F5F5F5F5F5F5F5F5F5F5F5F5F5F5F5F5F5F5F5F5F5F5F5F5F5F5F5F5F5F5F5F5
310
F5F5F5F5F5F5F5F5F5F5F5F5F5F5F5F5F5F5F5F5F5F5F5F5F5F5F5F5F5F5F5F5F5F5F5F5F5F5F5F5F5F5E2E2F5F5F5F5F5F5F5F5F5F5F5F5F5F5F5F5F5F5F5F5F5F5F5F5F5F5F5F5F5F5F5F5F5F5F5F5F5F5F5F5F5F5F5F5F5F5F5F5F5F5F5F5F5F5F5F5F5F5F5F5F5F5F5F5F5F5F5F5F5F5F5F5F5F5F5F5F5F5F5F5F5F5F5
310
F5F5F5F5F5F5F5F5F5F5F5F5F5F5F5F5F5F5F5F5F5F5F5F5F5F5F5F5F5F5F5F5F5F5F5F5F5F5F5F5F5F5F5F5F5F5F5F5F5F5F5F5F5F5F5F5F5F5F5F5F5F5F5F5F5F5F5F5F5F5F5F5F5F5F5F5F5F5F5F5F5F5F5F5F5F5F5F5F5F5F5F5F5F5F5E2E2F5F5F5F5F5F5F5F5F5F5F5F5F5F5F5F5F5F5F5F5F5F5F5F5F5F5F5F5F5F5
310
F5F5F5F5F5F5F5F5F5F5F5F5F5F5F5F5F5F5F5F5F5F5F5F5F5F5F5F5F5F5F5F5F5F5F5F5F5F5F5F5F5F5F5F5F5F5F5F5F5F5F5F5F5F5F5F5F5F5F5F5F5F5F5F5F5F5F5F5F5F5F5F5F5F5F5F5F5F5F5F5F5F5F5F5F5F5F5F5F5F5F5F5F5F5F5F5F5F5F5F5F5F5F5F5F5F5F5F5F5F5F5F5F5F5F5F5F5F5F5F5F5F5F5F5F5F5F5
310
F5F5F5F5F5F5F5F5F5F5F5F5F5F5F5F5F5F5F5F5F5E2E2F5F5F5F5F5F5F5F5F5F5F5F5F5F5F5F5F5F5F5F5F5F5F5F5F5F5F5F5F5F5F5F5F5F5F5F5F5F5F5F5F5F5F5F5F5F5F5F5F5F5F5F5F5F5F5F5F5F5F5F5F5F5F5F5F5F5F5F5F5F5F5F5F5F5F5F5F5F5F5F5F5F5F5F5F5F5F5F5F5F5F5F5F5F5F5F5F5F5F5F5F5F5F5F5
310
F5F5F5F5F5F5F5F5F5F5F5F5F5F5F5F5F5F5F5F5F5F5F5F5F5F5F5F5F5F5F5F5F5F5F5F5F5F5F5F5F5F5F5F5F5F5F5F5F5F5F5F5F5F5F5F5F5F5F5F5F5F5F5F5F5F5F5F5F5F5F5F5F5F5E2E2F5F5F5F5F5F5F5F5F5F5F5F5F5F5F5F5F5F5F5F5F5F5F5F5F5F5F5F5F5F5F5F5F5F5F5F5F5F5F5F5F5F5F5F5F5F5F5F5F5F5F5
310
F5F5F5F5F5F5F5F5F5F5F5F5F5F5F5F5F5F5F5F5F5F5F5F5F5F5F5F5F5F5F5F5F5F5F5F5F5F5F5F5F5F5F5F5F5F5F5F5F5F5F5F5F5F5F5F5F5F5F5F5F5F5F5F5F5F5F5F5F5F5F5F5F5F5F5F5F5F5F5F5F5F5F5F5F5F5F5F5F5F5F5F5F5F5F5F5F5F5F5F5F5F5F5F5F5F5F5F5F5F5F5F5F5F5F5F5F5F5F5F5F5F5F5F5F5F5F5
310
E2E2F5F5F5F5F5F5F5F5F5F5F5F5F5F5F5F5F5F5F5F5F5F5F5F5F5F5F5F5F5F5F5F5F5F5F5F5F5F5F5F5F5F5F5F5F5F5F5F5F5F5F5F5F5F5F5F5F5F5F5F5F5F5F5F5F5F5F5F5F5F5F5F5F5F5F5F5F5F5F5F5F5F5F5F5F5F5F5F5F5F5F5F5F5F5F5F5F5F5F5F5F5F5F5F5F5F5F5F5F5F5F5F5F5F5F5F5F5F5F5F5F5F5F5F5F5
310
F5F5F5F5F5F5F5F5F5F5F5F5F5F5F5F5F5F5F5F5F5F5F5F5F5F5F5F5F5F5F5F5F5F5F5F5F5F5F5F5F5F5F5F5F5F5F5F5F5F5F5F5F5E2E2F5F5F5F5F5F5F5F5F5F5F5F5F5F5F5F5F5F5F5F5F5F5F5F5F5F5F5F5F5F5F5F5F5F5F5F5F5F5F5F5F5F5F5F5F5F5F5F5F5F5F5F5F5F5F5F5F5F5F5F5F5F5F5F5F5F5F5F5F5F5F5F5
310
F5F5F5F5F5F5F5F5F5F5F5F5F5F5F5F5F5F5F5F5F5F5F5F5F5F5F5F5F5F5F5F5F5F5F5F5F5F5F5F5F5F5F5F5F5F5F5F5F5F5F5F5F5F5F5F5F5F5F5F5F5F5F5F5F5F5F5F5F5F5F5F5F5F5F5F5F5F5F5F5F5F5F5F5F5F5F5F5F5F5F5F5F5F5F5F5F5F5F5F5F5F5F5F5F5F5E2E2F5F5F5F5F5F5F5F5F5F5F5F5F5F5F5F5F5F5F5
310
F5F5F5F5F5F5F5F5F5F5F5F5F5F5F5F5F5F5F5F5F5F5F5F5F5F5F5F5F5F5F5F5F5F5F5F5F5F5F5F5F5F5F5F5F5F5F5F5F5F5F5F5F5F5F5F5F5F5F5F5F5F5F5F5F5F5F5F5F5F5F5F5F5F5F5F5F5F5F5F5F5F5F5F5F5F5F5F5F5F5F5F5F5F5F5F5F5F5F5F5F5F5F5F5F5F5F5F5F5F5F5F5F5F5F5F5F5F5F5F5F5F5F5F5F5F5F5
310
F5F5F5F5F5F5F5F5F5F5F5F5F5F5F5F5F5F5F5F5F5F5F5F5F5F5F5F5F5F5F5F5E2E2F5F5F5E2F5F5F5F5F5F5F5F5F5F5F5F5F5F5F5F5F5F5F5F5F5F5F5F5F5F5F5F5F5F5F5F5F5F5F5F5F5F5F5F5F5F5F5F5F5F5F5F5F5F5F5F5F5F5F5F5F5F5F5F5F5F5F5F5F5F5F5F5F5F5F5F5F5F5F5F5F5F5F5F5F5F5F5F5F5F5F5F5F5
310
F5F5F5F5F5F5F5F5F5F5F5F5F5F5F5F5F5F5F5F5F5F5F5F5F5F5F5F5F5F5F5F5F5F5F5F5F5F5F5F5F5F5F5F5F5F5F5F5F5F5F5F5F5F5F5F5F5F5F5F5F5F5F5F5F5F5F5F5F5F5F5F5F5F5F5F5F5F5F5F5F5E2F5F5F5E2E2F5F5F5E2F5F5F5F5F5F5F5F5F5F5F5F5F5F5F5F5F5F5F5F5F5F5F5F5F5F5F5F5F5F5F5F5F5F5F5F5
310
F5F5F5F5F5F5F5F5F5F5F5F5F5F5F5F5F5F5F5F5F5F5F5F5F5F5F5F5F5F5F5F5F5F5F5F5F5F5F5F5F5F5F5F5F5F5F5F5F5F5F5F5F5F5F5F5F5F5F5F5F5F5F5F5F5F5F5F5F5F5F5F5F5F5F5F5F5F5F5F5F5F5F5F5F5F5F5F5F5F5F5F5F5F5F5F5F5F5F5F5F5F5F5F5F5F5F5F5F5F5F5F5F5F5F5F5F5F5F5F5F5F5F5F5F5F5F5
310
F5F5F5F5F5F5F5E2F5F5F5E2E2F5F5F5E2F5F5F5F5F5F5F5F5F5F5F5F5F5F5F5F5F5F5F5F5F5F5F5F5F5F5F5F5F5F5F5F5F5F5F5F5F5F5F5F5F5F5F5F5F5F5F5F5F5F5F5F5F5F5F5F5F5F5F5F5F5F5F5F5F5F5F5F5F5F5F5F5F5F5F5F5F5F5F5F5F5F5F5F5F5F5F5F5F5F5F5F5F5F5F5F5F5F5F5F5F5F5F5F5F5F5F5F5F5F5
310
F5F5F5F5F5F5F5F5F5F5F5F5F5F5F5F5F5F5F5F5F5F5F5F5F5F5F5F5F5F5F5F5F5F5F5F5F5F5F5F5F5F5F5F5F5F5F5F5F5F5F5F5F5F5F5F5F5F5F5F5E2F5F5F5E2E2F5F5F5E2F5F5F5F5F5F5F5F5F5F5F5F5F5F5F5F5F5F5F5F5F5F5F5F5F5F5F5F5F5F5F5F5F5F5F5F5F5F5F5F5F5F5F5F5F5F5F5F5F5F5F5F5F5F5F5F5F5
310
F5F5F5F5F5F5F5F5F5F5F5F5F5F5F5F5F5F5F5F5F5F5F5F5F5F5F5F5F5F5F5F5F5F5F5F5F5F5F5F5F5F5F5F5F5F5F5F5F5F5F5F5F5F5F5F5F5F5F5F5F5F5F5F5F5F5F5F5F5F5F5F5F5F5F5F5F5F5F5F5F5F5F5F5F5F5F5F5F5F5F5F5F5F5F5F5F5F5F5F5F5F5F5F5F5F5F5F5F5F5F5F5F5E2F5F5F5E2E2F5F5F5E2F5F5F5F5
310
F5F5F5F5F5F5F5F5F5F5F5F5F5F5F5F5F5F5F5F5F5F5F5F5F5F5F5F5F5F5F5F5F5F5F5F5F5F5F5F5F5F5F5F5F5F5F5F5F5F5F5F5F5F5F5F5F5F5F5F5F5F5F5F5F5F5F5F5F5F5F5F5F5F5F5F5F5F5F5F5F5F5F5F5F5F5F5F5F5F5F5F5F5F5F5F5F5F5F5F5F5F5F5F5F5F5F5F5F5F5F5F5F5F5F5F5F5F5F5F5F5F5F5F5F5F5F5
310
F5F5F5F5F5F5F5F5F5F5F5F5F5F5F5F5F5F5F5F5F5F5F5F5F5F5F5F5F5F5F5F5F5F5F5F5F5F5F5E2F5F5F5E2E2F5F5F5E2F5F5F5F5F5F5F5F5F5F5F5F5F5F5F5F5F5F5F5F5F5F5F5F5F5F5F5F5F5F5F5F5F5F5F5F5F5F5F5F5F5F5F5F5F5F5F5F5F5F5F5F5F5F5F5F5F5F5F5F5F5F5F5F5F5F5F5F5F5F5F5F5F5F5F5F5F5F5
310
F5F5F5F5F5F5F5F5F5F5F5F5F5F5F5F5F5F5F5F5F5F5F5F5F5F5F5F5F5F5F5F5F5F5F5F5F5F5F5F5F5F5F5F5F5F5F5F5F5F5F5F5F5F5F5F5F5F5F5F5F5F5F5F5F5F5F5F5F5F5F5F5F5F5F5F5F5F5F5F5F5F5F5F5F5F5F5F5F5F5F5F5E2F5F5F5E2E2F5F5F5E2F5F5F5F5F5F5F5F5F5F5F5F5F5F5F5F5F5F5F5F5F5F5F5F5F5
310
F5F5F5F5F5F5F5F5F5F5F5F5F5F5F5F5F5F5F5F5F5F5F5F5F5F5F5F5F5F5F5F5F5F5F5F5F5F5F5F5F5F5F5F5F5F5F5F5F5F5F5F5F5F5F5F5F5F5F5F5F5F5F5F5F5F5F5F5F5F5F5F5F5F5F5F5F5F5F5F5F5F5F5F5F5F5F5F5F5F5F5F5F5F5F5F5F5F5F5F5F5F5F5F5F5F5F5F5F5F5F5F5F5F5F5F5F5F5F5F5F5F5F5F5F5F5F5
310
F5F5F5F5F5F5F5F5F5F5F5F5F5F5F5F5F5F5E2F5F5F5E2E2F5F5F5E2F5F5F5F5F5F5F5F5F5F5F5F5F5F5F5F5F5F5F5F5F5F5F5F5F5F5F5F5F5F5F5F5F5F5F5F5F5F5F5F5F5F5F5F5F5F5F5F5F5F5F5F5F5F5F5F5F5F5F5F5F5F5F5F5F5F5F5F5F5F5F5F5F5F5F5F5F5F5F5F5F5F5F5F5F5F5F5F5F5F5F5F5F5F5F5F5F5F5F5
310
F5F5F5F5F5F5F5F5F5F5F5F5F5F5F5F5F5F5F5F5F5F5F5F5F5F5F5F5F5F5F5F5F5F5F5F5F5F5F5F5F5F5F5F5F5F5F5F5F5F5F5F5F5F5F5F5F5F5F5F5F5F5F5F5F5F5F5F5F5F5F5E2F5F5F5E2E2F5F5F5E2F5F5F5F5F5F5F5F5F5F5F5F5F5F5F5F5F5F5F5F5F5F5F5F5F5F5F5F5F5F5F5F5F5F5F5F5F5F5F5F5F5F5F5F5F5F5
310
F5F5F5F5F5F5F5F5F5F5F5F5F5F5F5F5F5F5F5F5F5F5F5F5F5F5F5F5F5F5F5F5F5F5F5F5F5F5F5F5F5F5F5F5F5F5F5F5F5F5F5F5F5F5F5F5F5F5F5F5F5F5F5F5F5F5F5F5F5F5F5F5F5F5F5F5F5F5F5F5F5F5F5F5F5F5F5F5F5F5F5F5F5F5F5F5F5F5F5F5F5F5F5F5F5F5F5F5F5F5F5F5F5F5F5F5F5F5F5F5F5F5F5F5E2F5F5
310
F5E2E2F5F5F5E2F5F5F5F5F5F5F5F5F5F5F5F5F5F5F5F5F5F5F5F5F5F5F5F5F5F5F5F5F5F5F5F5F5F5F5F5F5F5F5F5F5F5F5F5F5F5F5F5F5F5F5F5F5F5F5F5F5F5F5F5F5F5F5F5F5F5F5F5F5F5F5F5F5F5F5F5F5F5F5F5F5F5F5F5F5F5F5F5F5F5F5F5F5F5F5F5F5F5F5F5F5F5F5F5F5F5F5F5F5F5F5F5F5F5F5F5F5F5F5F5
310
F5F5F5F5F5F5F5F5F5F5F5F5F5F5F5F5F5F5F5F5F5F5F5F5F5F5F5F5F5F5F5F5F5F5F5F5F5F5F5F5F5F5F5F5F5F5F5F5F5F5E2F5F5F5E2E2F5F5F5E2F5F5F5F5F5F5F5F5F5F5F5F5F5F5F5F5F5F5F5F5F5F5F5F5F5F5F5F5F5F5F5F5F5F5F5F5F5F5F5F5F5F5F5F5F5F5F5F5F5F5F5F5F5F5F5F5F5F5F5F5F5F5F5F5F5F5F5
310
F5F5F5F5F5F5F5F5F5F5F5F5F5F5F5F5F5F5F5F5F5F5F5F5F5F5F5F5F5F5F5F5F5F5F5F5F5F5F5F5F5F5F5F5F5F5F5F5F5F5F5F5F5F5F5F5F5F5F5F5F5F5F5F5F5F5F5F5F5F5F5F5F5F5F5F5F5F5F5F5F5F5F5F5F5F5F5F5F5F5F5F5F5F5F5F5F5F5F5F5F5F5F5E2F5F5F5E2E2F5F5F5E2F5F5F5F5F5F5F5F5F5F5F5F5F5F5
310
F5F5F5F5F5F5F5F5F5F5F5F5F5F5F5F5F5F5F5F5F5F5F5F5F5F5F5F5F5F5F5F5F5F5F5F5F5F5F5F5F5F5F5F5F5F5F5F5F5F5F5F5F5F5F5F5F5F5F5F5F5F5F5F5F5F5F5F5F5F5F5F5F5F5F5F5F5F5F5F5F5F5F5F5F5F5F5F5F5F5F5F5F5F5F5F5F5F5F5F5F5F5F5F5F5F5F5F5F5F5F5F5F5F5F5F5F5F5F5F5F5F5F5F5F5F5F5
310
F5F5F5F5F5F5F5F5F5F5F5F5F5F5F5F5F5F5F5F5F5F5F5F5F5F5F5F5F5E2F5F5F5E2E2F5F5F5E2F5F5F5F5F5F5F5F5F5F5F5F5F5F5F5F5F5F5F5F5F5F5F5F5F5F5F5F5F5F5F5F5F5F5F5F5F5F5F5F5F5F5F5F5F5F5F5F5F5F5F5F5F5F5F5F5F5F5F5F5F5F5F5F5F5F5F5F5F5F5F5F5F5F5F5F5F5F5F5F5F5F5F5F5F5F5F5F5
310
F5F5F5F5F5F5F5F5F5F5F5F5F5F5F5F5F5F5F5F5F5F5F5F5F5F5F5F5F5F5F5F5F5F5F5F5F5F5F5F5F5F5F5F5F5F5F5F5F5F5F5F5F5F5F5F5F5F5F5F5F5F5F5F5F5F5F5F5F5F5F5F5F5F5F5F5F5F5F5F5F5F5E2F5F5F5E2E2F5F5F5E2F5F5F5F5F5F5F5F5F5F5F5F5F5F5F5F5F5F5F5F5F5F5F5F5F5F5F5F5F5F5F5F5F5F5F5
310
F5F5F5F5F5F5F5F5F5F5F5F5F5F5F5F5F5F5F5F5F5F5F5F5F5F5F5F5F5F5F5F5F5F5F5F5F5F5F5F5F5F5F5F5F5F5F5F5F5F5F5F5F5F5F5F5F5F5F5F5F5F5F5F5F5F5F5F5F5F5F5F5F5F5F5F5F5F5F5F5F5F5F5F5F5F5F5F5F5F5F5F5F5F5F5F5F5F5F5F5F5F5F5F5F5F5F5F5F5F5F5F5F5F5F5F5F5F5F5F5F5F5F5F5F5F5F5
310
F5F5F5F5F5F5F5F5E2F5F5F5E2E2F5F5F5E2F5F5F5F5F5F5F5F5F5F5F5F5F5F5F5F5F5F5F5F5F5F5F5F5F5F5F5F5F5F5F5F5F5F5F5F5F5F5F5F5F5F5F5F5F5F5F5F5F5F5F5F5F5F5F5F5F5F5F5F5F5F5F5F5F5F5F5F5F5F5F5F5F5F5F5F5F5F5F5F5F5F5F5F5F5F5F5F5F5F5F5F5F5F5F5F5F5F5F5F5F5F5F5F5F5F5F5F5F5
310
F5F5F5F5F5F5F5F5F5F5F5F5F5F5F5F5F5F5F5F5F5F5F5F5F5F5F5F5F5F5F5F5F5F5F5F5F5F5F5F5F5F5F5F5F5F5F5F5F5F5F5F5F5F5F5F5F5F5F5F5F5E2F5F5F5E2E2F5F5F5E2F5F5F5F5F5F5F5F5F5F5F5F5F5F5F5F5F5F5F5F5F5F5F5F5F5F5F5F5F5F5F5F5F5F5F5F5F5F5F5F5F5F5F5F5F5F5F5F5F5F5F5F5F5F5F5F5
310
F5F5F5F5F5F5F5F5F5F5F5F5F5F5F5F5F5F5F5F5F5F5F5F5F5F5F5F5F5F5F5F5F5F5F5F5F5F5F5F5F5F5F5F5F5F5F5F5F5F5F5F5F5F5F5F5F5F5F5F5F5F5F5F5F5F5F5F5F5F5F5F5F5F5F5F5F5F5F5F5F5F5F5F5F5F5F5F5F5F5F5F5F5F5F5F5F5F5F5F5F5F5F5F5F5F5F5F5F5F5F5F5F5F5E2F5F5F5E2E2F5F5F5F5F5F5F5
310
F5F5F5F5F5F5F5F5F5F5F5F5F5F5F5F5F5F5F5F5F5F5F5F5F5F5F5F5F5F5F5F5F5F5F5F5F5F5F5F5F5F5F5F5F5F5F5F5F5F5F5F5F5F5F5F5F5F5F5F5F5F5F5F5F5F5F5F5F5F5F5F5F5F5F5F5F5F5F5F5F5F5F5F5F5F5F5F5F5F5F5F5F5F5F5F5F5F5F5F5F5F5F5F5F5F5F5F5F5F5F5F5F5F5F5F5F5F5F5F5F5F5F5F5F5F5F5
310
F5F5F5F5F5F5F5F5F5F5F5F5F5F5F5F5F5F5F5F5F5F5F5F5F5F5F5F5F5F5F5F5F5F5F5F5F5F5F5F5F5F5F5F5E2E2F5F5F5F5F5F5F5F5F5F5F5F5F5F5F5F5F5F5F5F5F5F5F5F5F5F5F5F5F5F5F5F5F5F5F5F5F5F5F5F5F5F5F5F5F5F5F5F5F5F5F5F5F5F5F5F5F5F5F5F5F5F5F5F5F5F5F5F5F5F5F5F5F5F5F5F5F5F5F5F5F5
310
F5F5F5F5F5F5F5F5F5F5F5F5F5F5F5F5F5F5F5F5F5F5F5F5F5F5F5F5F5F5F5F5F5F5F5F5F5F5F5F5F5F5F5F5F5F5F5F5F5F5F5F5F5F5F5F5F5F5F5F5F5F5F5F5F5F5F5F5F5F5F5F5F5F5F5F5F5F5F5F5F5F5F5F5F5F5F5F5F5F5F5F5F5F5F5F5F5E2E2F5F5F5F5F5F5F5F5F5F5F5F5F5F5F5F5F5F5F5F5F5F5F5F5F5F5F5F5
310
F5F5F5F5F5F5F5F5F5F5F5F5F5F5F5F5F5F5F5F5F5F5F5F5F5F5F5F5F5F5F5F5F5F5F5F5F5F5F5F5F5F5F5F5F5F5F5F5F5F5F5F5F5F5F5F5F5F5F5F5F5F5F5F5F5F5F5F5F5F5F5F5F5F5F5F5F5F5F5F5F5F5F5F5F5F5F5F5F5F5F5F5F5F5F5F5F5F5F5F5F5F5F5F5F5F5F5F5F5F5F5F5F5F5F5F5F5F5F5F5F5F5F5F5F5F5F5
310
F5F5F5F5F5F5F5F5F5F5F5F5F5F5F5F5F5F5F5F5F5F5F5E2E2F5F5F5F5F5F5F5F5F5F5F5F5F5F5F5F5F5F5F5F5F5F5F5F5F5F5F5F5F5F5F5F5F5F5F5F5F5F5F5F5F5F5F5F5F5F5F5F5F5F5F5F5F5F5F5F5F5F5F5F5F5F5F5F5F5F5F5F5F5F5F5F5F5F5F5F5F5F5F5F5F5F5F5F5F5F5F5F5F5F5F5F5F5F5F5F5F5F5F5F5F5F5
310
F5F5F5F5F5F5F5F5F5F5F5F5F5F5F5F5F5F5F5F5F5F5F5F5F5F5F5F5F5F5F5F5F5F5F5F5F5F5F5F5F5F5F5F5F5F5F5F5F5F5F5F5F5F5F5F5F5F5F5F5F5F5F5F5F5F5F5F5F5F5F5F5F5F5F5F5E2E2F5F5F5F5F5F5F5F5F5F5F5F5F5F5F5F5F5F5F5F5F5F5F5F5F5F5F5F5F5F5F5F5F5F5F5F5F5F5F5F5F5F5F5F5F5F5F5F5F5
310
F5F5F5F5F5F5F5F5F5F5F5F5F5F5F5F5F5F5F5F5F5F5F5F5F5F5F5F5F5F5F5F5F5F5F5F5F5F5F5F5F5F5F5F5F5F5F5F5F5F5F5F5F5F5F5F5F5F5F5F5F5F5F5F5F5F5F5F5F5F5F5F5F5F5F5F5F5F5F5F5F5F5F5F5F5F5F5F5F5F5F5F5F5F5F5F5F5F5F5F5F5F5F5F5F5F5F5F5F5F5F5F5F5F5F5F5F5F5F5F5F5F5F5F5F5F5F5
310
F5F5E2E2F5F5F5F5F5F5F5F5F5F5F5F5F5F5F5F5F5F5F5F5F5F5F5F5F5F5F5F5F5F5F5F5F5F5F5F5F5F5F5F5F5F5F5F5F5F5F5F5F5F5F5F5F5F5F5F5F5F5F5F5F5F5F5F5F5F5F5F5F5F5F5F5F5F5F5F5F5F5F5F5F5F5F5F5F5F5F5F5F5F5F5F5F5F5F5F5F5F5F5F5F5F5F5F5F5F5F5F5F5F5F5F5F5F5F5F5F5F5F5F5F5F5F5
310
F5F5F5F5F5F5F5F5F5F5F5F5F5F5F5F5F5F5F5F5F5F5F5F5F5F5F5F5F5F5F5F5F5F5F5F5F5F5F5F5F5F5F5F5F5F5F5F5F5F5F5F5F5F5F5E2E2F5F5F5F5F5F5F5F5F5F5F5F5F5F5F5F5F5F5F5F5F5F5F5F5F5F5F5F5F5F5F5F5F5F5F5F5F5F5F5F5F5F5F5F5F5F5F5F5F5F5F5F5F5F5F5F5F5F5F5F5F5F5F5F5F5F5F5F5F5F5
310
F5F5F5F5F5F5F5F5F5F5F5F5F5F5F5F5F5F5F5F5F5F5F5F5F5F5F5F5F5F5F5F5F5F5F5F5F5F5F5F5F5F5F5F5F5F5F5F5F5F5F5F5F5F5F5F5F5F5F5F5F5F5F5F5F5F5F5F5F5F5F5F5F5F5F5F5F5F5F5F5F5F5F5F5F5F5F5F5F5F5F5F5F5F5F5F5F5F5F5F5F5F5F5F5F5F5F5F5E2E2F5F5F5F5F5F5F5F5F5F5F5F5F5F5F5F5F5
310
F5F5F5F5F5F5F5F5F5F5F5F5F5F5F5F5F5F5F5F5F5F5F5F5F5F5F5F5F5F5F5F5F5F5F5F5F5F5F5F5F5F5F5F5F5F5F5F5F5F5F5F5F5F5F5F5F5F5F5F5F5F5F5F5F5F5F5F5F5F5F5F5F5F5F5F5F5F5F5F5F5F5F5F5F5F5F5F5F5F5F5F5F5F5F5F5F5F5F5F5F5F5F5F5F5F5F5F5F5F5F5F5F5F5F5F5F5F5F5F5F5F5F5F5F5F5F5
310
F5F5F5F5F5F5F5F5F5F5F5F5F5F5F5F5F5F5F5F5F5F5F5F5F5F5F5F5F5F5F5F5F5F5E2E2F5F5F5F5F5F5F5F5F5F5F5F5F5F5F5F5F5F5F5F5F5F5F5F5F5F5F5F5F5F5F5F5F5F5F5F5F5F5F5F5F5F5F5F5F5F5F5F5F5F5F5F5F5F5F5F5F5F5F5F5F5F5F5F5F5F5F5F5F5F5F5F5F5F5F5F5F5F5F5F5F5F5F5F5F5F5F5F5F5F5F5
310
F5F5F5F5F5F5F5F5F5F5F5F5F5F5F5F5F5F5F5F5F5F5F5F5F5F5F5F5F5F5F5F5F5F5F5F5F5F5F5F5F5F5F5F5F5F5F5F5F5F5F5F5F5F5F5F5F5F5F5F5F5F5F5F5F5F5F5F5F5F5F5F5F5F5F5F5F5F5F5F5F5F5F5F5F5F5F5E2E2F5F5F5F5F5F5F5F5F5F5F5F5F5F5F5F5F5F5F5F5F5F5F5F5F5F5F5F5F5F5F5F5F5F5F5F5F5F5
310
F5F5F5F5F5F5F5F5F5F5F5F5F5F5F5F5F5F5F5F5F5F5F5F5F5F5F5F5F5F5F5F5F5F5F5F5F5F5F5F5F5F5F5F5F5F5F5F5F5F5F5F5F5F5F5F5F5F5F5F5F5F5F5F5F5F5F5F5F5F5F5F5F5F5F5F5F5F5F5F5F5F5F5F5F5F5F5F5F5F5F5F5F5F5F5F5F5F5F5F5F5F5F5F5F5F5F5F5F5F5F5F5F5F5F5F5F5F5F5F5F5F5F5F5F5F5F5
310
F5F5F5F5F5F5F5F5F5F5F5F5F5E2E2F5F5F5E2F5F5F5F5F5F5F5F5F5F5F5F5F5F5F5F5F5F5F5F5F5F5F5F5F5F5F5F5F5F5F5F5F5F5F5F5F5F5F5F5F5F5F5F5F5F5F5F5F5F5F5F5F5F5F5F5F5F5F5F5F5F5F5F5F5F5F5F5F5F5F5F5F5F5F5F5F5F5F5F5F5F5F5F5F5F5F5F5F5F5F5F5F5F5F5F5F5F5F5F5F5F5F5F5F5F5F5F5
310
F5F5F5F5F5F5F5F5F5F5F5F5F5F5F5F5F5F5F5F5F5F5F5F5F5F5F5F5F5F5F5F5F5F5F5F5F5F5F5F5F5F5F5F5F5F5F5F5F5F5F5F5F5F5F5F5F5F5F5F5F5F5E2F5F5F5E2E2F5F5F5E2F5F5F5F5F5F5F5F5F5F5F5F5F5F5F5F5F5F5F5F5F5F5F5F5F5F5F5F5F5F5F5F5F5F5F5F5F5F5F5F5F5F5F5F5F5F5F5F5F5F5F5F5F5F5F5
310
F5F5F5F5F5F5F5F5F5F5F5F5F5F5F5F5F5F5F5F5F5F5F5F5F5F5F5F5F5F5F5F5F5F5F5F5F5F5F5F5F5F5F5F5F5F5F5F5F5F5F5F5F5F5F5F5F5F5F5F5F5F5F5F5F5F5F5F5F5F5F5F5F5F5F5F5F5F5F5F5F5F5F5F5F5F5F5F5F5F5F5F5F5F5F5F5F5F5F5F5F5F5F5F5F5F5F5F5F5F5F5F5F5F5F5E2F5F5F5E2E2F5F5F5E2F5F5
310
F5F5F5F5F5F5F5F5F5F5F5F5F5F5F5F5F5F5F5F5F5F5F5F5F5F5F5F5F5F5F5F5F5F5F5F5F5F5F5F5F5F5F5F5F5F5F5F5F5F5F5F5F5F5F5F5F5F5F5F5F5F5F5F5F5F5F5F5F5F5F5F5F5F5F5F5F5F5F5F5F5F5F5F5F5F5F5F5F5F5F5F5F5F5F5F5F5F5F5F5F5F5F5F5F5F5F5F5F5F5F5F5F5F5F5F5F5F5F5F5F5F5F5F5F5F5F5
310
F5F5F5F5F5F5F5F5F5F5F5F5F5F5F5F5F5F5F5F5F5F5F5F5F5F5F5F5F5F5F5F5F5F5F5F5F5F5F5F5F5E2F5F5F5E2E2F5F5F5E2F5F5F5F5F5F5F5F5F5F5F5F5F5F5F5F5F5F5F5F5F5F5F5F5F5F5F5F5F5F5F5F5F5F5F5F5F5F5F5F5F5F5F5F5F5F5F5F5F5F5F5F5F5F5F5F5F5F5F5F5F5F5F5F5F5F5F5F5F5F5F5F5F5F5F5F5
310
F5F5F5F5F5F5F5F5F5F5F5F5F5F5F5F5F5F5F5F5F5F5F5F5F5F5F5F5F5F5F5F5F5F5F5F5F5F5F5F5F5F5F5F5F5F5F5F5F5F5F5F5F5F5F5F5F5F5F5F5F5F5F5F5F5F5F5F5F5F5F5F5F5F5F5F5F5F5F5F5F5F5F5F5F5F5F5F5F5F5F5F5F5F5E2F5F5F5E2E2F5F5F5E2F5F5F5F5F5F5F5F5F5F5F5F5F5F5F5F5F5F5F5F5F5F5F5
310
F5F5F5F5F5F5F5F5F5F5F5F5F5F5F5F5F5F5F5F5F5F5F5F5F5F5F5F5F5F5F5F5F5F5F5F5F5F5F5F5F5F5F5F5F5F5F5F5F5F5F5F5F5F5F5F5F5F5F5F5F5F5F5F5F5F5F5F5F5F5F5F5F5F5F5F5F5F5F5F5F5F5F5F5F5F5F5F5F5F5F5F5F5F5F5F5F5F5F5F5F5F5F5F5F5F5F5F5F5F5F5F5F5F5F5F5F5F5F5F5F5F5F5F5F5F5F5
310
F5F5F5F5F5F5F5F5F5F5F5F5F5F5F5F5F5F5F5F5E2F5F5F5E2E2F5F5F5E2F5F5F5F5F5F5F5F5F5F5F5F5F5F5F5F5F5F5F5F5F5F5F5F5F5F5F5F5F5F5F5F5F5F5F5F5F5F5F5F5F5F5F5F5F5F5F5F5F5F5F5F5F5F5F5F5F5F5F5F5F5F5F5F5F5F5F5F5F5F5F5F5F5F5F5F5F5F5F5F5F5F5F5F5F5F5F5F5F5F5F5F5F5F5F5F5F5
310
F5F5F5F5F5F5F5F5F5F5F5F5F5F5F5F5F5F5F5F5F5F5F5F5F5F5F5F5F5F5F5F5F5F5F5F5F5F5F5F5F5F5F5F5F5F5F5F5F5F5F5F5F5F5F5F5F5F5F5F5F5F5F5F5F5F5F5F5F5F5F5F5F5E2F5F5F5E2E2F5F5F5E2F5F5F5F5F5F5F5F5F5F5F5F5F5F5F5F5F5F5F5F5F5F5F5F5F5F5F5F5F5F5F5F5F5F5F5F5F5F5F5F5F5F5F5F5
310
F5F5F5F5F5F5F5F5F5F5F5F5F5F5F5F5F5F5F5F5F5F5F5F5F5F5F5F5F5F5F5F5F5F5F5F5F5F5F5F5F5F5F5F5F5F5F5F5F5F5F5F5F5F5F5F5F5F5F5F5F5F5F5F5F5F5F5F5F5F5F5F5F5F5F5F5F5F5F5F5F5F5F5F5F5F5F5F5F5F5F5F5F5F5F5F5F5F5F5F5F5F5F5F5F5F5F5F5F5F5F5F5F5F5F5F5F5F5F5F5F5F5F5F5F5F5E2
310
F5F5F5E2E2F5F5F5E2F5F5F5F5F5F5F5F5F5F5F5F5F5F5F5F5F5F5F5F5F5F5F5F5F5F5F5F5F5F5F5F5F5F5F5F5F5F5F5F5F5F5F5F5F5F5F5F5F5F5F5F5F5F5F5F5F5F5F5F5F5F5F5F5F5F5F5F5F5F5F5F5F5F5F5F5F5F5F5F5F5F5F5F5F5F5F5F5F5F5F5F5F5F5F5F5F5F5F5F5F5F5F5F5F5F5F5F5F5F5F5F5F5F5F5F5F5F5
310
F5F5F5F5F5F5F5F5F5F5F5F5F5F5F5F5F5F5F5F5F5F5F5F5F5F5F5F5F5F5F5F5F5F5F5F5F5F5F5F5F5F5F5F5F5F5F5F5F5F5F5F5E2F5F5F5E2E2F5F5F5E2F5F5F5F5F5F5F5F5F5F5F5F5F5F5F5F5F5F5F5F5F5F5F5F5F5F5F5F5F5F5F5F5F5F5F5F5F5F5F5F5F5F5F5F5F5F5F5F5F5F5F5F5F5F5F5F5F5F5F5F5F5F5F5F5F5
310
F5F5F5F5F5F5F5F5F5F5F5F5F5F5F5F5F5F5F5F5F5F5F5F5F5F5F5F5F5F5F5F5F5F5F5F5F5F5F5F5F5F5F5F5F5F5F5F5F5F5F5F5F5F5F5F5F5F5F5F5F5F5F5F5F5F5F5F5F5F5F5F5F5F5F5F5F5F5F5F5F5F5F5F5F5F5F5F5F5F5F5F5F5F5F5F5F5F5F5F5F5F5F5F5F5E2F5F5F5E2E2F5F5F5E2F5F5F5F5F5F5F5F5F5F5F5F5
310
F5F5F5F5F5F5F5F5F5F5F5F5F5F5F5F5F5F5F5F5F5F5F5F5F5F5F5F5F5F5F5F5F5F5F5F5F5F5F5F5F5F5F5F5F5F5F5F5F5F5F5F5F5F5F5F5F5F5F5F5F5F5F5F5F5F5F5F5F5F5F5F5F5F5F5F5F5F5F5F5F5F5F5F5F5F5F5F5F5F5F5F5F5F5F5F5F5F5F5F5F5F5F5F5F5F5F5F5F5F5F5F5F5F5F5F5F5F5F5F5F5F5F5F5F5F5F5
310
F5F5F5F5F5F5F5F5F5F5F5F5F5F5F5F5F5F5F5F5F5F5F5F5F5F5F5F5F5F5F5E2F5F5F5E2E2F5F5F5E2F5F5F5F5F5F5F5F5F5F5F5F5F5F5F5F5F5F5F5F5F5F5F5F5F5F5F5F5F5F5F5F5F5F5F5F5F5F5F5F5F5F5F5F5F5F5F5F5F5F5F5F5F5F5F5F5F5F5F5F5F5F5F5F5F5F5F5F5F5F5F5F5F5F5F5F5F5F5F5F5F5F5F5F5F5F5
310
F5F5F5F5F5F5F5F5F5F5F5F5F5F5F5F5F5F5F5F5F5F5F5F5F5F5F5F5F5F5F5F5F5F5F5F5F5F5F5F5F5F5F5F5F5F5F5F5F5F5F5F5F5F5F5F5F5F5F5F5F5F5F5F5F5F5F5F5F5F5F5F5F5F5F5F5F5F5F5F5F5F5F5F5E2F5F5F5E2E2F5F5F5E2F5F5F5F5F5F5F5F5F5F5F5F5F5F5F5F5F5F5F5F5F5F5F5F5F5F5F5F5F5F5F5F5F5
310
F5F5F5F5F5F5F5F5F5F5F5F5F5F5F5F5F5F5F5F5F5F5F5F5F5F5F5F5F5F5F5F5F5F5F5F5F5F5F5F5F5F5F5F5F5F5F5F5F5F5F5F5F5F5F5F5F5F5F5F5F5F5F5F5F5F5F5F5F5F5F5F5F5F5F5F5F5F5F5F5F5F5F5F5F5F5F5F5F5F5F5F5F5F5F5F5F5F5F5F5F5F5F5F5F5F5F5F5F5F5F5F5F5F5F5F5F5F5F5F5F5F5F5F5F5F5F5
310
F5F5F5F5F5F5F5F5F5F5E2F5F5F5E2E2F5F5F5E2F5F5F5F5F5F5F5F5F5F5F5F5F5F5F5F5F5F5F5F5F5F5F5F5F5F5F5F5F5F5F5F5F5F5F5F5F5F5F5F5F5F5F5F5F5F5F5F5F5F5F5F5F5F5F5F5F5F5F5F5F5F5F5F5F5F5F5F5F5F5F5F5F5F5F5F5F5F5F5F5F5F5F5F5F5F5F5F5F5F5F5F5F5F5F5F5F5F5F5F5F5F5F5F5F5F5F5
310
F5F5F5F5F5F5F5F5F5F5F5F5F5F5F5F5F5F5F5F5F5F5F5F5F5F5F5F5F5F5F5F5F5F5F5F5F5F5F5F5F5F5F5F5F5F5F5F5F5F5F5F5F5F5F5F5F5F5F5F5F5F5F5E2F5F5F5E2E2F5F5F5E2F5F5F5F5F5F5F5F5F5F5F5F5F5F5F5F5F5F5F5F5F5F5F5F5F5F5F5F5F5F5F5F5F5F5F5F5F5F5F5F5F5F5F5F5F5F5F5F5F5F5F5F5F5F5
310
F5F5F5F5F5F5F5F5F5F5F5F5F5F5F5F5F5F5F5F5F5F5F5F5F5F5F5F5F5F5F5F5F5F5F5F5F5F5F5F5F5F5F5F5F5F5F5F5F5F5F5F5F5F5F5F5F5F5F5F5F5F5F5F5F5F5F5F5F5F5F5F5F5F5F5F5F5F5F5F5F5F5F5F5F5F5F5F5F5F5F5F5F5F5F5F5F5F5F5F5F5F5F5F5F5F5F5F5F5F5F5F5F5F5F5F5E2F5F5F5E2E2F5F5F5E2F5
310
F5F5F5F5F5F5F5F5F5F5F5F5F5F5F5F5F5F5F5F5F5F5F5F5F5F5F5F5F5F5F5F5F5F5F5F5F5F5F5F5F5F5F5F5F5F5F5F5F5F5F5F5F5F5F5F5F5F5F5F5F5F5F5F5F5F5F5F5F5F5F5F5F5F5F5F5F5F5F5F5F5F5F5F5F5F5F5F5F5F5F5F5F5F5F5F5F5F5F5F5F5F5F5F5F5F5F5F5F5F5F5F5F5F5F5F5F5F5F5F5F5F5F5F5F5F5F5
310
F5F5F5F5F5F5F5F5F5F5F5F5F5F5F5F5F5F5F5F5F5F5F5F5F5F5F5F5F5F5F5F5F5F5F5F5F5F5F5F5F5F5E2F5F5F5E2E2F5F5F5E2F5F5F5F5F5F5F5F5F5F5F5F5F5F5F5F5F5F5F5F5F5F5F5F5F5F5F5F5F5F5F5F5F5F5F5F5F5F5F5F5F5F5F5F5F5F5F5F5F5F5F5F5F5F5F5F5F5F5F5F5F5F5F5F5F5F5F5F5F5F5F5F5F5F5F5
310
F5F5F5F5F5F5F5F5F5F5F5F5F5F5F5F5F5F5F5F5F5F5F5F5F5F5F5F5F5F5F5F5F5F5F5F5F5F5F5F5F5F5F5F5F5F5F5F5F5F5F5F5F5F5F5F5F5F5F5F5F5F5F5F5F5F5F5F5F5F5F5F5F5F5F5F5F5F5F5F5F5F5F5F5F5F5F5F5F5F5F5F5F5F5F5E2F5F5F5E2E2F5F5F5F5F5F5F5F5F5F5F5F5F5F5F5F5F5F5F5F5F5F5F5F5F5F5
310
F5F5F5F5F5F5F5F5F5F5F5F5F5F5F5F5F5F5F5F5F5F5F5F5F5F5F5F5F5F5F5F5F5F5F5F5F5F5F5F5F5F5F5F5F5F5F5F5F5F5F5F5F5F5F5F5F5F5F5F5F5F5F5F5F5F5F5F5F5F5F5F5F5F5F5F5F5F5F5F5F5F5F5F5F5F5F5F5F5F5F5F5F5F5F5F5F5F5F5F5F5F5F5F5F5F5F5F5F5F5F5F5F5F5F5F5F5F5F5F5F5F5F5F5F5F5F5
310
F5F5F5F5F5F5F5F5F5F5F5F5F5F5F5F5F5F5F5F5F5F5F5F5F5E2E2F5F5F5F5F5F5F5F5F5F5F5F5F5F5F5F5F5F5F5F5F5F5F5F5F5F5F5F5F5F5F5F5F5F5F5F5F5F5F5F5F5F5F5F5F5F5F5F5F5F5F5F5F5F5F5F5F5F5F5F5F5F5F5F5F5F5F5F5F5F5F5F5F5F5F5F5F5F5F5F5F5F5F5F5F5F5F5F5F5F5F5F5F5F5F5F5F5F5F5F5
310
F5F5F5F5F5F5F5F5F5F5F5F5F5F5F5F5F5F5F5F5F5F5F5F5F5F5F5F5F5F5F5F5F5F5F5F5F5F5F5F5F5F5F5F5F5F5F5F5F5F5F5F5F5F5F5F5F5F5F5F5F5F5F5F5F5F5F5F5F5F5F5F5F5F5F5F5F5F5E2E2F5F5F5F5F5F5F5F5F5F5F5F5F5F5F5F5F5F5F5F5F5F5F5F5F5F5F5F5F5F5F5F5F5F5F5F5F5F5F5F5F5F5F5F5F5F5F5
310
F5F5F5F5F5F5F5F5F5F5F5F5F5F5F5F5F5F5F5F5F5F5F5F5F5F5F5F5F5F5F5F5F5F5F5F5F5F5F5F5F5F5F5F5F5F5F5F5F5F5F5F5F5F5F5F5F5F5F5F5F5F5F5F5F5F5F5F5F5F5F5F5F5F5F5F5F5F5F5F5F5F5F5F5F5F5F5F5F5F5F5F5F5F5F5F5F5F5F5F5F5F5F5F5F5F5F5F5F5F5F5F5F5F5F5F5F5F5F5F5F5F5F5F5F5F5F5
310
F5F5F5F5E2E2F5F5F5F5F5F5F5F5F5F5F5F5F5F5F5F5F5F5F5F5F5F5F5F5F5F5F5F5F5F5F5F5F5F5F5F5F5F5F5F5F5F5F5F5F5F5F5F5F5F5F5F5F5F5F5F5F5F5F5F5F5F5F5F5F5F5F5F5F5F5F5F5F5F5F5F5F5F5F5F5F5F5F5F5F5F5F5F5F5F5F5F5F5F5F5F5F5F5F5F5F5F5F5F5F5F5F5F5F5F5F5F5F5F5F5F5F5F5F5F5F5
310
F5F5F5F5F5F5F5F5F5F5F5F5F5F5F5F5F5F5F5F5F5F5F5F5F5F5F5F5F5F5F5F5F5F5F5F5F5F5F5F5F5F5F5F5F5F5F5F5F5F5F5F5F5F5F5F5F5E2E2F5F5F5F5F5F5F5F5F5F5F5F5F5F5F5F5F5F5F5F5F5F5F5F5F5F5F5F5F5F5F5F5F5F5F5F5F5F5F5F5F5F5F5F5F5F5F5F5F5F5F5F5F5F5F5F5F5F5F5F5F5F5F5F5F5F5F5F5
310
F5F5F5F5F5F5F5F5F5F5F5F5F5F5F5F5F5F5F5F5F5F5F5F5F5F5F5F5F5F5F5F5F5F5F5F5F5F5F5F5F5F5F5F5F5F5F5F5F5F5F5F5F5F5F5F5F5F5F5F5F5F5F5F5F5F5F5F5F5F5F5F5F5F5F5F5F5F5F5F5F5F5F5F5F5F5F5F5F5F5F5F5F5F5F5F5F5F5F5F5F5F5F5F5F5F5F5F5F5F5E2E2F5F5F5F5F5F5F5F5F5F5F5F5F5F5F5
310
F5F5F5F5F5F5F5F5F5F5F5F5F5F5F5F5F5F5F5F5F5F5F5F5F5F5F5F5F5F5F5F5F5F5F5F5F5F5F5F5F5F5F5F5F5F5F5F5F5F5F5F5F5F5F5F5F5F5F5F5F5F5F5F5F5F5F5F5F5F5F5F5F5F5F5F5F5F5F5F5F5F5F5F5F5F5F5F5F5F5F5F5F5F5F5F5F5F5F5F5F5F5F5F5F5F5F5F5F5F5F5F5F5F5F5F5F5F5F5F5F5F5F5F5F5F5F5
310
F5F5F5F5F5F5F5F5F5F5F5F5F5F5F5F5F5F5F5F5F5F5F5F5F5F5F5F5F5F5F5F5F5F5F5F5E2E2F5F5F5F5F5F5F5F5F5F5F5F5F5F5F5F5F5F5F5F5F5F5F5F5F5F5F5F5F5F5F5F5F5F5F5F5F5F5F5F5F5F5F5F5F5F5F5F5F5F5F5F5F5F5F5F5F5F5F5F5F5F5F5F5F5F5F5F5F5F5F5F5F5F5F5F5F5F5F5F5F5F5F5F5F5F5F5F5F5
310
F5F5F5F5F5F5F5F5F5F5F5F5F5F5F5F5F5F5F5F5F5F5F5F5F5F5F5F5F5F5F5F5F5F5F5F5F5F5F5F5F5F5F5F5F5F5F5F5F5F5F5F5F5F5F5F5F5F5F5F5F5F5F5F5F5F5F5F5F5F5F5F5F5F5F5F5F5F5F5F5F5F5F5F5F5F5F5F5F5E2E2F5F5F5F5F5F5F5F5F5F5F5F5F5F5F5F5F5F5F5F5F5F5F5F5F5F5F5F5F5F5F5F5F5F5F5F5
310
F5F5F5F5F5F5F5F5F5F5F5F5F5F5F5F5F5F5F5F5F5F5F5F5F5F5F5F5F5F5F5F5F5F5F5F5F5F5F5F5F5F5F5F5F5F5F5F5F5F5F5F5F5F5F5F5F5F5F5F5F5F5F5F5F5F5F5F5F5F5F5F5F5F5F5F5F5F5F5F5F5F5F5F5F5F5F5F5F5F5F5F5F5F5F5F5F5F5F5F5F5F5F5F5F5F5F5F5F5F5F5F5F5F5F5F5F5F5F5F5F5F5F5F5F5F5F5
310
F5F5F5F5F5F5F5F5F5F5F5F5F5F5F5E2E2F5F5F5F5F5F5F5F5F5F5F5F5F5F5F5F5F5F5F5F5F5F5F5F5F5F5F5F5F5F5F5F5F5F5F5F5F5F5F5F5F5F5F5F5F5F5F5F5F5F5F5F5F5F5F5F5F5F5F5F5F5F5F5F5F5F5F5F5F5F5F5F5F5F5F5F5F5F5F5F5F5F5F5F5F5F5F5F5F5F5F5F5F5F5F5F5F5F5F5F5F5F5F5F5F5F5F5F5F5F5
310
F5F5F5F5F5F5F5F5F5F5F5F5F5F5F5F5F5F5F5F5F5F5F5F5F5F5F5F5F5F5F5F5F5F5F5F5F5F5F5F5F5F5F5F5F5F5F5F5F5F5F5F5F5F5F5F5F5F5F5F5F5F5F5F5F5F5F5F5E2E2F5F5F5E2F5F5F5F5F5F5F5F5F5F5F5F5F5F5F5F5F5F5F5F5F5F5F5F5F5F5F5F5F5F5F5F5F5F5F5F5F5F5F5F5F5F5F5F5F5F5F5F5F5F5F5F5F5
310
F5F5F5F5F5F5F5F5F5F5F5F5F5F5F5F5F5F5F5F5F5F5F5F5F5F5F5F5F5F5F5F5F5F5F5F5F5F5F5F5F5F5F5F5F5F5F5F5F5F5F5F5F5F5F5F5F5F5F5F5F5F5F5F5F5F5F5F5F5F5F5F5F5F5F5F5F5F5F5F5F5F5F5F5F5F5F5F5F5F5F5F5F5F5F5F5F5F5F5F5F5F5F5F5F5F5F5F5F5F5F5F5F5F5F5F5F5E2F5F5F5E2E2F5F5F5E2
310
F5F5F5F5F5F5F5F5F5F5F5F5F5F5F5F5F5F5F5F5F5F5F5F5F5F5F5F5F5F5F5F5F5F5F5F5F5F5F5F5F5F5F5F5F5F5F5F5F5F5F5F5F5F5F5F5F5F5F5F5F5F5F5F5F5F5F5F5F5F5F5F5F5F5F5F5F5F5F5F5F5F5F5F5F5F5F5F5F5F5F5F5F5F5F5F5F5F5F5F5F5F5F5F5F5F5F5F5F5F5F5F5F5F5F5F5F5F5F5F5F5F5F5F5F5F5F5
310
F5F5F5F5F5F5F5F5F5F5F5F5F5F5F5F5F5F5F5F5F5F5F5F5F5F5F5F5F5F5F5F5F5F5F5F5F5F5F5F5F5F5F5E2F5F5F5E2E2F5F5F5E2F5F5F5F5F5F5F5F5F5F5F5F5F5F5F5F5F5F5F5F5F5F5F5F5F5F5F5F5F5F5F5F5F5F5F5F5F5F5F5F5F5F5F5F5F5F5F5F5F5F5F5F5F5F5F5F5F5F5F5F5F5F5F5F5F5F5F5F5F5F5F5F5F5F5
310
F5F5F5F5F5F5F5F5F5F5F5F5F5F5F5F5F5F5F5F5F5F5F5F5F5F5F5F5F5F5F5F5F5F5F5F5F5F5F5F5F5F5F5F5F5F5F5F5F5F5F5F5F5F5F5F5F5F5F5F5F5F5F5F5F5F5F5F5F5F5F5F5F5F5F5F5F5F5F5F5F5F5F5F5F5F5F5F5F5F5F5F5F5F5F5F5E2F5F5F5E2E2F5F5F5E2F5F5F5F5F5F5F5F5F5F5F5F5F5F5F5F5F5F5F5F5F5
310
F5F5F5F5F5F5F5F5F5F5F5F5F5F5F5F5F5F5F5F5F5F5F5F5F5F5F5F5F5F5F5F5F5F5F5F5F5F5F5F5F5F5F5F5F5F5F5F5F5F5F5F5F5F5F5F5F5F5F5F5F5F5F5F5F5F5F5F5F5F5F5F5F5F5F5F5F5F5F5F5F5F5F5F5F5F5F5F5F5F5F5F5F5F5F5F5F5F5F5F5F5F5F5F5F5F5F5F5F5F5F5F5F5F5F5F5F5F5F5F5F5F5F5F5F5F5F5
310
F5F5F5F5F5F5F5F5F5F5F5F5F5F5F5F5F5F5F5F5F5F5E2F5F5F5E2E2F5F5F5E2F5F5F5F5F5F5F5F5F5F5F5F5F5F5F5F5F5F5F5F5F5F5F5F5F5F5F5F5F5F5F5F5F5F5F5F5F5F5F5F5F5F5F5F5F5F5F5F5F5F5F5F5F5F5F5F5F5F5F5F5F5F5F5F5F5F5F5F5F5F5F5F5F5F5F5F5F5F5F5F5F5F5F5F5F5F5F5F5F5F5F5F5F5F5F5
310
F5F5F5F5F5F5F5F5F5F5F5F5F5F5F5F5F5F5F5F5F5F5F5F5F5F5F5F5F5F5F5F5F5F5F5F5F5F5F5F5F5F5F5F5F5F5F5F5F5F5F5F5F5F5F5F5F5F5F5F5F5F5F5F5F5F5F5F5F5F5F5F5F5F5F5E2F5F5F5E2E2F5F5F5E2F5F5F5F5F5F5F5F5F5F5F5F5F5F5F5F5F5F5F5F5F5F5F5F5F5F5F5F5F5F5F5F5F5F5F5F5F5F5F5F5F5F5
310
F5F5F5F5F5F5F5F5F5F5F5F5F5F5F5F5F5F5F5F5F5F5F5F5F5F5F5F5F5F5F5F5F5F5F5F5F5F5F5F5F5F5F5F5F5F5F5F5F5F5F5F5F5F5F5F5F5F5F5F5F5F5F5F5F5F5F5F5F5F5F5F5F5F5F5F5F5F5F5F5F5F5F5F5F5F5F5F5F5F5F5F5F5F5F5F5F5F5F5F5F5F5F5F5F5F5F5F5F5F5F5F5F5F5F5F5F5F5F5F5F5F5F5F5F5F5F5
310
F5E2F5F5F5E2E2F5F5F5E2F5F5F5F5F5F5F5F5F5F5F5F5F5F5F5F5F5F5F5F5F5F5F5F5F5F5F5F5F5F5F5F5F5F5F5F5F5F5F5F5F5F5F5F5F5F5F5F5F5F5F5F5F5F5F5F5F5F5F5F5F5F5F5F5F5F5F5F5F5F5F5F5F5F5F5F5F5F5F5F5F5F5F5F5F5F5F5F5F5F5F5F5F5F5F5F5F5F5F5F5F5F5F5F5F5F5F5F5F5F5F5F5F5F5F5F5
310
F5F5F5F5F5F5F5F5F5F5F5F5F5F5F5F5F5F5F5F5F5F5F5F5F5F5F5F5F5F5F5F5F5F5F5F5F5F5F5F5F5F5F5F5F5F5F5F5F5F5F5F5F5F5E2F5F5F5E2E2F5F5F5E2F5F5F5F5F5F5F5F5F5F5F5F5F5F5F5F5F5F5F5F5F5F5F5F5F5F5F5F5F5F5F5F5F5F5F5F5F5F5F5F5F5F5F5F5F5F5F5F5F5F5F5F5F5F5F5F5F5F5F5F5F5F5F5
310
F5F5F5F5F5F5F5F5F5F5F5F5F5F5F5F5F5F5F5F5F5F5F5F5F5F5F5F5F5F5F5F5F5F5F5F5F5F5F5F5F5F5F5F5F5F5F5F5F5F5F5F5F5F5F5F5F5F5F5F5F5F5F5F5F5F5F5F5F5F5F5F5F5F5F5F5F5F5F5F5F5F5F5F5F5F5F5F5F5F5F5F5F5F5F5F5F5F5F5F5F5F5F5F5F5F5F5E2F5F5F5E2E2F5F5F5E2E2E2E2E2E2E2E2F5F5F5
310
F5F5F5F5F5F5E2E2E2E2E2E2E2E2E2E2E2E2E2E2E2E2F5F5F5F5F5F5F5F5F5E2E2E2E2E2E2E2E2E2E2E2E2E2E2E2F5F5F5F5F5F5F5F5F5E2E2E2E2E2E2E2E2E2E2E2E2E2E2E2E2F5F5F5F5F5F5F5F5E2E2E2E2E2E2E2E2E2E2E2E2E2E2E2E2F5F5F5F5F5F5F5F5F5E2E2E2E2E2E2E2E2E2E2E2E2E2E2E2F5F5F5F5F5F5F5F5
310
F5E2E2E2E2E2E2E2E2E2E2E2E2E2E2E2E2F5F5F5F5F5F5F5F5F5E2E2E2E2E2E2E2E2F5F5F5E2E2F5F5F5F5F5F5F5F5F5F5F5F5F5F5F5F5F5F5F5F5F5F5F5F5F5F5F5F5F5F5F5F5F5F5F5F5F5F5F5F5F5F5F5F5F5F5F5F5F5F5F5F5F5F5F5F5F5F5F5F5F5F5F5F5F5F5F5F5F5F5F5F5F5F5F5F5F5F5F5F5F5F5F5F5F5F5F5F5
310
F5F5F5F5F5F5F5F5F5F5F5F5F5F5F5F5F5F5F5F5F5F5F5F5F5F5F5F5F5F5F5F5F5F5F5F5F5F5F5F5F5F5F5F5F5F5F5F5F5F5F5F5F5F5F5F5F5F5F5F5F5F5F5F5F5F5F5F5F5F5F5F5F5F5F5F5F5F5F5F5F5F5F5F5F5F5F5F5F5F5E2E2F5F5F5F5F5F5F5F5F5F5F5F5F5F5F5F5F5F5F5F5F5F5F5F5F5F5F5F5F5F5F5F5F5F5F5
310
F5F5F5F5F5F5F5F5F5F5F5F5F5F5F5F5F5F5F5F5F5F5F5F5F5F5F5F5F5F5F5F5F5F5F5F5F5F5F5F5F5F5F5F5F5F5F5F5F5F5F5F5F5F5F5F5F5F5F5F5F5F5F5F5F5F5F5F5F5F5F5F5F5F5F5F5F5F5F5F5F5F5F5F5F5F5F5F5F5F5F5F5F5F5F5F5F5F5F5F5F5F5F5F5F5F5F5F5F5F5F5F5F5F5F5F5F5F5F5F5F5F5F5F5F5F5F5
310
F5F5F5F5F5F5F5F5F5F5F5F5F5F5F5F5E2E2F5F5F5F5F5F5F5F5F5F5F5F5F5F5F5F5F5F5F5F5F5F5F5F5F5F5F5F5F5F5F5F5F5F5F5F5F5F5F5F5F5F5F5F5F5F5F5F5F5F5F5F5F5F5F5F5F5F5F5F5F5F5F5F5F5F5F5F5F5F5F5F5F5F5F5F5F5F5F5F5F5F5F5F5F5F5F5F5F5F5F5F5F5F5F5F5F5F5F5F5F5F5F5F5F5F5F5F5F5
310
F5F5F5F5F5F5F5F5F5F5F5F5F5F5F5F5F5F5F5F5F5F5F5F5F5F5F5F5F5F5F5F5F5F5F5F5F5F5F5F5F5F5F5F5F5F5F5F5F5F5F5F5F5F5F5F5F5F5F5F5F5F5F5F5F5F5F5F5F5E2E2F5F5F5F5F5F5F5F5F5F5F5F5F5F5F5F5F5F5F5F5F5F5F5F5F5F5F5F5F5F5F5F5F5F5F5F5F5F5F5F5F5F5F5F5F5F5F5F5F5F5F5F5F5F5F5F5
310
F5F5F5F5F5F5F5F5F5F5F5F5F5F5F5F5F5F5F5F5F5F5F5F5F5F5F5F5F5F5F5F5F5F5F5F5F5F5F5F5F5F5F5F5F5F5F5F5F5F5F5F5F5F5F5F5F5F5F5F5F5F5F5F5F5F5F5F5F5F5F5F5F5F5F5F5F5F5F5F5F5F5F5F5F5F5F5F5F5F5F5F5F5F5F5F5F5F5F5F5F5F5F5F5F5F5F5F5F5F5F5F5F5F5F5F5F5F5F5F5F5F5E2E2E2E2E2
310
E2E2E2E2E2E2E2E2E2E2E2E2E2E2E2E2E2E2E2E2E2E2E2E2E2E2E2E2E2E2E2E2E2E2E2E2E2E2E2E2E2E2E2E2E2E2E2E2E2E2E2E2E2E2E2E2E2E2E2E2E2E2E2E2E2E2E2E2E2E2E2E2E2E2E2E2E2E2E2E2E2E2E2E2E2E2E2E2E2E2E2E2E2E2E2E2E2E2E2E2E2E2E2E2E2E2E2E2E2E2E2E2E2E2E2E2E2E2E2E2E2E2E2E2E2E2E2
310
E2E2E2E2E2E2E2E2E2E2E2E2E2E2E2E2E2E2E2E2E2E2E2E2E2E2E2E2E2E2E2E2E2E2E2E2E2E2E2E2E2E2E2E2E2E2E2E2E2
  0
XRECORD
  5
1599
102
{ACAD_REACTORS
330
1598
102
}
330
1598
100
AcDbXrecord
280
     1
102
SHADEPLOT
 70
     0
102
SHADEPLOTRESLEVEL
 70
     2
102
SHADEPLOTCUSTOMDPI
 70
   300
  0
XRECORD
  5
1103
102
{ACAD_REACTORS
330
1102
102
}
330
1102
100
AcDbXrecord
280
     1
102
MATERIAL
148
0.0
149
0.0
149
0.0
 93
        0
 94
       63
282
     0
 72
     1
 77
     1
171
     1
175
     1
179
     1
273
     0
  0
XRECORD
  5
1101
102
{ACAD_REACTORS
330
1100
102
}
330
1100
100
AcDbXrecord
280
     1
102
MATERIAL
148
0.0
149
0.0
149
0.0
 93
        0
 94
       63
282
     0
 72
     1
 77
     1
171
     1
175
     1
179
     1
273
     0
  0
XRECORD
  5
1105
102
{ACAD_REACTORS
330
1104
102
}
330
1104
100
AcDbXrecord
280
     1
102
MATERIAL
148
0.0
149
0.0
149
0.0
 93
        0
 94
       63
282
     0
 72
     1
 77
     1
171
     1
175
     1
179
     1
273
     0
  0
XRECORD
  5
159C
102
{ACAD_REACTORS
330
159B
102
}
330
159B
100
AcDbXrecord
280
     1
102
ACAD_ROUNDTRIP_PRE2007_TABLESTYLE
 90
      512
 91
        0
  1

 92
      512
 93
        0
  2

 94
      512
 95
        0
  3

  0
ENDSEC
  0
EOF
